  0
SECTION
  2
HEADER
  9
$ACADVER
  1
AC1009
  9
$INSBASE
 10
1.2351028486011071
 20
11.247746401293711
 30
0.0
  9
$EXTMIN
 10
0.4507114057193182
 20
25.056498473518658
 30
0.0
  9
$EXTMAX
 10
13.339358514095871
 20
33.953049440917603
 30
0.0
  9
$LIMMIN
 10
0.0
 20
0.0
  9
$LIMMAX
 10
12.0
 20
9.0
  9
$ORTHOMODE
 70
     0
  9
$REGENMODE
 70
     1
  9
$FILLMODE
 70
     1
  9
$QTEXTMODE
 70
     0
  9
$MIRRTEXT
 70
     0
  9
$DRAGMODE
 70
     2
  9
$LTSCALE
 40
1.0
  9
$OSMODE
 70
   111
  9
$ATTMODE
 70
     1
  9
$TEXTSIZE
 40
0.2
  9
$TRACEWID
 40
0.05
  9
$TEXTSTYLE
  7
GORDON
  9
$CLAYER
  8
0
  9
$CELTYPE
  6
BYLAYER
  9
$CECOLOR
 62
   256
  9
$DIMSCALE
 40
1.0
  9
$DIMASZ
 40
0.18
  9
$DIMEXO
 40
0.0625
  9
$DIMDLI
 40
0.38
  9
$DIMRND
 40
0.0
  9
$DIMDLE
 40
0.0
  9
$DIMEXE
 40
0.18
  9
$DIMTP
 40
0.0
  9
$DIMTM
 40
0.0
  9
$DIMTXT
 40
0.18
  9
$DIMCEN
 40
0.09
  9
$DIMTSZ
 40
0.0
  9
$DIMTOL
 70
     0
  9
$DIMLIM
 70
     0
  9
$DIMTIH
 70
     1
  9
$DIMTOH
 70
     1
  9
$DIMSE1
 70
     0
  9
$DIMSE2
 70
     0
  9
$DIMTAD
 70
     0
  9
$DIMZIN
 70
     0
  9
$DIMBLK
  1

  9
$DIMASO
 70
     1
  9
$DIMSHO
 70
     1
  9
$DIMPOST
  1

  9
$DIMAPOST
  1

  9
$DIMALT
 70
     0
  9
$DIMALTD
 70
     2
  9
$DIMALTF
 40
25.399999999999999
  9
$DIMLFAC
 40
1.0
  9
$DIMTOFL
 70
     0
  9
$DIMTVP
 40
0.0
  9
$DIMTIX
 70
     0
  9
$DIMSOXD
 70
     0
  9
$DIMSAH
 70
     0
  9
$DIMBLK1
  1

  9
$DIMBLK2
  1

  9
$DIMSTYLE
  2
STANDARD
  9
$DIMCLRD
 70
     0
  9
$DIMCLRE
 70
     0
  9
$DIMCLRT
 70
     0
  9
$DIMTFAC
 40
1.0
  9
$DIMGAP
 40
0.09
  9
$LUNITS
 70
     5
  9
$LUPREC
 70
     6
  9
$SKETCHINC
 40
0.1
  9
$FILLETRAD
 40
0.0
  9
$AUNITS
 70
     0
  9
$AUPREC
 70
     0
  9
$MENU
  1
.
  9
$ELEVATION
 40
0.0
  9
$PELEVATION
 40
0.0
  9
$THICKNESS
 40
0.0
  9
$LIMCHECK
 70
     0
  9
$BLIPMODE
 70
     0
  9
$CHAMFERA
 40
0.5
  9
$CHAMFERB
 40
0.5
  9
$SKPOLY
 70
     0
  9
$TDCREATE
 40
2451225.345284028
  9
$TDUPDATE
 40
2454844.4014297691
  9
$TDINDWG
 40
0.8972678009
  9
$TDUSRTIMER
 40
0.8972678009
  9
$USRTIMER
 70
     1
  9
$ANGBASE
 50
0.0
  9
$ANGDIR
 70
     0
  9
$PDMODE
 70
     3
  9
$PDSIZE
 40
0.0
  9
$PLINEWID
 40
0.0
  9
$COORDS
 70
     1
  9
$SPLFRAME
 70
     0
  9
$SPLINETYPE
 70
     6
  9
$SPLINESEGS
 70
     8
  9
$ATTDIA
 70
     0
  9
$ATTREQ
 70
     1
  9
$HANDLING
 70
     1
  9
$HANDSEED
  5
31639
  9
$SURFTAB1
 70
     6
  9
$SURFTAB2
 70
     6
  9
$SURFTYPE
 70
     6
  9
$SURFU
 70
     6
  9
$SURFV
 70
     6
  9
$UCSNAME
  2

  9
$UCSORG
 10
0.0
 20
0.0
 30
0.0
  9
$UCSXDIR
 10
1.0
 20
0.0
 30
0.0
  9
$UCSYDIR
 10
0.0
 20
1.0
 30
0.0
  9
$PUCSNAME
  2

  9
$PUCSORG
 10
0.0
 20
0.0
 30
0.0
  9
$PUCSXDIR
 10
1.0
 20
0.0
 30
0.0
  9
$PUCSYDIR
 10
0.0
 20
1.0
 30
0.0
  9
$USERI1
 70
     0
  9
$USERI2
 70
     0
  9
$USERI3
 70
     0
  9
$USERI4
 70
     0
  9
$USERI5
 70
     0
  9
$USERR1
 40
0.0
  9
$USERR2
 40
0.0
  9
$USERR3
 40
0.0
  9
$USERR4
 40
0.0
  9
$USERR5
 40
0.0
  9
$WORLDVIEW
 70
     1
  9
$SHADEDGE
 70
     3
  9
$SHADEDIF
 70
    70
  9
$TILEMODE
 70
     1
  9
$MAXACTVP
 70
    48
  9
$PLIMCHECK
 70
     0
  9
$PEXTMIN
 10
-0.0001218952091371
 20
-0.0000841451815674
 30
-0.0000000349181948
  9
$PEXTMAX
 10
7.765304567131138
 20
10.205635612184849
 30
0.0000000814935746
  9
$PLIMMIN
 10
-0.2079161059762549
 20
-0.2079166691697489
  9
$PLIMMAX
 10
10.79208365372785
 20
8.2920830905343603
  9
$UNITMODE
 70
     0
  9
$VISRETAIN
 70
     1
  9
$PLINEGEN
 70
     0
  9
$PSLTSCALE
 70
     1
  0
ENDSEC
  0
SECTION
  2
TABLES
  0
TABLE
  2
VPORT
 70
     1
  0
VPORT
  2
*ACTIVE
 70
     0
 10
0.0
 20
0.0
 11
1.0
 21
1.0
 12
6.7648734571426736
 22
29.493002735178571
 13
0.0
 23
0.0
 14
0.5
 24
0.5
 15
0.5
 25
0.5
 16
0.0
 26
0.0
 36
1.0
 17
0.0
 27
0.0
 37
0.0
 40
9.1047065785684715
 41
1.931818181818181
 42
50.0
 43
0.0
 44
0.0
 50
0.0
 51
0.0
 71
     0
 72
   100
 73
     1
 74
     1
 75
     0
 76
     0
 77
     0
 78
     1
  0
ENDTAB
  0
TABLE
  2
LTYPE
 70
     3
  0
LTYPE
  2
CONTINUOUS
 70
     0
  3
Solid line
 72
    65
 73
     0
 40
0.0
  0
LTYPE
  2
HIDDEN
 70
     0
  3
Hidden __ __ __ __ __ __ __ __ __ __ __ __ __ _
 72
    65
 73
     2
 40
0.375
 49
0.25
 49
-0.125
  0
LTYPE
  2
PHANTOM
 70
     0
  3
Phantom ______  __  __  ______  __  __  ______
 72
    65
 73
     6
 40
2.5
 49
1.25
 49
-0.25
 49
0.25
 49
-0.25
 49
0.25
 49
-0.25
  0
ENDTAB
  0
TABLE
  2
LAYER
 70
     7
  0
LAYER
  2
0
 70
     0
 62
     7
  6
CONTINUOUS
  0
LAYER
  2
DEFPOINTS
 70
     0
 62
   252
  6
CONTINUOUS
  0
LAYER
  2
DIM
 70
     0
 62
     1
  6
CONTINUOUS
  0
LAYER
  2
WALL
 70
     0
 62
     6
  6
CONTINUOUS
  0
LAYER
  2
HATCH
 70
     0
 62
     2
  6
CONTINUOUS
  0
LAYER
  2
SECTION
 70
     0
 62
   253
  6
PHANTOM
  0
LAYER
  2
DETAIL
 70
     0
 62
     1
  6
CONTINUOUS
  0
ENDTAB
  0
TABLE
  2
STYLE
 70
     3
  0
STYLE
  2
STANDARD
 70
     0
 40
0.0
 41
1.0
 50
0.0
 71
     0
 42
0.2
  3
txt
  4

  0
STYLE
  2
GORDON
 70
     0
 40
0.0
 41
1.0
 50
0.0
 71
     0
 42
0.2
  3
romand.shx
  4

  0
STYLE
  2
STD
 70
     0
 40
0.0
 41
1.0
 50
0.0
 71
     0
 42
0.25
  3
txt
  4

  0
ENDTAB
  0
TABLE
  2
VIEW
 70
     0
  0
ENDTAB
  0
TABLE
  2
UCS
 70
     0
  0
ENDTAB
  0
TABLE
  2
APPID
 70
    23
  0
APPID
  2
ACAD
 70
     0
  0
APPID
  2
RAK
 70
     0
  0
APPID
  2
DCO15
 70
     0
  0
APPID
  2
ABNSLEADERTOOLS
 70
     0
  0
APPID
  2
ACAD_PSEXT
 70
     0
  0
APPID
  2
ACAD_DSTYLE_DIMTEXT_FILL
 70
     0
  0
APPID
  2
ACAECLAYERSTANDARD
 70
     0
  0
APPID
  2
ACDBBLOCKREPETAG
 70
     0
  0
APPID
  2
ACLAYERTOOLS
 70
     0
  0
APPID
  2
ACAD_DSTYLE_DIMJAG
 70
     0
  0
APPID
  2
ACAD_DSTYLE_DIMBREAK
 70
     0
  0
APPID
  2
ACADANNOTATIVE
 70
     0
  0
APPID
  2
ACAD_DSTYLE_DIMTALN
 70
     0
  0
APPID
  2
ACADANNOAV
 70
     0
  0
APPID
  2
ACAD_MLEADERVER
 70
     0
  0
APPID
  2
ACADANNOPO
 70
     0
  0
APPID
  2
ACAD_DSTYLE_DIMRADIAL_EXTENSION
 70
     0
  0
APPID
  2
ACDBDYNAMICBLOCKTRUENAME
 70
     0
  0
APPID
  2
ACDBDYNAMICBLOCKGUID
 70
     0
  0
APPID
  2
ACDBBLOCKREPBTAG
 70
     0
  0
APPID
  2
RMACOMMAND_206_545-6877
 70
     0
  0
APPID
  2
ACAD_EXEMPT_FROM_CAD_STANDARDS
 70
     0
  0
APPID
  2
ALLEGRO
 70
     0
  0
ENDTAB
  0
TABLE
  2
DIMSTYLE
 70
     3
  0
DIMSTYLE
  2
STANDARD
 70
     0
  3

  4

  5

  6

  7

 40
1.0
 41
0.18
 42
0.0625
 43
0.38
 44
0.18
 45
0.0
 46
0.0
 47
0.0
 48
0.0
140
0.18
141
0.09
142
0.0
143
25.399999999999999
144
1.0
145
0.0
146
1.0
147
0.09
 71
     0
 72
     0
 73
     1
 74
     1
 75
     0
 76
     0
 77
     0
 78
     0
170
     0
171
     2
172
     0
173
     0
174
     0
175
     0
176
     0
177
     0
178
     0
  0
ENDTAB
  0
ENDSEC
  0
SECTION
  2
BLOCKS
  0
BLOCK
  8
0
  2
$MODEL_SPACE
 70
     0
 10
0.0
 20
0.0
 30
0.0
  3
$MODEL_SPACE
  1

  0
ENDBLK
  5
314F7
  8
0
  0
BLOCK
 67
     1
  8
0
  2
$PAPER_SPACE
 70
     0
 10
0.0
 20
0.0
 30
0.0
  3
$PAPER_SPACE
  1

  0
ENDBLK
  5
314F3
 67
     1
  8
0
  0
BLOCK
  8
0
  2
ALLEGRO_TABLET_TOOLS
 70
     0
 10
0.0
 20
0.0
 30
0.0
  3
ALLEGRO_TABLET_TOOLS
  1
ALLEGRO_TABLET_TOOLS
  0
ATTDEF
  5
149F9
  8
0
 10
0.0
 20
0.0
 30
0.0
 40
0.0001
  1
allegro
  3

  2

 70
    11
  0
ENDBLK
  5
149FA
  8
0
  0
BLOCK
  8
0
  2
AX-6272
 70
     0
 10
0.0
 20
0.0
 30
0.0
  3
AX-6272
  1

  0
POLYLINE
  5
149FD
  8
0
  6
CONTINUOUS
 66
     1
 10
0.0
 20
0.0
 30
0.0
 70
     1
  0
VERTEX
  5
315A9
  8
0
  6
CONTINUOUS
 10
0.0459999999999923
 20
0.7499999999998864
 30
0.0
  0
VERTEX
  5
315AA
  8
0
  6
CONTINUOUS
 10
0.0
 20
0.7499999999997729
 30
0.0
  0
VERTEX
  5
315AB
  8
0
  6
CONTINUOUS
 10
0.0
 20
0.0
 30
0.0
  0
VERTEX
  5
315AC
  8
0
  6
CONTINUOUS
 10
0.75
 20
-0.0000000000001137
 30
0.0
  0
VERTEX
  5
315AD
  8
0
  6
CONTINUOUS
 10
0.7499999999999858
 20
0.0459999999999354
 30
0.0
  0
VERTEX
  5
315AE
  8
0
  6
CONTINUOUS
 10
0.0459999999999781
 20
0.0460000000000491
 30
0.0
  0
SEQEND
  5
315AF
  8
0
  6
CONTINUOUS
  0
ENDBLK
  5
149FE
  8
0
  0
BLOCK
  8
0
  2
GEG-115
 70
     0
 10
0.0
 20
0.0
 30
0.0
  3
GEG-115
  1

  0
POLYLINE
  5
14A01
  8
0
 66
     1
 10
0.0
 20
0.0
 30
0.0
 70
     1
  0
VERTEX
  5
315B0
  8
0
 10
-0.0700000000000038
 20
4.9065000000000003
 30
0.0
  0
VERTEX
  5
315B1
  8
0
 10
-0.0700000000000038
 20
4.9679999999999991
 30
0.0
  0
VERTEX
  5
315B2
  8
0
 10
-0.0000000000000036
 20
4.9679999999999991
 30
0.0
  0
VERTEX
  5
315B3
  8
0
 10
-0.0000000000000036
 20
4.0940000000000003
 30
0.0
  0
VERTEX
  5
315B4
  8
0
 10
-0.0700000000000038
 20
4.0940000000000003
 30
0.0
  0
VERTEX
  5
315B5
  8
0
 10
-0.0700000000000038
 20
4.1565000000000003
 30
0.0
  0
VERTEX
  5
315B6
  8
0
 10
-0.1325000000000074
 20
4.1565000000000003
 30
0.0
  0
VERTEX
  5
315B7
  8
0
 10
-0.1325000000000038
 20
4.0940000000000003
 30
0.0
  0
VERTEX
  5
315B8
  8
0
 10
-3.905999999999997
 20
4.0940000000000003
 30
0.0
  0
VERTEX
  5
315B9
  8
0
 10
-3.905999999999997
 20
5.0300000000000002
 30
0.0
  0
VERTEX
  5
315BA
  8
0
 10
-3.999999999999996
 20
5.0300000000000002
 30
0.0
  0
VERTEX
  5
315BB
  8
0
 10
-3.999999999999996
 20
4.0
 30
0.0
  0
VERTEX
  5
315BC
  8
0
 10
-0.0000000000000036
 20
4.0
 30
0.0
  0
VERTEX
  5
315BD
  8
0
 10
0.0
 20
0.0
 30
0.0
  0
VERTEX
  5
315BE
  8
0
 10
1.0
 20
-0.0000000000000009
 30
0.0
  0
VERTEX
  5
315BF
  8
0
 10
1.0
 20
0.0939999999999994
 30
0.0
  0
VERTEX
  5
315C0
  8
0
 10
0.2667973509644526
 20
0.0939999999999994
 30
0.0
 42
-0.4826133330779254
  0
VERTEX
  5
315C1
  8
0
 10
0.2570556291124895
 20
0.1062580645161262
 30
0.0
 42
0.0328788792828262
  0
VERTEX
  5
315C2
  8
0
 10
0.259471779198865
 20
0.1210384615384328
 30
0.0
 42
0.442709632302713
  0
VERTEX
  5
315C3
  8
0
 10
0.2495181143565972
 20
0.1319999999999988
 30
0.0
  0
VERTEX
  5
315C4
  8
0
 10
0.2071882341634428
 20
0.1319999999999997
 30
0.0
 42
0.3675231814699564
  0
VERTEX
  5
315C5
  8
0
 10
0.1973191641371343
 20
0.1236129032257978
 30
0.0
 42
-1.9507363353359961
  0
VERTEX
  5
315C6
  8
0
 10
0.1376129032258504
 20
0.1833191641368108
 30
0.0
 42
0.3675231814699397
  0
VERTEX
  5
315C7
  8
0
 10
0.1460000000000008
 20
0.1931882341634408
 30
0.0
  0
VERTEX
  5
315C8
  8
0
 10
0.1460000000000008
 20
0.2355181143565952
 30
0.0
 42
0.4427096323027419
  0
VERTEX
  5
315C9
  8
0
 10
0.135038461538457
 20
0.245471779198601
 30
0.0
 42
0.062391403819236
  0
VERTEX
  5
315CA
  8
0
 10
0.1073870967742323
 20
0.2392615667631102
 30
0.0
 42
-0.5194488766220518
  0
VERTEX
  5
315CB
  8
0
 10
0.0940000000000012
 20
0.2486704761284031
 30
0.0
  0
VERTEX
  5
315CC
  8
0
 10
0.0939999999999977
 20
5.0304999999999991
 30
0.0
  0
VERTEX
  5
315CD
  8
0
 10
-0.1325000000000038
 20
5.0304999999999991
 30
0.0
  0
VERTEX
  5
315CE
  8
0
 10
-0.1325000000000074
 20
4.9065000000000003
 30
0.0
  0
SEQEND
  5
315CF
  8
0
  0
INSERT
  5
14A02
  8
DEFPOINTS
  2
ALLEGRO_TABLET_TOOLS
 10
-23.451668292600289
 20
4.929692287406616
 30
0.0
1001
ALLEGRO
1002
{
1000
SCALE
1000
1
1002
}
1002
{
1000
SHEET-SZ
1000
(11 . 8.5)
1002
}
1002
{
1000
DEF-SCALEMENU
1000
$scale2
1002
}
1002
{
1000
DEF-SCALE
1000
8
1002
}
1002
{
1000
DEF-SHEETSZ
1000
1
1002
}
1002
{
1000
INIT-FILE
1000
C:\UTIL\ACAD12\ALLEGRO5.5/ALLEGM.INI
1002
}
1002
{
1000
HEIGHT
1000
8.5
1002
}
1002
{
1000
WIDTH
1000
11
1002
}
1002
{
1000
TOP
1000
0.50
1002
}
1002
{
1000
BOTTOM
1000
0.50
1002
}
1002
{
1000
RIGHT
1000
0.50
1002
}
1002
{
1000
LEFT
1000
0.50
1002
}
  0
ENDBLK
  5
14A03
  8
0
  0
BLOCK
  8
0
  2
GEG-142
 70
     0
 10
0.0
 20
0.0
 30
0.0
  3
GEG-142
  1

  0
POLYLINE
  5
14A06
  8
0
 66
     1
 10
0.0
 20
0.0
 30
0.0
 70
     1
  0
VERTEX
  5
315D0
  8
0
 10
0.5477440027024159
 20
-0.0111148382941906
 30
0.0
  0
VERTEX
  5
315D1
  8
0
 10
0.6077501072504674
 20
-0.0096319049866338
 30
0.0
  0
VERTEX
  5
315D2
  8
0
 10
0.61749999999995
 20
0.0006120977162141
 30
0.0
  0
VERTEX
  5
315D3
  8
0
 10
0.6277440027025705
 20
-0.0091377950332117
 30
0.0
  0
VERTEX
  5
315D4
  8
0
 10
0.6877501072505085
 20
-0.0076548617257117
 30
0.0
  0
VERTEX
  5
315D5
  8
0
 10
0.6974999999999909
 20
0.0025891409771361
 30
0.0
  0
VERTEX
  5
315D6
  8
0
 10
0.7077440027024977
 20
-0.0071607517722896
 30
0.0
  0
VERTEX
  5
315D7
  8
0
 10
0.7677501072505493
 20
-0.0056778184647328
 30
0.0
  0
VERTEX
  5
315D8
  8
0
 10
0.7775000000000321
 20
0.0045661842381151
 30
0.0
  0
VERTEX
  5
315D9
  8
0
 10
0.7877440027026526
 20
-0.0051837085113107
 30
0.0
  0
VERTEX
  5
315DA
  8
0
 10
0.84775010725059
 20
-0.0037007752037539
 30
0.0
  0
VERTEX
  5
315DB
  8
0
 10
0.8575000000000725
 20
0.006543227499094
 30
0.0
  0
VERTEX
  5
315DC
  8
0
 10
0.8677440027026933
 20
-0.0032066652503318
 30
0.0
  0
VERTEX
  5
315DD
  8
0
 10
0.9277501072506312
 20
-0.0017237319426613
 30
0.0
  0
VERTEX
  5
315DE
  8
0
 10
0.9375000000001135
 20
0.0085202707601866
 30
0.0
  0
VERTEX
  5
315DF
  8
0
 10
0.9477440027028476
 20
-0.0012296219893528
 30
0.0
  0
VERTEX
  5
315E0
  8
0
 10
0.9975000000001728
 20
0.0
 30
0.0
 42
0.9999999999999998
  0
VERTEX
  5
315E1
  8
0
 10
0.9975000000001728
 20
0.0299999999999727
 30
0.0
  0
VERTEX
  5
315E2
  8
0
 10
0.1675000000000182
 20
0.0299999999999727
 30
0.0
  0
VERTEX
  5
315E3
  8
0
 10
0.1375000000000455
 20
0.0
 30
0.0
  0
VERTEX
  5
315E4
  8
0
 10
0.0625
 20
0.0
 30
0.0
  0
VERTEX
  5
315E5
  8
0
 10
0.0625000000001137
 20
0.75
 30
0.0
  0
VERTEX
  5
315E6
  8
0
 10
0.0000000000001137
 20
0.75
 30
0.0
  0
VERTEX
  5
315E7
  8
0
 10
0.0
 20
0.0
 30
0.0
  0
VERTEX
  5
315E8
  8
0
 10
-0.7499999999998864
 20
0.0
 30
0.0
  0
VERTEX
  5
315E9
  8
0
 10
-0.7499999999998864
 20
-0.0625000000000569
 30
0.0
  0
VERTEX
  5
315EA
  8
0
 10
0.1457106781186894
 20
-0.0625000000000569
 30
0.0
  0
VERTEX
  5
315EB
  8
0
 10
0.1882106781185939
 20
-0.0200000000000387
 30
0.0
  0
VERTEX
  5
315EC
  8
0
 10
0.3677501072504583
 20
-0.0155630347695137
 30
0.0
  0
VERTEX
  5
315ED
  8
0
 10
0.3774999999998272
 20
-0.0053190320667227
 30
0.0
  0
VERTEX
  5
315EE
  8
0
 10
0.3877440027025614
 20
-0.015068924816319
 30
0.0
  0
VERTEX
  5
315EF
  8
0
 10
0.4477501072503857
 20
-0.013585991508478
 30
0.0
  0
VERTEX
  5
315F0
  8
0
 10
0.4574999999998683
 20
-0.0033419888057438
 30
0.0
  0
VERTEX
  5
315F1
  8
0
 10
0.4677440027026023
 20
-0.01309188155534
 30
0.0
  0
VERTEX
  5
315F2
  8
0
 10
0.5277501072505402
 20
-0.0116089482475559
 30
0.0
  0
VERTEX
  5
315F3
  8
0
 10
0.5374999999999091
 20
-0.0013649455447649
 30
0.0
  0
SEQEND
  5
315F4
  8
0
  0
ENDBLK
  5
14A07
  8
0
  0
BLOCK
  8
0
  2
*U7
 70
     1
 10
0.0
 20
0.0
 30
0.0
  3
*U7
  1

  0
LINE
  5
14C67
  8
0
  6
CONTINUOUS
 62
   253
 10
-0.0000000000000003
 20
-0.4901196112313963
 30
0.0
 11
0.0
 21
-0.0749999999999602
 31
0.0
1001
ACDBBLOCKREPETAG
1070
     1
1071
        0
1005
14C67
  0
LINE
  5
14C68
  8
0
  6
CONTINUOUS
 62
   253
 10
0.0
 20
-0.0749999999999602
 30
0.0
 11
-0.111741712694112
 21
-0.0375000000000014
 31
0.0
1001
ACDBBLOCKREPETAG
1070
     1
1071
        1
1005
14C68
  0
LINE
  5
14C69
  8
0
  6
CONTINUOUS
 62
   253
 10
-0.111741712694112
 20
-0.0375000000000014
 30
0.0
 11
0.111741712694112
 21
0.0375000000000014
 31
0.0
1001
ACDBBLOCKREPETAG
1070
     1
1071
        2
1005
14C69
  0
LINE
  5
14C6A
  8
0
  6
CONTINUOUS
 62
   253
 10
0.111741712694112
 20
0.0375000000000014
 30
0.0
 11
0.0000000000000009
 21
0.07500000000001
 31
0.0
1001
ACDBBLOCKREPETAG
1070
     1
1071
        3
1005
14C6A
  0
LINE
  5
14C6B
  8
0
  6
CONTINUOUS
 62
   253
 10
0.0000000000000009
 20
0.07500000000001
 30
0.0
 11
0.0000000000000011
 21
0.4901196112313963
 31
0.0
1001
ACDBBLOCKREPETAG
1070
     1
1071
        4
1005
14C6B
  0
ENDBLK
  5
14C66
  8
0
  0
BLOCK
  8
0
  2
*X39
 70
     1
 10
0.0
 20
0.0
 30
0.0
  3
*X39
  1

  0
LINE
  5
30E1C
  8
0
 62
     0
 10
5.2892414836311472
 20
26.297211371710841
 30
0.0
 11
5.2892414836311472
 21
26.297211371710841
 31
0.0
  0
LINE
  5
30E1D
  8
0
 62
     0
 10
5.179458074893601
 20
26.177403804479201
 30
0.0
 11
5.179458074893601
 21
26.177403804479201
 31
0.0
  0
LINE
  5
30E1E
  8
0
 62
     0
 10
4.9311786735948466
 20
25.906454383201471
 30
0.0
 11
4.9311786735948466
 21
25.906454383201471
 31
0.0
  0
LINE
  5
30E1F
  8
0
 62
     0
 10
5.2391889924649826
 20
26.588804456382022
 30
0.0
 11
5.2391889924649826
 21
26.588804456382022
 31
0.0
  0
LINE
  5
30E20
  8
0
 62
     0
 10
5.1294055837274382
 20
26.468996889150379
 30
0.0
 11
5.1294055837274382
 21
26.468996889150379
 31
0.0
  0
LINE
  5
30E21
  8
0
 62
     0
 10
4.881126182428682
 20
26.198047467872659
 30
0.0
 11
4.881126182428682
 21
26.198047467872659
 31
0.0
  0
LINE
  5
30E22
  8
0
 62
     0
 10
5.1891365012988171
 20
26.88039754105322
 30
0.0
 11
5.1891365012988171
 21
26.88039754105322
 31
0.0
  0
LINE
  5
30E23
  8
0
 62
     0
 10
5.0793530925612753
 20
26.76058997382157
 30
0.0
 11
5.0793530925612753
 21
26.76058997382157
 31
0.0
  0
LINE
  5
30E24
  8
0
 62
     0
 10
4.8310736912625201
 20
26.48964055254385
 30
0.0
 11
4.8310736912625201
 21
26.48964055254385
 31
0.0
  0
LINE
  5
30E25
  8
0
 62
     0
 10
5.139084010132672
 20
27.171990625724408
 30
0.0
 11
5.139084010132672
 21
27.171990625724408
 31
0.0
  0
LINE
  5
30E26
  8
0
 62
     0
 10
5.0293006013951267
 20
27.052183058492769
 30
0.0
 11
5.0293006013951267
 21
27.052183058492769
 31
0.0
  0
LINE
  5
30E27
  8
0
 62
     0
 10
5.264009382738954
 20
27.654538540629421
 30
0.0
 11
5.264009382738954
 21
27.654538540629421
 31
0.0
  0
LINE
  5
30E28
  8
0
 62
     0
 10
5.0890315189664994
 20
27.463583710395611
 30
0.0
 11
5.0890315189664994
 21
27.463583710395611
 31
0.0
  0
LINE
  5
30E29
  8
0
 62
     0
 10
4.9792481102289532
 20
27.34377614316395
 30
0.0
 11
4.9792481102289532
 21
27.34377614316395
 31
0.0
  0
LINE
  5
30E2A
  8
0
 62
     0
 10
5.2139568915728001
 20
27.94613162530062
 30
0.0
 11
5.2139568915728001
 21
27.94613162530062
 31
0.0
  0
LINE
  5
30E2B
  8
0
 62
     0
 10
5.0389790278003428
 20
27.755176795066799
 30
0.0
 11
5.0389790278003428
 21
27.755176795066799
 31
0.0
  0
LINE
  5
30E2C
  8
0
 62
     0
 10
4.9291956190628001
 20
27.635369227835149
 30
0.0
 11
4.9291956190628001
 21
27.635369227835149
 31
0.0
  0
LINE
  5
30E2D
  8
0
 62
     0
 10
5.163904400406631
 20
28.237724709971801
 30
0.0
 11
5.163904400406631
 21
28.237724709971801
 31
0.0
  0
LINE
  5
30E2E
  8
0
 62
     0
 10
4.9889265366341764
 20
28.046769879737969
 30
0.0
 11
4.9889265366341764
 21
28.046769879737969
 31
0.0
  0
LINE
  5
30E2F
  8
0
 62
     0
 10
4.8791431278966311
 20
27.92696231250633
 30
0.0
 11
4.8791431278966311
 21
27.92696231250633
 31
0.0
  0
LINE
  5
30E30
  8
0
 62
     0
 10
5.113851909240485
 20
28.529317794642999
 30
0.0
 11
5.113851909240485
 21
28.529317794642999
 31
0.0
  0
LINE
  5
30E31
  8
0
 62
     0
 10
4.9388740454680269
 20
28.338362964409178
 30
0.0
 11
4.9388740454680269
 21
28.338362964409178
 31
0.0
  0
LINE
  5
30E32
  8
0
 62
     0
 10
4.8290906367304842
 20
28.218555397177539
 30
0.0
 11
4.8290906367304842
 21
28.218555397177539
 31
0.0
  0
LINE
  5
30E33
  8
0
 62
     0
 10
5.0637994180743311
 20
28.820910879314201
 30
0.0
 11
5.0637994180743311
 21
28.820910879314201
 31
0.0
  0
LINE
  5
30E34
  8
0
 62
     0
 10
4.8888215543018738
 20
28.629956049080381
 30
0.0
 11
4.8888215543018738
 21
28.629956049080381
 31
0.0
  0
LINE
  5
30E35
  8
0
 62
     0
 10
5.2620263282069324
 20
29.383453385263131
 30
0.0
 11
5.2620263282069324
 21
29.383453385263131
 31
0.0
  0
LINE
  5
30E36
  8
0
 62
     0
 10
5.013746926908178
 20
29.112503963985411
 30
0.0
 11
5.013746926908178
 21
29.112503963985411
 31
0.0
  0
LINE
  5
30E37
  8
0
 62
     0
 10
4.8387690631357199
 20
28.921549133751569
 30
0.0
 11
4.8387690631357199
 21
28.921549133751569
 31
0.0
  0
LINE
  5
30E38
  8
0
 62
     0
 10
5.2119738370407838
 20
29.675046469934319
 30
0.0
 11
5.2119738370407838
 21
29.675046469934319
 31
0.0
  0
LINE
  5
30E39
  8
0
 62
     0
 10
4.9636944357420303
 20
29.404097048656599
 30
0.0
 11
4.9636944357420303
 21
29.404097048656599
 31
0.0
  0
LINE
  5
30E3A
  8
0
 62
     0
 10
5.2717047546121663
 20
30.08644712183715
 30
0.0
 11
5.2717047546121663
 21
30.08644712183715
 31
0.0
  0
LINE
  5
30E3B
  8
0
 62
     0
 10
5.16192134587462
 20
29.966639554605511
 30
0.0
 11
5.16192134587462
 21
29.966639554605511
 31
0.0
  0
LINE
  5
30E3C
  8
0
 62
     0
 10
4.9136419445758648
 20
29.695690133327791
 30
0.0
 11
4.9136419445758648
 21
29.695690133327791
 31
0.0
  0
LINE
  5
30E3D
  8
0
 62
     0
 10
5.2216522634460008
 20
30.378040206508349
 30
0.0
 11
5.2216522634460008
 21
30.378040206508349
 31
0.0
  0
LINE
  5
30E3E
  8
0
 62
     0
 10
5.1118688547084572
 20
30.258232639276699
 30
0.0
 11
5.1118688547084572
 21
30.258232639276699
 31
0.0
  0
LINE
  5
30E3F
  8
0
 62
     0
 10
4.8635894534097011
 20
29.987283217998979
 30
0.0
 11
4.8635894534097011
 21
29.987283217998979
 31
0.0
  0
LINE
  5
30E40
  8
0
 62
     0
 10
5.171599772279837
 20
30.66963329117954
 30
0.0
 11
5.171599772279837
 21
30.66963329117954
 31
0.0
  0
LINE
  5
30E41
  8
0
 62
     0
 10
5.0618163635422944
 20
30.549825723947901
 30
0.0
 11
5.0618163635422944
 21
30.549825723947901
 31
0.0
  0
LINE
  5
30E42
  8
0
 62
     0
 10
4.8135369622435391
 20
30.27887630267017
 30
0.0
 11
4.8135369622435391
 21
30.27887630267017
 31
0.0
  0
LINE
  5
30E43
  8
0
 62
     0
 10
5.2965251448861217
 20
31.152181206084531
 30
0.0
 11
5.2965251448861217
 21
31.152181206084531
 31
0.0
  0
LINE
  5
30E44
  8
0
 62
     0
 10
5.1215472811136671
 20
30.961226375850721
 30
0.0
 11
5.1215472811136671
 21
30.961226375850721
 31
0.0
  0
LINE
  5
30E45
  8
0
 62
     0
 10
5.0117638723761209
 20
30.841418808619071
 30
0.0
 11
5.0117638723761209
 21
30.841418808619071
 31
0.0
  0
LINE
  5
30E46
  8
0
 62
     0
 10
5.2464726537199793
 20
31.443774290755751
 30
0.0
 11
5.2464726537199793
 21
31.443774290755751
 31
0.0
  0
LINE
  5
30E47
  8
0
 62
     0
 10
5.071494789947522
 20
31.25281946052192
 30
0.0
 11
5.071494789947522
 21
31.25281946052192
 31
0.0
  0
LINE
  5
30E48
  8
0
 62
     0
 10
4.9617113812099767
 20
31.133011893290281
 30
0.0
 11
4.9617113812099767
 21
31.133011893290281
 31
0.0
  0
LINE
  5
30E49
  8
0
 62
     0
 10
5.196420162553804
 20
31.735367375426922
 30
0.0
 11
5.196420162553804
 21
31.735367375426922
 31
0.0
  0
LINE
  5
30E4A
  8
0
 62
     0
 10
5.0214422987813476
 20
31.544412545193101
 30
0.0
 11
5.0214422987813476
 21
31.544412545193101
 31
0.0
  0
LINE
  5
30E4B
  8
0
 62
     0
 10
4.9116588900438041
 20
31.424604977961451
 30
0.0
 11
4.9116588900438041
 21
31.424604977961451
 31
0.0
  0
LINE
  5
30E4C
  8
0
 62
     0
 10
5.1463676713876492
 20
32.026960460098117
 30
0.0
 11
5.1463676713876492
 21
32.026960460098117
 31
0.0
  0
LINE
  5
30E4D
  8
0
 62
     0
 10
4.9713898076151928
 20
31.83600562986431
 30
0.0
 11
4.9713898076151928
 21
31.83600562986431
 31
0.0
  0
LINE
  5
30E4E
  8
0
 62
     0
 10
4.8616063988776492
 20
31.71619806263266
 30
0.0
 11
4.8616063988776492
 21
31.71619806263266
 31
0.0
  0
LINE
  5
30E4F
  8
0
 62
     0
 10
5.0963151802214943
 20
32.318553544769308
 30
0.0
 11
5.0963151802214943
 21
32.318553544769308
 31
0.0
  0
LINE
  5
30E50
  8
0
 62
     0
 10
4.921337316449037
 20
32.127598714535488
 30
0.0
 11
4.921337316449037
 21
32.127598714535488
 31
0.0
  0
LINE
  5
30E51
  8
0
 62
     0
 10
4.8115539077114917
 20
32.007791147303841
 30
0.0
 11
4.8115539077114917
 21
32.007791147303841
 31
0.0
  0
LINE
  5
30E52
  8
0
 62
     0
 10
5.2945420903540947
 20
32.881096050718241
 30
0.0
 11
5.2945420903540947
 21
32.881096050718241
 31
0.0
  0
LINE
  5
30E53
  8
0
 62
     0
 10
5.0462626890553404
 20
32.610146629440507
 30
0.0
 11
5.0462626890553404
 21
32.610146629440507
 31
0.0
  0
LINE
  5
30E54
  8
0
 62
     0
 10
4.8712848252828831
 20
32.4191917992067
 30
0.0
 11
4.8712848252828831
 21
32.4191917992067
 31
0.0
  0
LINE
  5
30E55
  8
0
 62
     0
 10
5.2444895991879346
 20
33.172689135389412
 30
0.0
 11
5.2444895991879346
 21
33.172689135389412
 31
0.0
  0
LINE
  5
30E56
  8
0
 62
     0
 10
4.9962101978891802
 20
32.901739714111699
 30
0.0
 11
4.9962101978891802
 21
32.901739714111699
 31
0.0
  0
LINE
  5
30E57
  8
0
 62
     0
 10
4.821232334116722
 20
32.710784883877878
 30
0.0
 11
4.821232334116722
 21
32.710784883877878
 31
0.0
  0
LINE
  5
30E58
  8
0
 62
     0
 10
5.1944371080217788
 20
33.464282220060618
 30
0.0
 11
5.1944371080217788
 21
33.464282220060618
 31
0.0
  0
LINE
  5
30E59
  8
0
 62
     0
 10
4.9461577067230236
 20
33.19333279878289
 30
0.0
 11
4.9461577067230236
 21
33.19333279878289
 31
0.0
  0
LINE
  5
30E5A
  8
0
 62
     0
 10
5.144384616855624
 20
33.755875304731831
 30
0.0
 11
5.144384616855624
 21
33.755875304731831
 31
0.0
  0
LINE
  5
30E5B
  8
0
 62
     0
 10
4.8961052155568687
 20
33.484925883454103
 30
0.0
 11
4.8961052155568687
 21
33.484925883454103
 31
0.0
  0
LINE
  5
30E5C
  8
0
 62
     0
 10
4.846052724390705
 20
33.776518968125281
 30
0.0
 11
4.846052724390705
 21
33.776518968125281
 31
0.0
  0
LINE
  5
30E5D
  8
0
 62
     0
 10
5.2902196684386489
 20
25.987520464329631
 30
0.0
 11
5.2902196684386489
 21
25.987520464329631
 31
0.0
  0
LINE
  5
30E5E
  8
0
 62
     0
 10
5.301497104305839
 20
26.254431682415831
 30
0.0
 11
5.301497104305839
 21
26.254431682415831
 31
0.0
  0
LINE
  5
30E5F
  8
0
 62
     0
 10
5.0919502570505779
 20
25.925509018548809
 30
0.0
 11
5.0919502570505779
 21
25.925509018548809
 31
0.0
  0
LINE
  5
30E60
  8
0
 62
     0
 10
5.1032276929177591
 20
26.192420236635009
 30
0.0
 11
5.1032276929177591
 21
26.192420236635009
 31
0.0
  0
LINE
  5
30E61
  8
0
 62
     0
 10
5.0360652418744047
 20
26.0869963059084
 30
0.0
 11
5.0360652418744047
 21
26.0869963059084
 31
0.0
  0
LINE
  5
30E62
  8
0
 62
     0
 10
5.114505128784951
 20
26.459331454721209
 30
0.0
 11
5.114505128784951
 21
26.459331454721209
 31
0.0
  0
LINE
  5
30E63
  8
0
 62
     0
 10
5.0473426777415993
 20
26.353907523994589
 30
0.0
 11
5.0473426777415993
 21
26.353907523994589
 31
0.0
  0
LINE
  5
30E64
  8
0
 62
     0
 10
5.1257825646521491
 20
26.72624267280743
 30
0.0
 11
5.1257825646521491
 21
26.72624267280743
 31
0.0
  0
LINE
  5
30E65
  8
0
 62
     0
 10
5.0586201136087956
 20
26.620818742080822
 30
0.0
 11
5.0586201136087956
 21
26.620818742080822
 31
0.0
  0
LINE
  5
30E66
  8
0
 62
     0
 10
5.1370600005193401
 20
26.99315389089362
 30
0.0
 11
5.1370600005193401
 21
26.99315389089362
 31
0.0
  0
LINE
  5
30E67
  8
0
 62
     0
 10
5.0698975494759857
 20
26.887729960167011
 30
0.0
 11
5.0698975494759857
 21
26.887729960167011
 31
0.0
  0
LINE
  5
30E68
  8
0
 62
     0
 10
5.1483374363865213
 20
27.26006510897982
 30
0.0
 11
5.1483374363865213
 21
27.26006510897982
 31
0.0
  0
LINE
  5
30E69
  8
0
 62
     0
 10
5.0811749853431678
 20
27.154641178253211
 30
0.0
 11
5.0811749853431678
 21
27.154641178253211
 31
0.0
  0
LINE
  5
30E6A
  8
0
 62
     0
 10
4.8031224380236868
 20
26.718186105045039
 30
0.0
 11
4.8031224380236868
 21
26.718186105045039
 31
0.0
  0
LINE
  5
30E6B
  8
0
 62
     0
 10
5.1596148722537132
 20
27.526976327066031
 30
0.0
 11
5.1596148722537132
 21
27.526976327066031
 31
0.0
  0
LINE
  5
30E6C
  8
0
 62
     0
 10
5.0924524212103606
 20
27.421552396339411
 30
0.0
 11
5.0924524212103606
 21
27.421552396339411
 31
0.0
  0
LINE
  5
30E6D
  8
0
 62
     0
 10
4.8143998738908804
 20
26.985097323131249
 30
0.0
 11
4.8143998738908804
 21
26.985097323131249
 31
0.0
  0
LINE
  5
30E6E
  8
0
 62
     0
 10
5.1708923081208971
 20
27.793887545152231
 30
0.0
 11
5.1708923081208971
 21
27.793887545152231
 31
0.0
  0
LINE
  5
30E6F
  8
0
 62
     0
 10
5.1037298570775427
 20
27.688463614425611
 30
0.0
 11
5.1037298570775427
 21
27.688463614425611
 31
0.0
  0
LINE
  5
30E70
  8
0
 62
     0
 10
4.8256773097580643
 20
27.25200854121745
 30
0.0
 11
4.8256773097580643
 21
27.25200854121745
 31
0.0
  0
LINE
  5
30E71
  8
0
 62
     0
 10
5.1821697439881156
 20
28.06079876323847
 30
0.0
 11
5.1821697439881156
 21
28.06079876323847
 31
0.0
  0
LINE
  5
30E72
  8
0
 62
     0
 10
5.115007292944763
 20
27.955374832511861
 30
0.0
 11
5.115007292944763
 21
27.955374832511861
 31
0.0
  0
LINE
  5
30E73
  8
0
 62
     0
 10
4.8369547456252819
 20
27.518919759303689
 30
0.0
 11
4.8369547456252819
 21
27.518919759303689
 31
0.0
  0
LINE
  5
30E74
  8
0
 62
     0
 10
5.1934471798552844
 20
28.327709981324642
 30
0.0
 11
5.1934471798552844
 21
28.327709981324642
 31
0.0
  0
LINE
  5
30E75
  8
0
 62
     0
 10
5.1262847288119309
 20
28.222286050598029
 30
0.0
 11
5.1262847288119309
 21
28.222286050598029
 31
0.0
  0
LINE
  5
30E76
  8
0
 62
     0
 10
4.8482321814924498
 20
27.78583097738986
 30
0.0
 11
4.8482321814924498
 21
27.78583097738986
 31
0.0
  0
LINE
  5
30E77
  8
0
 62
     0
 10
5.2047246157224727
 20
28.594621199410831
 30
0.0
 11
5.2047246157224727
 21
28.594621199410831
 31
0.0
  0
LINE
  5
30E78
  8
0
 62
     0
 10
5.1375621646791201
 20
28.489197268684219
 30
0.0
 11
5.1375621646791201
 21
28.489197268684219
 31
0.0
  0
LINE
  5
30E79
  8
0
 62
     0
 10
4.859509617359639
 20
28.052742195476061
 30
0.0
 11
4.859509617359639
 21
28.052742195476061
 31
0.0
  0
LINE
  5
30E7A
  8
0
 62
     0
 10
5.2160020515896708
 20
28.86153241749706
 30
0.0
 11
5.2160020515896708
 21
28.86153241749706
 31
0.0
  0
LINE
  5
30E7B
  8
0
 62
     0
 10
5.1488396005463191
 20
28.756108486770451
 30
0.0
 11
5.1488396005463191
 21
28.756108486770451
 31
0.0
  0
LINE
  5
30E7C
  8
0
 62
     0
 10
4.870787053226838
 20
28.319653413562278
 30
0.0
 11
4.870787053226838
 21
28.319653413562278
 31
0.0
  0
LINE
  5
30E7D
  8
0
 62
     0
 10
5.2272794874568573
 20
29.12844363558327
 30
0.0
 11
5.2272794874568573
 21
29.12844363558327
 31
0.0
  0
LINE
  5
30E7E
  8
0
 62
     0
 10
5.1601170364135038
 20
29.023019704856662
 30
0.0
 11
5.1601170364135038
 21
29.023019704856662
 31
0.0
  0
LINE
  5
30E7F
  8
0
 62
     0
 10
4.8820644890940228
 20
28.586564631648478
 30
0.0
 11
4.8820644890940228
 21
28.586564631648478
 31
0.0
  0
LINE
  5
30E80
  8
0
 62
     0
 10
5.2385569233240421
 20
29.39535485366946
 30
0.0
 11
5.2385569233240421
 21
29.39535485366946
 31
0.0
  0
LINE
  5
30E81
  8
0
 62
     0
 10
5.1713944722806913
 20
29.289930922942862
 30
0.0
 11
5.1713944722806913
 21
29.289930922942862
 31
0.0
  0
LINE
  5
30E82
  8
0
 62
     0
 10
4.8933419249612093
 20
28.853475849734679
 30
0.0
 11
4.8933419249612093
 21
28.853475849734679
 31
0.0
  0
LINE
  5
30E83
  8
0
 62
     0
 10
5.2498343591912251
 20
29.662266071755671
 30
0.0
 11
5.2498343591912251
 21
29.662266071755671
 31
0.0
  0
LINE
  5
30E84
  8
0
 62
     0
 10
5.1826719081478734
 20
29.556842141029051
 30
0.0
 11
5.1826719081478734
 21
29.556842141029051
 31
0.0
  0
LINE
  5
30E85
  8
0
 62
     0
 10
4.9046193608283932
 20
29.120387067820879
 30
0.0
 11
4.9046193608283932
 21
29.120387067820879
 31
0.0
  0
LINE
  5
30E86
  8
0
 62
     0
 10
5.2611117950584179
 20
29.92917728984186
 30
0.0
 11
5.2611117950584179
 21
29.92917728984186
 31
0.0
  0
LINE
  5
30E87
  8
0
 62
     0
 10
5.193949344015067
 20
29.823753359115251
 30
0.0
 11
5.193949344015067
 21
29.823753359115251
 31
0.0
  0
LINE
  5
30E88
  8
0
 62
     0
 10
4.9158967966955851
 20
29.387298285907079
 30
0.0
 11
4.9158967966955851
 21
29.387298285907079
 31
0.0
  0
LINE
  5
30E89
  8
0
 62
     0
 10
5.2723892309256062
 20
30.19608850792806
 30
0.0
 11
5.2723892309256062
 21
30.19608850792806
 31
0.0
  0
LINE
  5
30E8A
  8
0
 62
     0
 10
5.2052267798822518
 20
30.090664577201451
 30
0.0
 11
5.2052267798822518
 21
30.090664577201451
 31
0.0
  0
LINE
  5
30E8B
  8
0
 62
     0
 10
4.9271742325627708
 20
29.654209503993279
 30
0.0
 11
4.9271742325627708
 21
29.654209503993279
 31
0.0
  0
LINE
  5
30E8C
  8
0
 62
     0
 10
5.2836666667928061
 20
30.462999726014282
 30
0.0
 11
5.2836666667928061
 21
30.462999726014282
 31
0.0
  0
LINE
  5
30E8D
  8
0
 62
     0
 10
5.2165042157494543
 20
30.357575795287669
 30
0.0
 11
5.2165042157494543
 21
30.357575795287669
 31
0.0
  0
LINE
  5
30E8E
  8
0
 62
     0
 10
4.9384516684299724
 20
29.9211207220795
 30
0.0
 11
4.9384516684299724
 21
29.9211207220795
 31
0.0
  0
LINE
  5
30E8F
  8
0
 62
     0
 10
5.2949441026599917
 20
30.729910944100482
 30
0.0
 11
5.2949441026599917
 21
30.729910944100482
 31
0.0
  0
LINE
  5
30E90
  8
0
 62
     0
 10
5.2277816516166391
 20
30.624487013373869
 30
0.0
 11
5.2277816516166391
 21
30.624487013373869
 31
0.0
  0
LINE
  5
30E91
  8
0
 62
     0
 10
4.9497291042971581
 20
30.1880319401657
 30
0.0
 11
4.9497291042971581
 21
30.1880319401657
 31
0.0
  0
LINE
  5
30E92
  8
0
 62
     0
 10
5.2390590874838248
 20
30.891398231460069
 30
0.0
 11
5.2390590874838248
 21
30.891398231460069
 31
0.0
  0
LINE
  5
30E93
  8
0
 62
     0
 10
4.9610065401643437
 20
30.454943158251901
 30
0.0
 11
4.9610065401643437
 21
30.454943158251901
 31
0.0
  0
LINE
  5
30E94
  8
0
 62
     0
 10
5.2503365233510051
 20
31.158309449546248
 30
0.0
 11
5.2503365233510051
 21
31.158309449546248
 31
0.0
  0
LINE
  5
30E95
  8
0
 62
     0
 10
4.9722839760315241
 20
30.72185437633809
 30
0.0
 11
4.9722839760315241
 21
30.72185437633809
 31
0.0
  0
LINE
  5
30E96
  8
0
 62
     0
 10
5.2616139592182121
 20
31.425220667632491
 30
0.0
 11
5.2616139592182121
 21
31.425220667632491
 31
0.0
  0
LINE
  5
30E97
  8
0
 62
     0
 10
4.983561411898731
 20
30.988765594424319
 30
0.0
 11
4.983561411898731
 21
30.988765594424319
 31
0.0
  0
LINE
  5
30E98
  8
0
 62
     0
 10
5.2728913950854004
 20
31.692131885718702
 30
0.0
 11
5.2728913950854004
 21
31.692131885718702
 31
0.0
  0
LINE
  5
30E99
  8
0
 62
     0
 10
4.9948388477659202
 20
31.255676812510519
 30
0.0
 11
4.9948388477659202
 21
31.255676812510519
 31
0.0
  0
LINE
  5
30E9A
  8
0
 62
     0
 10
5.284168830952594
 20
31.95904310380492
 30
0.0
 11
5.284168830952594
 21
31.95904310380492
 31
0.0
  0
LINE
  5
30E9B
  8
0
 62
     0
 10
5.006116283633113
 20
31.522588030596751
 30
0.0
 11
5.006116283633113
 21
31.522588030596751
 31
0.0
  0
LINE
  5
30E9C
  8
0
 62
     0
 10
5.295446266819785
 20
32.225954321891109
 30
0.0
 11
5.295446266819785
 21
32.225954321891109
 31
0.0
  0
LINE
  5
30E9D
  8
0
 62
     0
 10
5.017393719500304
 20
31.789499248682951
 30
0.0
 11
5.017393719500304
 21
31.789499248682951
 31
0.0
  0
LINE
  5
30E9E
  8
0
 62
     0
 10
4.8078468722450429
 20
31.460576584815911
 30
0.0
 11
4.8078468722450429
 21
31.460576584815911
 31
0.0
  0
LINE
  5
30E9F
  8
0
 62
     0
 10
5.0286711553674852
 20
32.05641046676913
 30
0.0
 11
5.0286711553674852
 21
32.05641046676913
 31
0.0
  0
LINE
  5
30EA0
  8
0
 62
     0
 10
4.8191243081122241
 20
31.727487802902111
 30
0.0
 11
4.8191243081122241
 21
31.727487802902111
 31
0.0
  0
LINE
  5
30EA1
  8
0
 62
     0
 10
5.0399485912346771
 20
32.32332168485533
 30
0.0
 11
5.0399485912346771
 21
32.32332168485533
 31
0.0
  0
LINE
  5
30EA2
  8
0
 62
     0
 10
4.830401743979416
 20
31.994399020988311
 30
0.0
 11
4.830401743979416
 21
31.994399020988311
 31
0.0
  0
LINE
  5
30EA3
  8
0
 62
     0
 10
5.0512260271018787
 20
32.590232902941558
 30
0.0
 11
5.0512260271018787
 21
32.590232902941558
 31
0.0
  0
LINE
  5
30EA4
  8
0
 62
     0
 10
4.8416791798466168
 20
32.261310239074533
 30
0.0
 11
4.8416791798466168
 21
32.261310239074533
 31
0.0
  0
LINE
  5
30EA5
  8
0
 62
     0
 10
5.0625034629690644
 20
32.857144121027751
 30
0.0
 11
5.0625034629690644
 21
32.857144121027751
 31
0.0
  0
LINE
  5
30EA6
  8
0
 62
     0
 10
4.8529566157138042
 20
32.528221457160733
 30
0.0
 11
4.8529566157138042
 21
32.528221457160733
 31
0.0
  0
LINE
  5
30EA7
  8
0
 62
     0
 10
5.0737808988362501
 20
33.124055339113958
 30
0.0
 11
5.0737808988362501
 21
33.124055339113958
 31
0.0
  0
LINE
  5
30EA8
  8
0
 62
     0
 10
4.864234051580989
 20
32.79513267524694
 30
0.0
 11
4.864234051580989
 21
32.79513267524694
 31
0.0
  0
LINE
  5
30EA9
  8
0
 62
     0
 10
5.0850583347034384
 20
33.390966557200151
 30
0.0
 11
5.0850583347034384
 21
33.390966557200151
 31
0.0
  0
LINE
  5
30EAA
  8
0
 62
     0
 10
4.8755114874481764
 20
33.062043893333133
 30
0.0
 11
4.8755114874481764
 21
33.062043893333133
 31
0.0
  0
LINE
  5
30EAB
  8
0
 62
     0
 10
4.8083490364048229
 20
32.956619962606531
 30
0.0
 11
4.8083490364048229
 21
32.956619962606531
 31
0.0
  0
LINE
  5
30EAC
  8
0
 62
     0
 10
5.096335770570632
 20
33.65787777528638
 30
0.0
 11
5.096335770570632
 21
33.65787777528638
 31
0.0
  0
LINE
  5
30EAD
  8
0
 62
     0
 10
4.8867889233153692
 20
33.328955111419361
 30
0.0
 11
4.8867889233153692
 21
33.328955111419361
 31
0.0
  0
LINE
  5
30EAE
  8
0
 62
     0
 10
4.8196264722720166
 20
33.223531180692731
 30
0.0
 11
4.8196264722720166
 21
33.223531180692731
 31
0.0
  0
LINE
  5
30EAF
  8
0
 62
     0
 10
4.8980663591825628
 20
33.595866329505547
 30
0.0
 11
4.8980663591825628
 21
33.595866329505547
 31
0.0
  0
LINE
  5
30EB0
  8
0
 62
     0
 10
4.8309039081392111
 20
33.490442398778931
 30
0.0
 11
4.8309039081392111
 21
33.490442398778931
 31
0.0
  0
LINE
  5
30EB1
  8
0
 62
     0
 10
4.8421813440064039
 20
33.75735361686516
 30
0.0
 11
4.8421813440064039
 21
33.75735361686516
 31
0.0
  0
LINE
  5
30EB2
  8
0
 62
     0
 10
5.2808833791921881
 20
33.720993037807091
 30
0.0
 11
5.2808833791921881
 21
33.720993037807091
 31
0.0
  0
LINE
  5
30EB3
  8
0
 62
     0
 10
5.1252501154730989
 20
33.5367526181806
 30
0.0
 11
5.1252501154730989
 21
33.5367526181806
 31
0.0
  0
LINE
  5
30EB4
  8
0
 62
     0
 10
5.1501806181871288
 20
33.347386649658198
 30
0.0
 11
5.1501806181871288
 21
33.347386649658198
 31
0.0
  0
LINE
  5
30EB5
  8
0
 62
     0
 10
5.1666595499549111
 20
33.222216735909761
 30
0.0
 11
5.1666595499549111
 21
33.222216735909761
 31
0.0
  0
LINE
  5
30EB6
  8
0
 62
     0
 10
5.208232142176997
 20
32.90644154756221
 30
0.0
 11
5.208232142176997
 21
32.90644154756221
 31
0.0
  0
LINE
  5
30EB7
  8
0
 62
     0
 10
5.233162644891026
 20
32.7170755790398
 30
0.0
 11
5.233162644891026
 21
32.7170755790398
 31
0.0
  0
LINE
  5
30EB8
  8
0
 62
     0
 10
5.2496415766588092
 20
32.591905665291357
 30
0.0
 11
5.2496415766588092
 21
32.591905665291357
 31
0.0
  0
LINE
  5
30EB9
  8
0
 62
     0
 10
5.2912141688808951
 20
32.276130476943813
 30
0.0
 11
5.2912141688808951
 21
32.276130476943813
 31
0.0
  0
LINE
  5
30EBA
  8
0
 62
     0
 10
4.9280442595319247
 20
33.668287386901682
 30
0.0
 11
4.9280442595319247
 21
33.668287386901682
 31
0.0
  0
LINE
  5
30EBB
  8
0
 62
     0
 10
4.9529747622459563
 20
33.478921418379286
 30
0.0
 11
4.9529747622459563
 21
33.478921418379286
 31
0.0
  0
LINE
  5
30EBC
  8
0
 62
     0
 10
4.9694536940137359
 20
33.35375150463085
 30
0.0
 11
4.9694536940137359
 21
33.35375150463085
 31
0.0
  0
LINE
  5
30EBD
  8
0
 62
     0
 10
5.0110262862358219
 20
33.037976316283292
 30
0.0
 11
5.0110262862358219
 21
33.037976316283292
 31
0.0
  0
LINE
  5
30EBE
  8
0
 62
     0
 10
5.0359567889498518
 20
32.848610347760882
 30
0.0
 11
5.0359567889498518
 21
32.848610347760882
 31
0.0
  0
LINE
  5
30EBF
  8
0
 62
     0
 10
5.052435720717634
 20
32.723440434012439
 30
0.0
 11
5.052435720717634
 21
32.723440434012439
 31
0.0
  0
LINE
  5
30EC0
  8
0
 62
     0
 10
5.0940083129397191
 20
32.40766524566488
 30
0.0
 11
5.0940083129397191
 21
32.40766524566488
 31
0.0
  0
LINE
  5
30EC1
  8
0
 62
     0
 10
5.118938815653749
 20
32.218299277142492
 30
0.0
 11
5.118938815653749
 21
32.218299277142492
 31
0.0
  0
LINE
  5
30EC2
  8
0
 62
     0
 10
5.1354177474215321
 20
32.093129363394041
 30
0.0
 11
5.1354177474215321
 21
32.093129363394041
 31
0.0
  0
LINE
  5
30EC3
  8
0
 62
     0
 10
5.1769903396436172
 20
31.777354175046479
 30
0.0
 11
5.1769903396436172
 21
31.777354175046479
 31
0.0
  0
LINE
  5
30EC4
  8
0
 62
     0
 10
5.2019208423576471
 20
31.587988206524081
 30
0.0
 11
5.2019208423576471
 21
31.587988206524081
 31
0.0
  0
LINE
  5
30EC5
  8
0
 62
     0
 10
5.2183997741254284
 20
31.462818292775641
 30
0.0
 11
5.2183997741254284
 21
31.462818292775641
 31
0.0
  0
LINE
  5
30EC6
  8
0
 62
     0
 10
5.2599723663475153
 20
31.147043104428079
 30
0.0
 11
5.2599723663475153
 21
31.147043104428079
 31
0.0
  0
LINE
  5
30EC7
  8
0
 62
     0
 10
5.2849028690615452
 20
30.95767713590568
 30
0.0
 11
5.2849028690615452
 21
30.95767713590568
 31
0.0
  0
LINE
  5
30EC8
  8
0
 62
     0
 10
5.3013818008293248
 20
30.83250722215724
 30
0.0
 11
5.3013818008293248
 21
30.83250722215724
 31
0.0
  0
LINE
  5
30EC9
  8
0
 62
     0
 10
4.8138204302946326
 20
33.169511085004352
 30
0.0
 11
4.8138204302946326
 21
33.169511085004352
 31
0.0
  0
LINE
  5
30ECA
  8
0
 62
     0
 10
4.8387509330086642
 20
32.98014511648195
 30
0.0
 11
4.8387509330086642
 21
32.98014511648195
 31
0.0
  0
LINE
  5
30ECB
  8
0
 62
     0
 10
4.8552298647764438
 20
32.85497520273352
 30
0.0
 11
4.8552298647764438
 21
32.85497520273352
 31
0.0
  0
LINE
  5
30ECC
  8
0
 62
     0
 10
4.8968024569985298
 20
32.539200014385948
 30
0.0
 11
4.8968024569985298
 21
32.539200014385948
 31
0.0
  0
LINE
  5
30ECD
  8
0
 62
     0
 10
4.9217329597125614
 20
32.349834045863552
 30
0.0
 11
4.9217329597125614
 21
32.349834045863552
 31
0.0
  0
LINE
  5
30ECE
  8
0
 62
     0
 10
4.938211891480341
 20
32.224664132115109
 30
0.0
 11
4.938211891480341
 21
32.224664132115109
 31
0.0
  0
LINE
  5
30ECF
  8
0
 62
     0
 10
4.979784483702427
 20
31.90888894376755
 30
0.0
 11
4.979784483702427
 21
31.90888894376755
 31
0.0
  0
LINE
  5
30ED0
  8
0
 62
     0
 10
5.0047149864164568
 20
31.719522975245152
 30
0.0
 11
5.0047149864164568
 21
31.719522975245152
 31
0.0
  0
LINE
  5
30ED1
  8
0
 62
     0
 10
5.0211939181842391
 20
31.594353061496712
 30
0.0
 11
5.0211939181842391
 21
31.594353061496712
 31
0.0
  0
LINE
  5
30ED2
  8
0
 62
     0
 10
5.0627665104063251
 20
31.27857787314915
 30
0.0
 11
5.0627665104063251
 21
31.27857787314915
 31
0.0
  0
LINE
  5
30ED3
  8
0
 62
     0
 10
5.0876970131203541
 20
31.089211904626751
 30
0.0
 11
5.0876970131203541
 21
31.089211904626751
 31
0.0
  0
LINE
  5
30ED4
  8
0
 62
     0
 10
5.1041759448881372
 20
30.964041990878311
 30
0.0
 11
5.1041759448881372
 21
30.964041990878311
 31
0.0
  0
LINE
  5
30ED5
  8
0
 62
     0
 10
5.1457485371102232
 20
30.648266802530749
 30
0.0
 11
5.1457485371102232
 21
30.648266802530749
 31
0.0
  0
LINE
  5
30ED6
  8
0
 62
     0
 10
5.170679039824253
 20
30.45890083400835
 30
0.0
 11
5.170679039824253
 21
30.45890083400835
 31
0.0
  0
LINE
  5
30ED7
  8
0
 62
     0
 10
5.1871579715920326
 20
30.33373092025991
 30
0.0
 11
5.1871579715920326
 21
30.33373092025991
 31
0.0
  0
LINE
  5
30ED8
  8
0
 62
     0
 10
5.2287305638141204
 20
30.017955731912348
 30
0.0
 11
5.2287305638141204
 21
30.017955731912348
 31
0.0
  0
LINE
  5
30ED9
  8
0
 62
     0
 10
5.2536610665281502
 20
29.828589763389949
 30
0.0
 11
5.2536610665281502
 21
29.828589763389949
 31
0.0
  0
LINE
  5
30EDA
  8
0
 62
     0
 10
5.2701399982959298
 20
29.703419849641499
 30
0.0
 11
5.2701399982959298
 21
29.703419849641499
 31
0.0
  0
LINE
  5
30EDB
  8
0
 62
     0
 10
4.8075091304752862
 20
31.851057743966219
 30
0.0
 11
4.8075091304752862
 21
31.851057743966219
 31
0.0
  0
LINE
  5
30EDC
  8
0
 62
     0
 10
4.8239880622430658
 20
31.725887830217768
 30
0.0
 11
4.8239880622430658
 21
31.725887830217768
 31
0.0
  0
LINE
  5
30EDD
  8
0
 62
     0
 10
4.8655606544651517
 20
31.41011264187021
 30
0.0
 11
4.8655606544651517
 21
31.41011264187021
 31
0.0
  0
LINE
  5
30EDE
  8
0
 62
     0
 10
4.8904911571791843
 20
31.220746673347819
 30
0.0
 11
4.8904911571791843
 21
31.220746673347819
 31
0.0
  0
LINE
  5
30EDF
  8
0
 62
     0
 10
4.906970088946963
 20
31.095576759599371
 30
0.0
 11
4.906970088946963
 21
31.095576759599371
 31
0.0
  0
LINE
  5
30EE0
  8
0
 62
     0
 10
4.9485426811690489
 20
30.779801571251809
 30
0.0
 11
4.9485426811690489
 21
30.779801571251809
 31
0.0
  0
LINE
  5
30EE1
  8
0
 62
     0
 10
4.9734731838830788
 20
30.590435602729421
 30
0.0
 11
4.9734731838830788
 21
30.590435602729421
 31
0.0
  0
LINE
  5
30EE2
  8
0
 62
     0
 10
4.9899521156508611
 20
30.465265688980971
 30
0.0
 11
4.9899521156508611
 21
30.465265688980971
 31
0.0
  0
LINE
  5
30EE3
  8
0
 62
     0
 10
5.031524707872947
 20
30.149490500633419
 30
0.0
 11
5.031524707872947
 21
30.149490500633419
 31
0.0
  0
LINE
  5
30EE4
  8
0
 62
     0
 10
5.056455210586976
 20
29.96012453211101
 30
0.0
 11
5.056455210586976
 21
29.96012453211101
 31
0.0
  0
LINE
  5
30EE5
  8
0
 62
     0
 10
5.0729341423547591
 20
29.83495461836257
 30
0.0
 11
5.0729341423547591
 21
29.83495461836257
 31
0.0
  0
LINE
  5
30EE6
  8
0
 62
     0
 10
5.1145067345768451
 20
29.519179430015011
 30
0.0
 11
5.1145067345768451
 21
29.519179430015011
 31
0.0
  0
LINE
  5
30EE7
  8
0
 62
     0
 10
5.1394372372908732
 20
29.329813461492609
 30
0.0
 11
5.1394372372908732
 21
29.329813461492609
 31
0.0
  0
LINE
  5
30EE8
  8
0
 62
     0
 10
5.1559161690586564
 20
29.204643547744169
 30
0.0
 11
5.1559161690586564
 21
29.204643547744169
 31
0.0
  0
LINE
  5
30EE9
  8
0
 62
     0
 10
5.1974887612807423
 20
28.888868359396611
 30
0.0
 11
5.1974887612807423
 21
28.888868359396611
 31
0.0
  0
LINE
  5
30EEA
  8
0
 62
     0
 10
5.2224192639947722
 20
28.699502390874208
 30
0.0
 11
5.2224192639947722
 21
28.699502390874208
 31
0.0
  0
LINE
  5
30EEB
  8
0
 62
     0
 10
5.2388981957625518
 20
28.574332477125768
 30
0.0
 11
5.2388981957625518
 21
28.574332477125768
 31
0.0
  0
LINE
  5
30EEC
  8
0
 62
     0
 10
5.2804707879846386
 20
28.25855728877821
 30
0.0
 11
5.2804707879846386
 21
28.25855728877821
 31
0.0
  0
LINE
  5
30EED
  8
0
 62
     0
 10
4.834318851931771
 20
30.281025269354501
 30
0.0
 11
4.834318851931771
 21
30.281025269354501
 31
0.0
  0
LINE
  5
30EEE
  8
0
 62
     0
 10
4.8592493546457991
 20
30.091659300832109
 30
0.0
 11
4.8592493546457991
 21
30.091659300832109
 31
0.0
  0
LINE
  5
30EEF
  8
0
 62
     0
 10
4.8757282864135822
 20
29.966489387083659
 30
0.0
 11
4.8757282864135822
 21
29.966489387083659
 31
0.0
  0
LINE
  5
30EF0
  8
0
 62
     0
 10
4.9173008786356682
 20
29.650714198736111
 30
0.0
 11
4.9173008786356682
 21
29.650714198736111
 31
0.0
  0
LINE
  5
30EF1
  8
0
 62
     0
 10
4.9422313813496972
 20
29.461348230213709
 30
0.0
 11
4.9422313813496972
 21
29.461348230213709
 31
0.0
  0
LINE
  5
30EF2
  8
0
 62
     0
 10
4.9587103131174786
 20
29.336178316465269
 30
0.0
 11
4.9587103131174786
 21
29.336178316465269
 31
0.0
  0
LINE
  5
30EF3
  8
0
 62
     0
 10
5.0002829053395637
 20
29.02040312811771
 30
0.0
 11
5.0002829053395637
 21
29.02040312811771
 31
0.0
  0
LINE
  5
30EF4
  8
0
 62
     0
 10
5.0252134080535953
 20
28.831037159595301
 30
0.0
 11
5.0252134080535953
 21
28.831037159595301
 31
0.0
  0
LINE
  5
30EF5
  8
0
 62
     0
 10
5.0416923398213749
 20
28.705867245846861
 30
0.0
 11
5.0416923398213749
 21
28.705867245846861
 31
0.0
  0
LINE
  5
30EF6
  8
0
 62
     0
 10
5.0832649320434609
 20
28.390092057499299
 30
0.0
 11
5.0832649320434609
 21
28.390092057499299
 31
0.0
  0
LINE
  5
30EF7
  8
0
 62
     0
 10
5.1081954347574907
 20
28.200726088976911
 30
0.0
 11
5.1081954347574907
 21
28.200726088976911
 31
0.0
  0
LINE
  5
30EF8
  8
0
 62
     0
 10
5.1246743665252721
 20
28.07555617522846
 30
0.0
 11
5.1246743665252721
 21
28.07555617522846
 31
0.0
  0
LINE
  5
30EF9
  8
0
 62
     0
 10
5.1662469587473581
 20
27.759780986880909
 30
0.0
 11
5.1662469587473581
 21
27.759780986880909
 31
0.0
  0
LINE
  5
30EFA
  8
0
 62
     0
 10
5.1911774614613879
 20
27.570415018358499
 30
0.0
 11
5.1911774614613879
 21
27.570415018358499
 31
0.0
  0
LINE
  5
30EFB
  8
0
 62
     0
 10
5.2076563932291711
 20
27.445245104610059
 30
0.0
 11
5.2076563932291711
 21
27.445245104610059
 31
0.0
  0
LINE
  5
30EFC
  8
0
 62
     0
 10
5.249228985451257
 20
27.129469916262501
 30
0.0
 11
5.249228985451257
 21
27.129469916262501
 31
0.0
  0
LINE
  5
30EFD
  8
0
 62
     0
 10
5.274159488165286
 20
26.940103947740091
 30
0.0
 11
5.274159488165286
 21
26.940103947740091
 31
0.0
  0
LINE
  5
30EFE
  8
0
 62
     0
 10
5.2906384199330683
 20
26.814934033991658
 30
0.0
 11
5.2906384199330683
 21
26.814934033991658
 31
0.0
  0
LINE
  5
30EFF
  8
0
 62
     0
 10
4.8030770493983761
 20
29.151937896838781
 30
0.0
 11
4.8030770493983761
 21
29.151937896838781
 31
0.0
  0
LINE
  5
30F00
  8
0
 62
     0
 10
4.828007552112406
 20
28.962571928316379
 30
0.0
 11
4.828007552112406
 21
28.962571928316379
 31
0.0
  0
LINE
  5
30F01
  8
0
 62
     0
 10
4.8444864838801882
 20
28.837402014567932
 30
0.0
 11
4.8444864838801882
 21
28.837402014567932
 31
0.0
  0
LINE
  5
30F02
  8
0
 62
     0
 10
4.8860590761022733
 20
28.52162682622038
 30
0.0
 11
4.8860590761022733
 21
28.52162682622038
 31
0.0
  0
LINE
  5
30F03
  8
0
 62
     0
 10
4.910989578816304
 20
28.332260857697982
 30
0.0
 11
4.910989578816304
 21
28.332260857697982
 31
0.0
  0
LINE
  5
30F04
  8
0
 62
     0
 10
4.9274685105840836
 20
28.207090943949549
 30
0.0
 11
4.9274685105840836
 21
28.207090943949549
 31
0.0
  0
LINE
  5
30F05
  8
0
 62
     0
 10
4.9690411028061714
 20
27.89131575560198
 30
0.0
 11
4.9690411028061714
 21
27.89131575560198
 31
0.0
  0
LINE
  5
30F06
  8
0
 62
     0
 10
4.9939716055202004
 20
27.701949787079581
 30
0.0
 11
4.9939716055202004
 21
27.701949787079581
 31
0.0
  0
LINE
  5
30F07
  8
0
 62
     0
 10
5.0104505372879808
 20
27.576779873331141
 30
0.0
 11
5.0104505372879808
 21
27.576779873331141
 31
0.0
  0
LINE
  5
30F08
  8
0
 62
     0
 10
5.0520231295100668
 20
27.261004684983568
 30
0.0
 11
5.0520231295100668
 21
27.261004684983568
 31
0.0
  0
LINE
  5
30F09
  8
0
 62
     0
 10
5.0769536322240967
 20
27.07163871646118
 30
0.0
 11
5.0769536322240967
 21
27.07163871646118
 31
0.0
  0
LINE
  5
30F0A
  8
0
 62
     0
 10
5.093432563991878
 20
26.94646880271274
 30
0.0
 11
5.093432563991878
 21
26.94646880271274
 31
0.0
  0
LINE
  5
30F0B
  8
0
 62
     0
 10
5.135005156213964
 20
26.630693614365178
 30
0.0
 11
5.135005156213964
 21
26.630693614365178
 31
0.0
  0
LINE
  5
30F0C
  8
0
 62
     0
 10
5.1599356589279939
 20
26.44132764584278
 30
0.0
 11
5.1599356589279939
 21
26.44132764584278
 31
0.0
  0
LINE
  5
30F0D
  8
0
 62
     0
 10
5.176414590695777
 20
26.316157732094339
 30
0.0
 11
5.176414590695777
 21
26.316157732094339
 31
0.0
  0
LINE
  5
30F0E
  8
0
 62
     0
 10
5.217987182917863
 20
26.000382543746781
 30
0.0
 11
5.217987182917863
 21
26.000382543746781
 31
0.0
  0
LINE
  5
30F0F
  8
0
 62
     0
 10
4.8132446813468084
 20
27.708314642052208
 30
0.0
 11
4.8132446813468084
 21
27.708314642052208
 31
0.0
  0
LINE
  5
30F10
  8
0
 62
     0
 10
4.8548172735688944
 20
27.39253945370465
 30
0.0
 11
4.8548172735688944
 21
27.39253945370465
 31
0.0
  0
LINE
  5
30F11
  8
0
 62
     0
 10
4.8797477762829242
 20
27.203173485182251
 30
0.0
 11
4.8797477762829242
 21
27.203173485182251
 31
0.0
  0
LINE
  5
30F12
  8
0
 62
     0
 10
4.8962267080507038
 20
27.078003571433801
 30
0.0
 11
4.8962267080507038
 21
27.078003571433801
 31
0.0
  0
LINE
  5
30F13
  8
0
 62
     0
 10
4.9377993002727907
 20
26.762228383086249
 30
0.0
 11
4.9377993002727907
 21
26.762228383086249
 31
0.0
  0
LINE
  5
30F14
  8
0
 62
     0
 10
4.9627298029868196
 20
26.572862414563851
 30
0.0
 11
4.9627298029868196
 21
26.572862414563851
 31
0.0
  0
LINE
  5
30F15
  8
0
 62
     0
 10
4.979208734754601
 20
26.4476925008154
 30
0.0
 11
4.979208734754601
 21
26.4476925008154
 31
0.0
  0
LINE
  5
30F16
  8
0
 62
     0
 10
5.020781326976687
 20
26.131917312467841
 30
0.0
 11
5.020781326976687
 21
26.131917312467841
 31
0.0
  0
LINE
  5
30F17
  8
0
 62
     0
 10
5.0457118296907169
 20
25.94255134394545
 30
0.0
 11
5.0457118296907169
 21
25.94255134394545
 31
0.0
  0
LINE
  5
30F18
  8
0
 62
     0
 10
4.823575471035511
 20
26.26345208118892
 30
0.0
 11
4.823575471035511
 21
26.26345208118892
 31
0.0
  0
LINE
  5
30F19
  8
0
 62
     0
 10
4.8485059737495408
 20
26.074086112666521
 30
0.0
 11
4.8485059737495408
 21
26.074086112666521
 31
0.0
  0
LINE
  5
30F1A
  8
0
 62
     0
 10
4.8649849055173231
 20
25.948916198918081
 30
0.0
 11
4.8649849055173231
 21
25.948916198918081
 31
0.0
  0
LINE
  5
30F1B
  8
0
 62
     0
 10
5.2959903942334989
 20
33.676672658892031
 30
0.0
 11
5.2959903942334989
 21
33.676672658892031
 31
0.0
  0
LINE
  5
30F1C
  8
0
 62
     0
 10
5.1295434673178324
 20
33.68275258655067
 30
0.0
 11
5.1295434673178324
 21
33.68275258655067
 31
0.0
  0
LINE
  5
30F1D
  8
0
 62
     0
 10
4.9630965404021774
 20
33.688832514209317
 30
0.0
 11
4.9630965404021774
 21
33.688832514209317
 31
0.0
  0
LINE
  5
30F1E
  8
0
 62
     0
 10
5.1615527662590202
 20
33.43019932527438
 30
0.0
 11
5.1615527662590202
 21
33.43019932527438
 31
0.0
  0
LINE
  5
30F1F
  8
0
 62
     0
 10
4.9951058393433678
 20
33.436279252933033
 30
0.0
 11
4.9951058393433678
 21
33.436279252933033
 31
0.0
  0
LINE
  5
30F20
  8
0
 62
     0
 10
5.1967580627025081
 20
33.173480958961562
 30
0.0
 11
5.1967580627025081
 21
33.173480958961562
 31
0.0
  0
LINE
  5
30F21
  8
0
 62
     0
 10
4.8286589124277102
 20
33.44235918059168
 30
0.0
 11
4.8286589124277102
 21
33.44235918059168
 31
0.0
  0
LINE
  5
30F22
  8
0
 62
     0
 10
5.0303111357868469
 20
33.179560886620202
 30
0.0
 11
5.0303111357868469
 21
33.179560886620202
 31
0.0
  0
LINE
  5
30F23
  8
0
 62
     0
 10
5.2342462145047692
 20
32.91378751762263
 30
0.0
 11
5.2342462145047692
 21
32.91378751762263
 31
0.0
  0
LINE
  5
30F24
  8
0
 62
     0
 10
4.863864208871191
 20
33.185640814278841
 30
0.0
 11
4.863864208871191
 21
33.185640814278841
 31
0.0
  0
LINE
  5
30F25
  8
0
 62
     0
 10
5.0677992875891134
 20
32.919867445281291
 30
0.0
 11
5.0677992875891134
 21
32.919867445281291
 31
0.0
  0
LINE
  5
30F26
  8
0
 62
     0
 10
5.2662555134459561
 20
32.66123425634634
 30
0.0
 11
5.2662555134459561
 21
32.66123425634634
 31
0.0
  0
LINE
  5
30F27
  8
0
 62
     0
 10
4.901352360673453
 20
32.925947372939923
 30
0.0
 11
4.901352360673453
 21
32.925947372939923
 31
0.0
  0
LINE
  5
30F28
  8
0
 62
     0
 10
5.0998085865302958
 20
32.667314184004972
 30
0.0
 11
5.0998085865302958
 21
32.667314184004972
 31
0.0
  0
LINE
  5
30F29
  8
0
 62
     0
 10
5.301460809889436
 20
32.404515890033522
 30
0.0
 11
5.301460809889436
 21
32.404515890033522
 31
0.0
  0
LINE
  5
30F2A
  8
0
 62
     0
 10
4.9333616596146461
 20
32.67339411166364
 30
0.0
 11
4.9333616596146461
 21
32.67339411166364
 31
0.0
  0
LINE
  5
30F2B
  8
0
 62
     0
 10
5.1350138829737846
 20
32.410595817692162
 30
0.0
 11
5.1350138829737846
 21
32.410595817692162
 31
0.0
  0
LINE
  5
30F2C
  8
0
 62
     0
 10
4.9685669560581269
 20
32.416675745350801
 30
0.0
 11
4.9685669560581269
 21
32.416675745350801
 31
0.0
  0
LINE
  5
30F2D
  8
0
 62
     0
 10
5.1725020347760493
 20
32.150902376353237
 30
0.0
 11
5.1725020347760493
 21
32.150902376353237
 31
0.0
  0
LINE
  5
30F2E
  8
0
 62
     0
 10
5.0060551078603979
 20
32.156982304011891
 30
0.0
 11
5.0060551078603979
 21
32.156982304011891
 31
0.0
  0
LINE
  5
30F2F
  8
0
 62
     0
 10
5.2045113337172406
 20
31.89834911507694
 30
0.0
 11
5.2045113337172406
 21
31.89834911507694
 31
0.0
  0
LINE
  5
30F30
  8
0
 62
     0
 10
4.8396081809447411
 20
32.163062231670523
 30
0.0
 11
4.8396081809447411
 21
32.163062231670523
 31
0.0
  0
LINE
  5
30F31
  8
0
 62
     0
 10
5.0380644068015821
 20
31.904429042735568
 30
0.0
 11
5.0380644068015821
 21
31.904429042735568
 31
0.0
  0
LINE
  5
30F32
  8
0
 62
     0
 10
5.2397166301607214
 20
31.641630748764111
 30
0.0
 11
5.2397166301607214
 21
31.641630748764111
 31
0.0
  0
LINE
  5
30F33
  8
0
 62
     0
 10
4.8716174798859244
 20
31.910508970394229
 30
0.0
 11
4.8716174798859244
 21
31.910508970394229
 31
0.0
  0
LINE
  5
30F34
  8
0
 62
     0
 10
5.073269703245062
 20
31.647710676422761
 30
0.0
 11
5.073269703245062
 21
31.647710676422761
 31
0.0
  0
LINE
  5
30F35
  8
0
 62
     0
 10
5.2772047819629844
 20
31.381937307425201
 30
0.0
 11
5.2772047819629844
 21
31.381937307425201
 31
0.0
  0
LINE
  5
30F36
  8
0
 62
     0
 10
4.9068227763294088
 20
31.653790604081401
 30
0.0
 11
4.9068227763294088
 21
31.653790604081401
 31
0.0
  0
LINE
  5
30F37
  8
0
 62
     0
 10
5.110757855047332
 20
31.38801723508384
 30
0.0
 11
5.110757855047332
 21
31.38801723508384
 31
0.0
  0
LINE
  5
30F38
  8
0
 62
     0
 10
4.9443109281316726
 20
31.39409716274249
 30
0.0
 11
4.9443109281316726
 21
31.39409716274249
 31
0.0
  0
LINE
  5
30F39
  8
0
 62
     0
 10
5.1427671539885171
 20
31.13546397380755
 30
0.0
 11
5.1427671539885171
 21
31.13546397380755
 31
0.0
  0
LINE
  5
30F3A
  8
0
 62
     0
 10
4.976320227072863
 20
31.141543901466189
 30
0.0
 11
4.976320227072863
 21
31.141543901466189
 31
0.0
  0
LINE
  5
30F3B
  8
0
 62
     0
 10
5.1779724504320006
 20
30.878745607494711
 30
0.0
 11
5.1779724504320006
 21
30.878745607494711
 31
0.0
  0
LINE
  5
30F3C
  8
0
 62
     0
 10
4.8098733001572072
 20
31.147623829124829
 30
0.0
 11
4.8098733001572072
 21
31.147623829124829
 31
0.0
  0
LINE
  5
30F3D
  8
0
 62
     0
 10
5.0115255235163438
 20
30.884825535153361
 30
0.0
 11
5.0115255235163438
 21
30.884825535153361
 31
0.0
  0
LINE
  5
30F3E
  8
0
 62
     0
 10
5.2154606022342671
 20
30.6190521661558
 30
0.0
 11
5.2154606022342671
 21
30.6190521661558
 31
0.0
  0
LINE
  5
30F3F
  8
0
 62
     0
 10
4.845078596600688
 20
30.890905462812
 30
0.0
 11
4.845078596600688
 21
30.890905462812
 31
0.0
  0
LINE
  5
30F40
  8
0
 62
     0
 10
5.0490136753186112
 20
30.62513209381444
 30
0.0
 11
5.0490136753186112
 21
30.62513209381444
 31
0.0
  0
LINE
  5
30F41
  8
0
 62
     0
 10
5.2474699011754531
 20
30.366498904879489
 30
0.0
 11
5.2474699011754531
 21
30.366498904879489
 31
0.0
  0
LINE
  5
30F42
  8
0
 62
     0
 10
4.8825667484029598
 20
30.63121202147309
 30
0.0
 11
4.8825667484029598
 21
30.63121202147309
 31
0.0
  0
LINE
  5
30F43
  8
0
 62
     0
 10
5.0810229742598043
 20
30.372578832538149
 30
0.0
 11
5.0810229742598043
 21
30.372578832538149
 31
0.0
  0
LINE
  5
30F44
  8
0
 62
     0
 10
5.282675197618941
 20
30.109780538566682
 30
0.0
 11
5.282675197618941
 21
30.109780538566682
 31
0.0
  0
LINE
  5
30F45
  8
0
 62
     0
 10
4.9145760473441484
 20
30.378658760196789
 30
0.0
 11
4.9145760473441484
 21
30.378658760196789
 31
0.0
  0
LINE
  5
30F46
  8
0
 62
     0
 10
5.116228270703286
 20
30.11586046622531
 30
0.0
 11
5.116228270703286
 21
30.11586046622531
 31
0.0
  0
LINE
  5
30F47
  8
0
 62
     0
 10
4.949781343787623
 20
30.121940393883971
 30
0.0
 11
4.949781343787623
 21
30.121940393883971
 31
0.0
  0
LINE
  5
30F48
  8
0
 62
     0
 10
5.1537164225055454
 20
29.8561670248864
 30
0.0
 11
5.1537164225055454
 21
29.8561670248864
 31
0.0
  0
LINE
  5
30F49
  8
0
 62
     0
 10
4.9872694955898877
 20
29.86224695254506
 30
0.0
 11
4.9872694955898877
 21
29.86224695254506
 31
0.0
  0
LINE
  5
30F4A
  8
0
 62
     0
 10
5.1857257214467323
 20
29.603613763610099
 30
0.0
 11
5.1857257214467323
 21
29.603613763610099
 31
0.0
  0
LINE
  5
30F4B
  8
0
 62
     0
 10
4.820822568674231
 20
29.868326880203689
 30
0.0
 11
4.820822568674231
 21
29.868326880203689
 31
0.0
  0
LINE
  5
30F4C
  8
0
 62
     0
 10
5.0192787945310737
 20
29.609693691268749
 30
0.0
 11
5.0192787945310737
 21
29.609693691268749
 31
0.0
  0
LINE
  5
30F4D
  8
0
 62
     0
 10
5.2209310178902131
 20
29.346895397297281
 30
0.0
 11
5.2209310178902131
 21
29.346895397297281
 31
0.0
  0
LINE
  5
30F4E
  8
0
 62
     0
 10
4.8528318676154241
 20
29.615773618927388
 30
0.0
 11
4.8528318676154241
 21
29.615773618927388
 31
0.0
  0
LINE
  5
30F4F
  8
0
 62
     0
 10
5.0544840909745643
 20
29.352975324955921
 30
0.0
 11
5.0544840909745643
 21
29.352975324955921
 31
0.0
  0
LINE
  5
30F50
  8
0
 62
     0
 10
5.258419169692484
 20
29.08720195595836
 30
0.0
 11
5.258419169692484
 21
29.08720195595836
 31
0.0
  0
LINE
  5
30F51
  8
0
 62
     0
 10
4.8880371640589084
 20
29.359055252614571
 30
0.0
 11
4.8880371640589084
 21
29.359055252614571
 31
0.0
  0
LINE
  5
30F52
  8
0
 62
     0
 10
5.091972242776829
 20
29.093281883616999
 30
0.0
 11
5.091972242776829
 21
29.093281883616999
 31
0.0
  0
LINE
  5
30F53
  8
0
 62
     0
 10
5.2904284686336718
 20
28.834648694682059
 30
0.0
 11
5.2904284686336718
 21
28.834648694682059
 31
0.0
  0
LINE
  5
30F54
  8
0
 62
     0
 10
4.925525315861174
 20
29.099361811275649
 30
0.0
 11
4.925525315861174
 21
29.099361811275649
 31
0.0
  0
LINE
  5
30F55
  8
0
 62
     0
 10
5.1239815417180159
 20
28.840728622340698
 30
0.0
 11
5.1239815417180159
 21
28.840728622340698
 31
0.0
  0
LINE
  5
30F56
  8
0
 62
     0
 10
4.95753461480236
 20
28.846808549999349
 30
0.0
 11
4.95753461480236
 21
28.846808549999349
 31
0.0
  0
LINE
  5
30F57
  8
0
 62
     0
 10
5.1591868381615003
 20
28.584010256027881
 30
0.0
 11
5.1591868381615003
 21
28.584010256027881
 31
0.0
  0
LINE
  5
30F58
  8
0
 62
     0
 10
4.992739911245847
 20
28.590090183686542
 30
0.0
 11
4.992739911245847
 21
28.590090183686542
 31
0.0
  0
LINE
  5
30F59
  8
0
 62
     0
 10
5.1966749899637694
 20
28.32431681468897
 30
0.0
 11
5.1966749899637694
 21
28.32431681468897
 31
0.0
  0
LINE
  5
30F5A
  8
0
 62
     0
 10
4.8262929843301876
 20
28.59617011134517
 30
0.0
 11
4.8262929843301876
 21
28.59617011134517
 31
0.0
  0
LINE
  5
30F5B
  8
0
 62
     0
 10
5.03022806304811
 20
28.33039674234761
 30
0.0
 11
5.03022806304811
 21
28.33039674234761
 31
0.0
  0
LINE
  5
30F5C
  8
0
 62
     0
 10
5.2286842889049518
 20
28.071763553412669
 30
0.0
 11
5.2286842889049518
 21
28.071763553412669
 31
0.0
  0
LINE
  5
30F5D
  8
0
 62
     0
 10
4.8637811361324541
 20
28.33647667000626
 30
0.0
 11
4.8637811361324541
 21
28.33647667000626
 31
0.0
  0
LINE
  5
30F5E
  8
0
 62
     0
 10
5.062237361989296
 20
28.077843481071309
 30
0.0
 11
5.062237361989296
 21
28.077843481071309
 31
0.0
  0
LINE
  5
30F5F
  8
0
 62
     0
 10
5.2638895853484362
 20
27.815045187099841
 30
0.0
 11
5.2638895853484362
 21
27.815045187099841
 31
0.0
  0
LINE
  5
30F60
  8
0
 62
     0
 10
4.8957904350736356
 20
28.083923408729959
 30
0.0
 11
4.8957904350736356
 21
28.083923408729959
 31
0.0
  0
LINE
  5
30F61
  8
0
 62
     0
 10
5.0974426584327741
 20
27.82112511475848
 30
0.0
 11
5.0974426584327741
 21
27.82112511475848
 31
0.0
  0
LINE
  5
30F62
  8
0
 62
     0
 10
5.3013777371506974
 20
27.55535174576092
 30
0.0
 11
5.3013777371506974
 21
27.55535174576092
 31
0.0
  0
LINE
  5
30F63
  8
0
 62
     0
 10
4.9309957315171191
 20
27.82720504241713
 30
0.0
 11
4.9309957315171191
 21
27.82720504241713
 31
0.0
  0
LINE
  5
30F64
  8
0
 62
     0
 10
5.1349308102350388
 20
27.56143167341957
 30
0.0
 11
5.1349308102350388
 21
27.56143167341957
 31
0.0
  0
LINE
  5
30F65
  8
0
 62
     0
 10
4.9684838833193901
 20
27.56751160107822
 30
0.0
 11
4.9684838833193901
 21
27.56751160107822
 31
0.0
  0
LINE
  5
30F66
  8
0
 62
     0
 10
5.166940109176231
 20
27.308878412143269
 30
0.0
 11
5.166940109176231
 21
27.308878412143269
 31
0.0
  0
LINE
  5
30F67
  8
0
 62
     0
 10
5.0004931822605752
 20
27.314958339801919
 30
0.0
 11
5.0004931822605752
 21
27.314958339801919
 31
0.0
  0
LINE
  5
30F68
  8
0
 62
     0
 10
5.2021454056197118
 20
27.052160045830451
 30
0.0
 11
5.2021454056197118
 21
27.052160045830451
 31
0.0
  0
LINE
  5
30F69
  8
0
 62
     0
 10
4.8340462553449202
 20
27.321038267460558
 30
0.0
 11
4.8340462553449202
 21
27.321038267460558
 31
0.0
  0
LINE
  5
30F6A
  8
0
 62
     0
 10
5.0356984787040568
 20
27.058239973489091
 30
0.0
 11
5.0356984787040568
 21
27.058239973489091
 31
0.0
  0
LINE
  5
30F6B
  8
0
 62
     0
 10
5.2396335574219801
 20
26.792466604491519
 30
0.0
 11
5.2396335574219801
 21
26.792466604491519
 31
0.0
  0
LINE
  5
30F6C
  8
0
 62
     0
 10
4.8692515517884072
 20
27.06431990114773
 30
0.0
 11
4.8692515517884072
 21
27.06431990114773
 31
0.0
  0
LINE
  5
30F6D
  8
0
 62
     0
 10
5.0731866305063269
 20
26.798546532150169
 30
0.0
 11
5.0731866305063269
 21
26.798546532150169
 31
0.0
  0
LINE
  5
30F6E
  8
0
 62
     0
 10
5.2716428563631714
 20
26.539913343215211
 30
0.0
 11
5.2716428563631714
 21
26.539913343215211
 31
0.0
  0
LINE
  5
30F6F
  8
0
 62
     0
 10
4.9067397035906692
 20
26.804626459808819
 30
0.0
 11
4.9067397035906692
 21
26.804626459808819
 31
0.0
  0
LINE
  5
30F70
  8
0
 62
     0
 10
5.1051959294475111
 20
26.545993270873868
 30
0.0
 11
5.1051959294475111
 21
26.545993270873868
 31
0.0
  0
LINE
  5
30F71
  8
0
 62
     0
 10
4.9387490025318561
 20
26.552073198532518
 30
0.0
 11
4.9387490025318561
 21
26.552073198532518
 31
0.0
  0
LINE
  5
30F72
  8
0
 62
     0
 10
5.1404012258909928
 20
26.289274904561051
 30
0.0
 11
5.1404012258909928
 21
26.289274904561051
 31
0.0
  0
LINE
  5
30F73
  8
0
 62
     0
 10
4.9739542989753378
 20
26.29535483221969
 30
0.0
 11
4.9739542989753378
 21
26.29535483221969
 31
0.0
  0
LINE
  5
30F74
  8
0
 62
     0
 10
5.1778893776932611
 20
26.029581463222129
 30
0.0
 11
5.1778893776932611
 21
26.029581463222129
 31
0.0
  0
LINE
  5
30F75
  8
0
 62
     0
 10
4.8075073720596819
 20
26.30143475987834
 30
0.0
 11
4.8075073720596819
 21
26.30143475987834
 31
0.0
  0
LINE
  5
30F76
  8
0
 62
     0
 10
5.0114424507776052
 20
26.035661390880769
 30
0.0
 11
5.0114424507776052
 21
26.035661390880769
 31
0.0
  0
LINE
  5
30F77
  8
0
 62
     0
 10
4.8449955238619449
 20
26.041741318539412
 30
0.0
 11
4.8449955238619449
 21
26.041741318539412
 31
0.0
  0
LINE
  5
30F78
  8
0
 62
     0
 10
5.0178245466302691
 20
33.618109295132271
 30
0.0
 11
4.9876099702708681
 21
33.62824745723055
 31
0.0
  0
LINE
  5
30F79
  8
0
 62
     0
 10
4.8165148682438357
 20
33.319655929520039
 30
0.0
 11
4.8024421800112957
 21
33.32437786216483
 31
0.0
  0
LINE
  5
30F7A
  8
0
 62
     0
 10
5.1790897949852477
 20
33.197997980841521
 30
0.0
 11
5.1488752186258484
 21
33.2081361429398
 31
0.0
  0
LINE
  5
30F7B
  8
0
 62
     0
 10
4.9777801165988063
 20
32.899544615229289
 30
0.0
 11
4.9475655402394052
 21
32.909682777327568
 31
0.0
  0
LINE
  5
30F7C
  8
0
 62
     0
 10
5.1390453649537831
 20
32.47943330093856
 30
0.0
 11
5.1088307885943811
 21
32.489571463036832
 31
0.0
  0
LINE
  5
30F7D
  8
0
 62
     0
 10
4.9377356865673363
 20
32.18097993532632
 30
0.0
 11
4.9075211102079352
 21
32.191118097424599
 31
0.0
  0
LINE
  5
30F7E
  8
0
 62
     0
 10
5.3003106133087492
 20
32.059321986647788
 30
0.0
 11
5.2700960369493481
 21
32.069460148746082
 31
0.0
  0
LINE
  5
30F7F
  8
0
 62
     0
 10
5.0990009349223051
 20
31.76086862103557
 30
0.0
 11
5.0687863585629032
 21
31.771006783133849
 31
0.0
  0
LINE
  5
30F80
  8
0
 62
     0
 10
4.8976912565358841
 20
31.462415255423331
 30
0.0
 11
4.8674766801764831
 21
31.47255341752161
 31
0.0
  0
LINE
  5
30F81
  8
0
 62
     0
 10
5.260266183277297
 20
31.34075730674482
 30
0.0
 11
5.2300516069178959
 21
31.350895468843088
 31
0.0
  0
LINE
  5
30F82
  8
0
 62
     0
 10
5.058956504890868
 20
31.042303941132591
 30
0.0
 11
5.0287419285314652
 21
31.05244210323086
 31
0.0
  0
LINE
  5
30F83
  8
0
 62
     0
 10
4.857646826504407
 20
30.743850575520369
 30
0.0
 11
4.8274322501450051
 21
30.753988737618641
 31
0.0
  0
LINE
  5
30F84
  8
0
 62
     0
 10
5.2202217532458191
 20
30.622192626841851
 30
0.0
 11
5.1900071768864171
 21
30.632330788940131
 31
0.0
  0
LINE
  5
30F85
  8
0
 62
     0
 10
5.0189120748593901
 20
30.323739261229619
 30
0.0
 11
4.9886974984999881
 21
30.333877423327891
 31
0.0
  0
LINE
  5
30F86
  8
0
 62
     0
 10
4.8176023964729549
 20
30.02528589561739
 30
0.0
 11
4.802442180011294
 21
30.030372736157702
 31
0.0
  0
LINE
  5
30F87
  8
0
 62
     0
 10
5.1801773232143677
 20
29.903627946938879
 30
0.0
 11
5.1499627468549667
 21
29.913766109037152
 31
0.0
  0
LINE
  5
30F88
  8
0
 62
     0
 10
4.9788676448279237
 20
29.605174581326651
 30
0.0
 11
4.9486530684685244
 21
29.615312743424909
 31
0.0
  0
LINE
  5
30F89
  8
0
 62
     0
 10
5.1401328931829031
 20
29.1850632670359
 30
0.0
 11
5.1099183168235021
 21
29.195201429134169
 31
0.0
  0
LINE
  5
30F8A
  8
0
 62
     0
 10
4.9388232147964706
 20
28.886609901423661
 30
0.0
 11
4.9086086384370704
 21
28.896748063521951
 31
0.0
  0
LINE
  5
30F8B
  8
0
 62
     0
 10
5.3013981415378817
 20
28.76495195274515
 30
0.0
 11
5.2711835651784806
 21
28.775090114843429
 31
0.0
  0
LINE
  5
30F8C
  8
0
 62
     0
 10
5.100088463151466
 20
28.466498587132921
 30
0.0
 11
5.069873886792065
 21
28.47663674923119
 31
0.0
  0
LINE
  5
30F8D
  8
0
 62
     0
 10
4.8987787847650193
 20
28.168045221520678
 30
0.0
 11
4.8685642084056173
 21
28.178183383618961
 31
0.0
  0
LINE
  5
30F8E
  8
0
 62
     0
 10
5.2613537115064313
 20
28.046387272842171
 30
0.0
 11
5.2311391351470302
 21
28.05652543494045
 31
0.0
  0
LINE
  5
30F8F
  8
0
 62
     0
 10
5.0600440331199881
 20
27.74793390722995
 30
0.0
 11
5.029829456760587
 21
27.758072069328229
 31
0.0
  0
LINE
  5
30F90
  8
0
 62
     0
 10
4.8587343547335529
 20
27.44948054161771
 30
0.0
 11
4.8285197783741518
 21
27.459618703715989
 31
0.0
  0
LINE
  5
30F91
  8
0
 62
     0
 10
5.2213092814749666
 20
27.327822592939199
 30
0.0
 11
5.1910947051155647
 21
27.337960755037471
 31
0.0
  0
LINE
  5
30F92
  8
0
 62
     0
 10
5.0199996030885252
 20
27.029369227326971
 30
0.0
 11
4.9897850267291242
 21
27.039507389425239
 31
0.0
  0
LINE
  5
30F93
  8
0
 62
     0
 10
4.8186899247021042
 20
26.730915861714731
 30
0.0
 11
4.8024421800112949
 21
26.736367610150548
 31
0.0
  0
LINE
  5
30F94
  8
0
 62
     0
 10
5.1812648514435162
 20
26.60925791303621
 30
0.0
 11
5.1510502750841152
 21
26.619396075134489
 31
0.0
  0
LINE
  5
30F95
  8
0
 62
     0
 10
4.9799551730570588
 20
26.310804547423999
 30
0.0
 11
4.9497405966976578
 21
26.320942709522271
 31
0.0
  0
LINE
  5
30F96
  8
0
 62
     0
 10
5.1294994430997161
 20
25.894626075899829
 30
0.0
 11
5.1110058450526408
 21
25.900831395231521
 31
0.0
  0
LINE
  5
30F97
  8
0
 62
     0
 10
5.1644784790615743
 20
26.58445404286422
 30
0.0
 11
5.1812542661656948
 21
26.609325170040862
 31
0.0
  0
LINE
  5
30F98
  8
0
 62
     0
 10
4.9631690338121039
 20
26.286000516744391
 30
0.0
 11
4.979944820916228
 21
26.31087164392104
 31
0.0
  0
LINE
  5
30F99
  8
0
 62
     0
 10
5.2045223470370914
 20
27.303018761064632
 30
0.0
 11
5.2212981341412119
 21
27.327889888241291
 31
0.0
  0
LINE
  5
30F9A
  8
0
 62
     0
 10
5.003212901787621
 20
27.00456523494482
 30
0.0
 11
5.0199886888917451
 21
27.029436362121469
 31
0.0
  0
LINE
  5
30F9B
  8
0
 62
     0
 10
4.802442180011254
 20
26.706910399219051
 30
0.0
 11
4.8186792436422747
 21
26.730982836001651
 31
0.0
  0
LINE
  5
30F9C
  8
0
 62
     0
 10
5.2445662150125933
 20
28.02158347926505
 30
0.0
 11
5.2613420021167148
 21
28.046454606441689
 31
0.0
  0
LINE
  5
30F9D
  8
0
 62
     0
 10
5.0432567697631239
 20
27.723129953145239
 30
0.0
 11
5.0600325568672471
 21
27.748001080321881
 31
0.0
  0
LINE
  5
30F9E
  8
0
 62
     0
 10
4.8419473245136571
 20
27.424676427025432
 30
0.0
 11
4.8587231116177794
 21
27.44954755420207
 31
0.0
  0
LINE
  5
30F9F
  8
0
 62
     0
 10
5.2846100829881113
 20
28.740148197465469
 30
0.0
 11
5.3013858700922318
 21
28.765019324642129
 31
0.0
  0
LINE
  5
30FA0
  8
0
 62
     0
 10
5.0833006377386409
 20
28.441694671345662
 30
0.0
 11
5.100076424842765
 21
28.466565798522311
 31
0.0
  0
LINE
  5
30FA1
  8
0
 62
     0
 10
4.8819911924891741
 20
28.14324114522584
 30
0.0
 11
4.8987669795932964
 21
28.168112272402499
 31
0.0
  0
LINE
  5
30FA2
  8
0
 62
     0
 10
5.1233445057141509
 20
29.160259389546081
 30
0.0
 11
5.1401202928182732
 21
29.185130516722719
 31
0.0
  0
LINE
  5
30FA3
  8
0
 62
     0
 10
4.9220350604646841
 20
28.861805863426252
 30
0.0
 11
4.9388108475688064
 21
28.886676990602911
 31
0.0
  0
LINE
  5
30FA4
  8
0
 62
     0
 10
5.1633883736896653
 20
29.8788241077465
 30
0.0
 11
5.1801641607937867
 21
29.903695234923148
 31
0.0
  0
LINE
  5
30FA5
  8
0
 62
     0
 10
4.9620789284401958
 20
29.580370581626681
 30
0.0
 11
4.9788547155443181
 21
29.605241708803341
 31
0.0
  0
LINE
  5
30FA6
  8
0
 62
     0
 10
5.2034322416651762
 20
30.597388825946911
 30
0.0
 11
5.2202080287692967
 21
30.622259953123571
 31
0.0
  0
LINE
  5
30FA7
  8
0
 62
     0
 10
5.0021227964157058
 20
30.2989352998271
 30
0.0
 11
5.0188985835198281
 21
30.323806427003749
 31
0.0
  0
LINE
  5
30FA8
  8
0
 62
     0
 10
4.802442180011254
 20
30.002896611777292
 30
0.0
 11
4.8175891382703604
 21
30.025352900883941
 31
0.0
  0
LINE
  5
30FA9
  8
0
 62
     0
 10
5.2434761096406861
 20
31.315953544147341
 30
0.0
 11
5.2602518967448084
 21
31.340824671324
 31
0.0
  0
LINE
  5
30FAA
  8
0
 62
     0
 10
5.0421666643912157
 20
31.01750001802753
 30
0.0
 11
5.0589424514953381
 21
31.042371145204179
 31
0.0
  0
LINE
  5
30FAB
  8
0
 62
     0
 10
4.840857219141748
 20
30.719046491907712
 30
0.0
 11
4.8576330062458712
 21
30.743917619084371
 31
0.0
  0
LINE
  5
30FAC
  8
0
 62
     0
 10
5.2835199776161987
 20
32.03451826234776
 30
0.0
 11
5.300295764720321
 21
32.059389389524412
 31
0.0
  0
LINE
  5
30FAD
  8
0
 62
     0
 10
5.082210532366731
 20
31.736064736227959
 30
0.0
 11
5.0989863194708516
 21
31.760935863404601
 31
0.0
  0
LINE
  5
30FAE
  8
0
 62
     0
 10
4.8809010871172607
 20
31.43761121010813
 30
0.0
 11
4.897676874221383
 21
31.462482337284779
 31
0.0
  0
LINE
  5
30FAF
  8
0
 62
     0
 10
5.1222544003422357
 20
32.454629454428371
 30
0.0
 11
5.139030187446358
 21
32.479500581605024
 31
0.0
  0
LINE
  5
30FB0
  8
0
 62
     0
 10
4.920944955092768
 20
32.156175928308571
 30
0.0
 11
4.9377207421968912
 21
32.181047055485209
 31
0.0
  0
LINE
  5
30FB1
  8
0
 62
     0
 10
5.1622982683177527
 20
33.17319417262879
 30
0.0
 11
5.179074055421875
 21
33.19806529980545
 31
0.0
  0
LINE
  5
30FB2
  8
0
 62
     0
 10
4.960988823068285
 20
32.874740646508968
 30
0.0
 11
4.9777646101724082
 21
32.899611773685628
 31
0.0
  0
LINE
  5
30FB3
  8
0
 62
     0
 10
5.001032691043787
 20
33.593305364709401
 30
0.0
 11
5.0178084781479111
 21
33.618176491886047
 31
0.0
  0
LINE
  5
30FB4
  8
0
 62
     0
 10
4.802442180011246
 20
33.29888282433555
 30
0.0
 11
4.8164990328984407
 21
33.319722965766232
 31
0.0
  0
LINE
  5
30FB5
  8
0
 62
     0
 10
5.001032719120996
 20
33.593305372031743
 30
0.0
 11
4.9875939210130467
 21
33.628314638025387
 31
0.0
  0
LINE
  5
30FB6
  8
0
 62
     0
 10
5.162298296416381
 20
33.173194180107998
 30
0.0
 11
5.1488594983084308
 21
33.208203446101649
 31
0.0
  0
LINE
  5
30FB7
  8
0
 62
     0
 10
4.960988851083731
 20
32.87474065404875
 30
0.0
 11
4.9475500529757843
 21
32.909749920042387
 31
0.0
  0
LINE
  5
30FB8
  8
0
 62
     0
 10
5.122254428379116
 20
32.454629462125013
 30
0.0
 11
5.1088156302711694
 21
32.48963872811867
 31
0.0
  0
LINE
  5
30FB9
  8
0
 62
     0
 10
5.2835200056745011
 20
32.034518270201282
 30
0.0
 11
5.2700812075665526
 21
32.069527536194919
 31
0.0
  0
LINE
  5
30FBA
  8
0
 62
     0
 10
4.9209449830464331
 20
32.1561759360658
 30
0.0
 11
4.9075061849384847
 21
32.19118520205943
 31
0.0
  0
LINE
  5
30FBB
  8
0
 62
     0
 10
5.0822105603418191
 20
31.736064744142048
 30
0.0
 11
5.0687717622338706
 21
31.771074010135688
 31
0.0
  0
LINE
  5
30FBC
  8
0
 62
     0
 10
5.2434761376372041
 20
31.315953552218311
 30
0.0
 11
5.2300373395292548
 21
31.350962818211961
 31
0.0
  0
LINE
  5
30FBD
  8
0
 62
     0
 10
4.8809011150091548
 20
31.437611218082829
 30
0.0
 11
4.8674623169012081
 21
31.472620484076469
 31
0.0
  0
LINE
  5
30FBE
  8
0
 62
     0
 10
5.0421666923045398
 20
31.01750002615908
 30
0.0
 11
5.0287278941965932
 21
31.052509292152731
 31
0.0
  0
LINE
  5
30FBF
  8
0
 62
     0
 10
5.2034322695999249
 20
30.59738883423535
 30
0.0
 11
5.1899934714919773
 21
30.63239810022899
 31
0.0
  0
LINE
  5
30FC0
  8
0
 62
     0
 10
4.8408572469718578
 20
30.719046500099871
 30
0.0
 11
4.8274184488639111
 21
30.754055766093511
 31
0.0
  0
LINE
  5
30FC1
  8
0
 62
     0
 10
5.0021228242672429
 20
30.29893530817613
 30
0.0
 11
4.9886840261592962
 21
30.33394457416977
 31
0.0
  0
LINE
  5
30FC2
  8
0
 62
     0
 10
5.1633884015626279
 20
29.878824116252389
 30
0.0
 11
5.1499496034546812
 21
29.913833382246029
 31
0.0
  0
LINE
  5
30FC3
  8
0
 62
     0
 10
4.9620789562299699
 20
29.580370590193152
 30
0.0
 11
4.9486401581220232
 21
29.615379856186781
 31
0.0
  0
LINE
  5
30FC4
  8
0
 62
     0
 10
5.1233445335253549
 20
29.1602593982694
 30
0.0
 11
5.1099057354174082
 21
29.19526866426304
 31
0.0
  0
LINE
  5
30FC5
  8
0
 62
     0
 10
5.2846101108207399
 20
28.740148206345658
 30
0.0
 11
5.2711713127127924
 21
28.775157472339298
 31
0.0
  0
LINE
  5
30FC6
  8
0
 62
     0
 10
4.9220350881926791
 20
28.86180587221018
 30
0.0
 11
4.9085962900847298
 21
28.896815138203809
 31
0.0
  0
LINE
  5
30FC7
  8
0
 62
     0
 10
5.083300665488065
 20
28.441694680286432
 30
0.0
 11
5.0698618673801148
 21
28.476703946280072
 31
0.0
  0
LINE
  5
30FC8
  8
0
 62
     0
 10
5.2445662427834492
 20
28.021583488362701
 30
0.0
 11
5.2311274446754998
 21
28.056592754356341
 31
0.0
  0
LINE
  5
30FC9
  8
0
 62
     0
 10
4.8819912201553981
 20
28.143241154227201
 30
0.0
 11
4.8685524220474514
 21
28.178250420220841
 31
0.0
  0
LINE
  5
30FCA
  8
0
 62
     0
 10
5.043256797450784
 20
27.72312996230346
 30
0.0
 11
5.0298179993428347
 21
27.758139228297111
 31
0.0
  0
LINE
  5
30FCB
  8
0
 62
     0
 10
5.2045223747461691
 20
27.30301877037973
 30
0.0
 11
5.1910835766382197
 21
27.33802803637337
 31
0.0
  0
LINE
  5
30FCC
  8
0
 62
     0
 10
4.84194735211811
 20
27.424676436244219
 30
0.0
 11
4.8285085540101633
 21
27.459685702237859
 31
0.0
  0
LINE
  5
30FCD
  8
0
 62
     0
 10
5.003212929413495
 20
27.004565244320482
 30
0.0
 11
4.9897741313055484
 21
27.039574510314122
 31
0.0
  0
LINE
  5
30FCE
  8
0
 62
     0
 10
5.1644785067088801
 20
26.58445405239674
 30
0.0
 11
5.1510397086009316
 21
26.61946331839038
 31
0.0
  0
LINE
  5
30FCF
  8
0
 62
     0
 10
4.9631690613762149
 20
26.286000526337521
 30
0.0
 11
4.9497302632682683
 21
26.321009792331171
 31
0.0
  0
LINE
  5
30FD0
  8
0
 62
     0
 10
5.1134036371309968
 20
25.894626075899829
 30
0.0
 11
5.1109958405636524
 21
25.90089860040743
 31
0.0
  0
LINE
  5
30FD1
  8
0
 62
     0
 10
5.2380358470945954
 20
28.585932540479071
 30
0.0
 11
5.2449324726790021
 21
28.630400917507561
 31
0.0
  0
LINE
  5
30FD2
  8
0
 62
     0
 10
5.1552763400816941
 20
28.052312016137108
 30
0.0
 11
5.1621729656661026
 21
28.096780393165599
 31
0.0
  0
LINE
  5
30FD3
  8
0
 62
     0
 10
5.0725168330687929
 20
27.518691491795149
 30
0.0
 11
5.0794134586532032
 21
27.56315986882365
 31
0.0
  0
LINE
  5
30FD4
  8
0
 62
     0
 10
4.9897573260558943
 20
26.985070967453201
 30
0.0
 11
4.996653951640301
 21
27.029539344481691
 31
0.0
  0
LINE
  5
30FD5
  8
0
 62
     0
 10
4.906997819042993
 20
26.451450443111241
 30
0.0
 11
4.9138944446274007
 21
26.495918820139732
 31
0.0
  0
LINE
  5
30FD6
  8
0
 62
     0
 10
5.2475335887093273
 20
32.254986659097611
 30
0.0
 11
5.254430214293734
 21
32.299455036126112
 31
0.0
  0
LINE
  5
30FD7
  8
0
 62
     0
 10
5.164774081696426
 20
31.721366134755652
 30
0.0
 11
5.1716707072808354
 21
31.765834511784149
 31
0.0
  0
LINE
  5
30FD8
  8
0
 62
     0
 10
5.0820145746835248
 20
31.1877456104137
 30
0.0
 11
5.0889112002679351
 21
31.232213987442201
 31
0.0
  0
LINE
  5
30FD9
  8
0
 62
     0
 10
4.9992550676706253
 20
30.65412508607174
 30
0.0
 11
5.006151693255033
 21
30.698593463100242
 31
0.0
  0
LINE
  5
30FDA
  8
0
 62
     0
 10
4.9164955606577241
 20
30.120504561729788
 30
0.0
 11
4.9233921862421344
 21
30.164972938758289
 31
0.0
  0
LINE
  5
30FDB
  8
0
 62
     0
 10
4.8337360536448237
 20
29.586884037387829
 30
0.0
 11
4.8406326792292331
 21
29.63135241441633
 31
0.0
  0
LINE
  5
30FDC
  8
0
 62
     0
 10
4.8432337952595681
 20
33.255938156006373
 30
0.0
 11
4.8501304208439766
 21
33.30040653303486
 31
0.0
  0
LINE
  5
30FDD
  8
0
 62
     0
 10
4.8501324810680231
 20
33.300338200567822
 30
0.0
 11
4.8026475761206644
 21
33.294814108334613
 31
0.0
  0
LINE
  5
30FDE
  8
0
 62
     0
 10
5.302442180011254
 20
32.828964342333862
 30
0.0
 11
5.2897065115708921
 21
32.827482755560261
 31
0.0
  0
LINE
  5
30FDF
  8
0
 62
     0
 10
5.25443157603745
 20
32.299386397927151
 30
0.0
 11
5.2069466710900922
 21
32.293862305693949
 31
0.0
  0
LINE
  5
30FE0
  8
0
 62
     0
 10
5.171671735556667
 20
31.765765948060821
 30
0.0
 11
5.1241868306093092
 21
31.760241855827609
 31
0.0
  0
LINE
  5
30FE1
  8
0
 62
     0
 10
5.088911895075884
 20
31.232145498194509
 30
0.0
 11
5.0414269901285262
 21
31.226621405961289
 31
0.0
  0
LINE
  5
30FE2
  8
0
 62
     0
 10
5.006152054595101
 20
30.698525048328179
 30
0.0
 11
4.9586671496477432
 21
30.693000956094959
 31
0.0
  0
LINE
  5
30FE3
  8
0
 62
     0
 10
4.923392214114318
 20
30.164904598461849
 30
0.0
 11
4.8759073091669602
 21
30.15938050622864
 31
0.0
  0
LINE
  5
30FE4
  8
0
 62
     0
 10
4.8406323736335199
 20
29.63128414859554
 30
0.0
 11
4.8024421800112691
 21
29.626841344040962
 31
0.0
  0
LINE
  5
30FE5
  8
0
 62
     0
 10
5.3024421800112691
 20
29.161015472518979
 30
0.0
 11
5.2802064041363881
 21
29.158428703587969
 31
0.0
  0
LINE
  5
30FE6
  8
0
 62
     0
 10
5.2449314686029478
 20
28.630332345954859
 30
0.0
 11
5.1974465636555891
 21
28.62480825372165
 31
0.0
  0
LINE
  5
30FE7
  8
0
 62
     0
 10
5.1621716281221648
 20
28.096711896088529
 30
0.0
 11
5.1146867231748061
 21
28.09118780385532
 31
0.0
  0
LINE
  5
30FE8
  8
0
 62
     0
 10
5.0794117876413694
 20
27.563091446222209
 30
0.0
 11
5.0319268826940089
 21
27.557567353989
 31
0.0
  0
LINE
  5
30FE9
  8
0
 62
     0
 10
4.9966519471605721
 20
27.02947099635589
 30
0.0
 11
4.9491670422132117
 21
27.023946904122681
 31
0.0
  0
LINE
  5
30FEA
  8
0
 62
     0
 10
4.9138921066797892
 20
26.49585054648956
 30
0.0
 11
4.8664072017324287
 21
26.490326454256358
 31
0.0
  0
LINE
  5
30FEB
  8
0
 62
     0
 10
4.817508661953922
 20
25.960645213037981
 30
0.0
 11
4.8024421800112522
 21
25.958892474226069
 31
0.0
  0
LINE
  5
30FEC
  8
0
 62
     0
 10
4.843233804503086
 20
33.25593814813702
 30
0.0
 11
4.8026455294736428
 21
33.294882395852632
 31
0.0
  0
LINE
  5
30FED
  8
0
 62
     0
 10
5.3024421800112611
 20
32.815329999209823
 30
0.0
 11
5.2897048298269507
 21
32.827551423265369
 31
0.0
  0
LINE
  5
30FEE
  8
0
 62
     0
 10
5.247533597691886
 20
32.254986651236933
 30
0.0
 11
5.2069453226624436
 21
32.293930898952539
 31
0.0
  0
LINE
  5
30FEF
  8
0
 62
     0
 10
5.164774090527362
 20
31.721366126924121
 30
0.0
 11
5.1241858154979187
 21
31.76031037463973
 31
0.0
  0
LINE
  5
30FF0
  8
0
 62
     0
 10
5.0820145833628541
 20
31.187745602611312
 30
0.0
 11
5.0414263083334108
 21
31.22668985032691
 31
0.0
  0
LINE
  5
30FF1
  8
0
 62
     0
 10
4.9992550761983487
 20
30.654125078298481
 30
0.0
 11
4.9586668011689081
 21
30.69306932601409
 31
0.0
  0
LINE
  5
30FF2
  8
0
 62
     0
 10
4.9164955690338381
 20
30.120504553985651
 30
0.0
 11
4.8759072940043948
 21
30.159448801701249
 31
0.0
  0
LINE
  5
30FF3
  8
0
 62
     0
 10
4.8337360618693372
 20
29.58688402967282
 30
0.0
 11
4.8024421800112611
 21
29.616910353437
 31
0.0
  0
LINE
  5
30FF4
  8
0
 62
     0
 10
5.302442180011254
 20
29.13716284399796
 30
0.0
 11
5.280207087193201
 21
29.15849730480117
 31
0.0
  0
LINE
  5
30FF5
  8
0
 62
     0
 10
5.2380358550581363
 20
28.585932532772748
 30
0.0
 11
5.197447580028693
 21
28.624876780488361
 31
0.0
  0
LINE
  5
30FF6
  8
0
 62
     0
 10
5.1552763478936372
 20
28.052312008459928
 30
0.0
 11
5.114688072864193
 21
28.091256256175541
 31
0.0
  0
LINE
  5
30FF7
  8
0
 62
     0
 10
5.0725168407291124
 20
27.518691484147119
 30
0.0
 11
5.0319285656996691
 21
27.557635731862721
 31
0.0
  0
LINE
  5
30FF8
  8
0
 62
     0
 10
4.9897573335646017
 20
26.985070959834282
 30
0.0
 11
4.9491690585351611
 21
27.024015207549891
 31
0.0
  0
LINE
  5
30FF9
  8
0
 62
     0
 10
4.9069978264000964
 20
26.451450435521469
 30
0.0
 11
4.8664095513706531
 21
26.490394683237071
 31
0.0
  0
LINE
  5
30FFA
  8
0
 62
     0
 10
4.808278984361861
 20
25.93314281352459
 30
0.0
 11
4.8024421800112629
 21
25.938743198225161
 31
0.0
  0
LINE
  5
30FFB
  8
0
 62
     0
 10
4.9642856656130201
 20
33.568504614211797
 30
0.0
 11
4.932944323169357
 21
33.562723333286428
 31
0.0
  0
LINE
  5
30FFC
  8
0
 62
     0
 10
4.9329093165020499
 20
33.209874550254831
 30
0.0
 11
4.9015679740583877
 21
33.204093269329448
 31
0.0
  0
LINE
  5
30FFD
  8
0
 62
     0
 10
5.3024421800112691
 20
33.27803925312125
 30
0.0
 11
5.277664094199829
 21
33.273468642429421
 31
0.0
  0
LINE
  5
30FFE
  8
0
 62
     0
 10
4.9015329673910886
 20
32.851244486297851
 30
0.0
 11
4.8701916249474282
 21
32.845463205372482
 31
0.0
  0
LINE
  5
30FFF
  8
0
 62
     0
 10
5.2776290875325298
 20
32.920619859397817
 30
0.0
 11
5.2462877450888676
 21
32.914838578472441
 31
0.0
  0
LINE
  5
31000
  8
0
 62
     0
 10
4.8701566182801352
 20
32.492614422340871
 30
0.0
 11
4.8388152758364731
 21
32.486833141415502
 31
0.0
  0
LINE
  5
31001
  8
0
 62
     0
 10
5.2462527384215747
 20
32.561989795440837
 30
0.0
 11
5.2149113959779134
 21
32.556208514515461
 31
0.0
  0
LINE
  5
31002
  8
0
 62
     0
 10
4.8387802691691499
 20
32.133984358383891
 30
0.0
 11
4.8074389267254878
 21
32.128203077458529
 31
0.0
  0
LINE
  5
31003
  8
0
 62
     0
 10
5.2148763893105921
 20
32.203359731483857
 30
0.0
 11
5.183535046866929
 21
32.197578450558481
 31
0.0
  0
LINE
  5
31004
  8
0
 62
     0
 10
4.8074039200581939
 20
31.775354294426918
 30
0.0
 11
4.8024421800112691
 21
31.77443904285014
 31
0.0
  0
LINE
  5
31005
  8
0
 62
     0
 10
5.1835000401996361
 20
31.844729667526881
 30
0.0
 11
5.152158697755973
 21
31.838948386601508
 31
0.0
  0
LINE
  5
31006
  8
0
 62
     0
 10
5.1521236910886659
 20
31.486099603569912
 30
0.0
 11
5.1207823486450037
 21
31.480318322644521
 31
0.0
  0
LINE
  5
31007
  8
0
 62
     0
 10
5.1207473419776974
 20
31.127469539612932
 30
0.0
 11
5.0894059995340353
 21
31.121688258687549
 31
0.0
  0
LINE
  5
31008
  8
0
 62
     0
 10
5.0893709928667423
 20
30.768839475655948
 30
0.0
 11
5.0580296504230802
 21
30.763058194730569
 31
0.0
  0
LINE
  5
31009
  8
0
 62
     0
 10
5.0579946437557846
 20
30.410209411698979
 30
0.0
 11
5.0266533013121242
 21
30.40442813077361
 31
0.0
  0
LINE
  5
3100A
  8
0
 62
     0
 10
5.026618294644801
 20
30.051579347741999
 30
0.0
 11
4.9952769522011389
 21
30.045798066816619
 31
0.0
  0
LINE
  5
3100B
  8
0
 62
     0
 10
4.9952419455338317
 20
29.692949283785019
 30
0.0
 11
4.9639006030901713
 21
29.687168002859639
 31
0.0
  0
LINE
  5
3100C
  8
0
 62
     0
 10
4.9638655964228757
 20
29.334319219828039
 30
0.0
 11
4.9325242539792153
 21
29.32853793890267
 31
0.0
  0
LINE
  5
3100D
  8
0
 62
     0
 10
4.9324892473119082
 20
28.975689155871049
 30
0.0
 11
4.901147904868246
 21
28.96990787494568
 31
0.0
  0
LINE
  5
3100E
  8
0
 62
     0
 10
5.3024421800112691
 20
29.043931345462891
 30
0.0
 11
5.2772440250096873
 21
29.039283248045649
 31
0.0
  0
LINE
  5
3100F
  8
0
 62
     0
 10
4.9011128982009611
 20
28.61705909191409
 30
0.0
 11
4.869771555757298
 21
28.611277810988721
 31
0.0
  0
LINE
  5
31010
  8
0
 62
     0
 10
5.2772090183424014
 20
28.686434465014049
 30
0.0
 11
5.2458676758987401
 21
28.68065318408868
 31
0.0
  0
LINE
  5
31011
  8
0
 62
     0
 10
4.8697365490900051
 20
28.25842902795711
 30
0.0
 11
4.838395206646342
 21
28.25264774703173
 31
0.0
  0
LINE
  5
31012
  8
0
 62
     0
 10
5.2458326692314463
 20
28.32780440105708
 30
0.0
 11
5.2144913267877842
 21
28.322023120131689
 31
0.0
  0
LINE
  5
31013
  8
0
 62
     0
 10
4.8383601999790207
 20
27.89979896400013
 30
0.0
 11
4.8070188575353603
 21
27.89401768307475
 31
0.0
  0
LINE
  5
31014
  8
0
 62
     0
 10
5.2144563201204619
 20
27.9691743371001
 30
0.0
 11
5.1831149776767997
 21
27.96339305617472
 31
0.0
  0
LINE
  5
31015
  8
0
 62
     0
 10
4.8069838508680647
 20
27.541168900043161
 30
0.0
 11
4.8024421800112691
 21
27.540331135191799
 31
0.0
  0
LINE
  5
31016
  8
0
 62
     0
 10
5.1830799710095059
 20
27.61054427314312
 30
0.0
 11
5.1517386285658437
 21
27.604762992217751
 31
0.0
  0
LINE
  5
31017
  8
0
 62
     0
 10
5.1517036218985499
 20
27.25191420918614
 30
0.0
 11
5.1203622794548878
 21
27.24613292826076
 31
0.0
  0
LINE
  5
31018
  8
0
 62
     0
 10
5.1203272727875682
 20
26.89328414522917
 30
0.0
 11
5.088985930343906
 21
26.887502864303791
 31
0.0
  0
LINE
  5
31019
  8
0
 62
     0
 10
5.0889509236766131
 20
26.53465408127219
 30
0.0
 11
5.05760958123295
 21
26.528872800346811
 31
0.0
  0
LINE
  5
3101A
  8
0
 62
     0
 10
5.0575745745656571
 20
26.176024017315211
 30
0.0
 11
5.026233232121994
 21
26.170242736389831
 31
0.0
  0
LINE
  5
3101B
  8
0
 62
     0
 10
5.2745821978952039
 20
28.656615590103709
 30
0.0
 11
5.2771968701776339
 21
28.686501431046452
 31
0.0
  0
LINE
  5
3101C
  8
0
 62
     0
 10
5.2432061305060467
 20
28.29798549879067
 30
0.0
 11
5.2458208027884767
 21
28.327871339733431
 31
0.0
  0
LINE
  5
3101D
  8
0
 62
     0
 10
5.2118300631168912
 20
27.939355407477638
 30
0.0
 11
5.2144447353993204
 21
27.969241248420399
 31
0.0
  0
LINE
  5
3101E
  8
0
 62
     0
 10
5.1804539957277331
 20
27.58072531616461
 30
0.0
 11
5.1830686680101641
 21
27.610611157107371
 31
0.0
  0
LINE
  5
3101F
  8
0
 62
     0
 10
5.149077928338575
 20
27.222095224851579
 30
0.0
 11
5.1516926006210051
 21
27.251981065794329
 31
0.0
  0
LINE
  5
31020
  8
0
 62
     0
 10
5.1177018609494178
 20
26.863465133538551
 30
0.0
 11
5.1203165332318479
 21
26.893350974481301
 31
0.0
  0
LINE
  5
31021
  8
0
 62
     0
 10
5.0863257935602624
 20
26.504835042225519
 30
0.0
 11
5.0889404658426924
 21
26.534720883168269
 31
0.0
  0
LINE
  5
31022
  8
0
 62
     0
 10
5.0549497261711052
 20
26.14620495091248
 30
0.0
 11
5.0575643984535352
 21
26.176090791855241
 31
0.0
  0
LINE
  5
31023
  8
0
 62
     0
 10
5.2749989397150907
 20
32.890801019053569
 30
0.0
 11
5.2776136119975208
 21
32.92068685999633
 31
0.0
  0
LINE
  5
31024
  8
0
 62
     0
 10
5.2436228723259353
 20
32.532170927740538
 30
0.0
 11
5.2462375446083636
 21
32.562056768683291
 31
0.0
  0
LINE
  5
31025
  8
0
 62
     0
 10
5.2122468049367772
 20
32.17354083642752
 30
0.0
 11
5.2148614772192081
 21
32.20342667737026
 31
0.0
  0
LINE
  5
31026
  8
0
 62
     0
 10
5.1808707375476191
 20
31.814910745114481
 30
0.0
 11
5.18348540983005
 21
31.844796586057232
 31
0.0
  0
LINE
  5
31027
  8
0
 62
     0
 10
5.1494946701584627
 20
31.45628065380145
 30
0.0
 11
5.1521093424408919
 21
31.4861664947442
 31
0.0
  0
LINE
  5
31028
  8
0
 62
     0
 10
5.1181186027693046
 20
31.097650562488411
 30
0.0
 11
5.1207332750517347
 21
31.127536403431169
 31
0.0
  0
LINE
  5
31029
  8
0
 62
     0
 10
5.0867425353801492
 20
30.73902047117539
 30
0.0
 11
5.0893572076625793
 21
30.768906312118141
 31
0.0
  0
LINE
  5
3102A
  8
0
 62
     0
 10
5.0553664679909911
 20
30.380390379862352
 30
0.0
 11
5.057981140273422
 21
30.410276220805109
 31
0.0
  0
LINE
  5
3102B
  8
0
 62
     0
 10
5.023990400601833
 20
30.02176028854932
 30
0.0
 11
5.0266050728842631
 21
30.051646129492081
 31
0.0
  0
LINE
  5
3102C
  8
0
 62
     0
 10
4.9926143332126758
 20
29.663130197236288
 30
0.0
 11
4.9952290054951058
 21
29.693016038179039
 31
0.0
  0
LINE
  5
3102D
  8
0
 62
     0
 10
4.9612382658235203
 20
29.30450010592326
 30
0.0
 11
4.9638529381059504
 21
29.334385946866011
 31
0.0
  0
LINE
  5
3102E
  8
0
 62
     0
 10
4.9298621984343631
 20
28.945870014610229
 30
0.0
 11
4.9324768707167932
 21
28.975755855552979
 31
0.0
  0
LINE
  5
3102F
  8
0
 62
     0
 10
4.898486131045205
 20
28.587239923297201
 30
0.0
 11
4.9011008033276351
 21
28.617125764239951
 31
0.0
  0
LINE
  5
31030
  8
0
 62
     0
 10
4.8671100636560469
 20
28.228609831984159
 30
0.0
 11
4.869724735938477
 21
28.25849567292693
 31
0.0
  0
LINE
  5
31031
  8
0
 62
     0
 10
4.8357339962668897
 20
27.86997974067113
 30
0.0
 11
4.8383486685493198
 21
27.899865581613881
 31
0.0
  0
LINE
  5
31032
  8
0
 62
     0
 10
4.8043579288777343
 20
27.511349649358099
 30
0.0
 11
4.8069726011601643
 21
27.541235490300849
 31
0.0
  0
LINE
  5
31033
  8
0
 62
     0
 10
4.9616550076433921
 20
33.538685534873103
 30
0.0
 11
4.9642696799258221
 21
33.56857137581585
 31
0.0
  0
LINE
  5
31034
  8
0
 62
     0
 10
4.9302789402542331
 20
33.180055443560072
 30
0.0
 11
4.932893612536664
 21
33.209941284502818
 31
0.0
  0
LINE
  5
31035
  8
0
 62
     0
 10
4.8989028728650759
 20
32.82142535224704
 30
0.0
 11
4.9015175451475059
 21
32.851311193189787
 31
0.0
  0
LINE
  5
31036
  8
0
 62
     0
 10
4.8675268054759204
 20
32.462795260934001
 30
0.0
 11
4.8701414777583487
 21
32.492681101876769
 31
0.0
  0
LINE
  5
31037
  8
0
 62
     0
 10
4.8361507380867632
 20
32.10416516962097
 30
0.0
 11
4.8387654103691924
 21
32.134051010563716
 31
0.0
  0
LINE
  5
31038
  8
0
 62
     0
 10
4.8047746706976051
 20
31.745535078307942
 30
0.0
 11
4.8073893429800361
 21
31.775420919250688
 31
0.0
  0
LINE
  5
31039
  8
0
 62
     0
 10
4.9616550192053284
 20
33.538685565191052
 30
0.0
 11
4.932928352588366
 21
33.562790100554288
 31
0.0
  0
LINE
  5
3103A
  8
0
 62
     0
 10
5.3024421800112611
 20
33.252731184248837
 30
0.0
 11
5.2776483519919051
 21
33.273535676195351
 31
0.0
  0
LINE
  5
3103B
  8
0
 62
     0
 10
4.9302789517140226
 20
33.18005547389069
 30
0.0
 11
4.9015522850970621
 21
33.204160009253918
 31
0.0
  0
LINE
  5
3103C
  8
0
 62
     0
 10
5.2749989511175617
 20
32.890801049531731
 30
0.0
 11
5.2462722845006011
 21
32.914905584894981
 31
0.0
  0
LINE
  5
3103D
  8
0
 62
     0
 10
4.8989028842227471
 20
32.821425382590277
 30
0.0
 11
4.8701762176057857
 21
32.84552991795352
 31
0.0
  0
LINE
  5
3103E
  8
0
 62
     0
 10
5.243622883626287
 20
32.53217095823134
 30
0.0
 11
5.2148962170093283
 21
32.556275493594583
 31
0.0
  0
LINE
  5
3103F
  8
0
 62
     0
 10
4.8675268167314414
 20
32.462795291289922
 30
0.0
 11
4.8388001501144791
 21
32.486899826653151
 31
0.0
  0
LINE
  5
31040
  8
0
 62
     0
 10
5.2122468161349822
 20
32.173540866930963
 30
0.0
 11
5.183520149518019
 21
32.197645402294221
 31
0.0
  0
LINE
  5
31041
  8
0
 62
     0
 10
4.8361507492401339
 20
32.104165199989552
 30
0.0
 11
4.8074240826231742
 21
32.128269735352809
 31
0.0
  0
LINE
  5
31042
  8
0
 62
     0
 10
5.1808707486436738
 20
31.814910775630612
 30
0.0
 11
5.1521440820267133
 21
31.839015310993851
 31
0.0
  0
LINE
  5
31043
  8
0
 62
     0
 10
4.8047746817488211
 20
31.745535108689172
 30
0.0
 11
4.8024421800112602
 21
31.747492310036868
 31
0.0
  0
LINE
  5
31044
  8
0
 62
     0
 10
5.1494946811523601
 20
31.456280684330231
 30
0.0
 11
5.1207680145353986
 21
31.480385219693471
 31
0.0
  0
LINE
  5
31045
  8
0
 62
     0
 10
5.1181186136611041
 20
31.09765059302984
 30
0.0
 11
5.0893919470441427
 21
31.12175512839308
 31
0.0
  0
LINE
  5
31046
  8
0
 62
     0
 10
5.0867425461697957
 20
30.739020501729449
 30
0.0
 11
5.058015879552836
 21
30.763125037092699
 31
0.0
  0
LINE
  5
31047
  8
0
 62
     0
 10
5.0553664786784944
 20
30.38039041042909
 30
0.0
 11
5.0266398120615321
 21
30.404494945792329
 31
0.0
  0
LINE
  5
31048
  8
0
 62
     0
 10
5.0239904111871843
 20
30.02176031912872
 30
0.0
 11
4.995263744570221
 21
30.04586485449197
 31
0.0
  0
LINE
  5
31049
  8
0
 62
     0
 10
4.9926143436959078
 20
29.663130227828329
 30
0.0
 11
4.9638876770789482
 21
29.687234763191569
 31
0.0
  0
LINE
  5
3104A
  8
0
 62
     0
 10
4.9612382762046039
 20
29.304500136527949
 30
0.0
 11
4.9325116095876442
 21
29.328604671891188
 31
0.0
  0
LINE
  5
3104B
  8
0
 62
     0
 10
5.302442180011254
 20
29.01819606668754
 30
0.0
 11
5.2772316089911842
 21
29.039350247532251
 31
0.0
  0
LINE
  5
3104C
  8
0
 62
     0
 10
4.929862208713307
 20
28.945870045227569
 30
0.0
 11
4.9011355420963474
 21
28.969974580590819
 31
0.0
  0
LINE
  5
3104D
  8
0
 62
     0
 10
5.274582208116847
 20
28.656615620868632
 30
0.0
 11
5.2458555414998873
 21
28.680720156231882
 31
0.0
  0
LINE
  5
3104E
  8
0
 62
     0
 10
4.8984861412220004
 20
28.58723995392722
 30
0.0
 11
4.8697594746050381
 21
28.61134448929047
 31
0.0
  0
LINE
  5
3104F
  8
0
 62
     0
 10
5.2432061406255404
 20
28.297985529568269
 30
0.0
 11
5.214479474008578
 21
28.322090064931508
 31
0.0
  0
LINE
  5
31050
  8
0
 62
     0
 10
4.867110073730716
 20
28.228609862626818
 30
0.0
 11
4.8383834071137528
 21
28.252714397990061
 31
0.0
  0
LINE
  5
31051
  8
0
 62
     0
 10
5.2118300731342551
 20
27.939355438267871
 30
0.0
 11
5.1831034065172927
 21
27.963459973631121
 31
0.0
  0
LINE
  5
31052
  8
0
 62
     0
 10
4.8357340062394201
 20
27.869979771326442
 30
0.0
 11
4.8070073396224569
 21
27.894084306689692
 31
0.0
  0
LINE
  5
31053
  8
0
 62
     0
 10
5.1804540056429591
 20
27.580725346967501
 30
0.0
 11
5.1517273390259968
 21
27.604829882330751
 31
0.0
  0
LINE
  5
31054
  8
0
 62
     0
 10
4.8043579387481117
 20
27.511349680026068
 30
0.0
 11
4.8024421800112549
 21
27.512957192475589
 31
0.0
  0
LINE
  5
31055
  8
0
 62
     0
 10
5.1490779381516516
 20
27.222095255667131
 30
0.0
 11
5.1203512715346911
 21
27.246199791030371
 31
0.0
  0
LINE
  5
31056
  8
0
 62
     0
 10
5.1177018706603503
 20
26.863465164366762
 30
0.0
 11
5.0889752040433871
 21
26.887569699730012
 31
0.0
  0
LINE
  5
31057
  8
0
 62
     0
 10
5.086325803169065
 20
26.504835073066371
 30
0.0
 11
5.0575991365521027
 21
26.52893960842961
 31
0.0
  0
LINE
  5
31058
  8
0
 62
     0
 10
5.0549497356777628
 20
26.14620498176599
 30
0.0
 11
5.0262230690608032
 21
26.17030951712923
 31
0.0
  0
ENDBLK
  5
3105A
  8
0
  0
BLOCK
  8
0
  2
*U40
 70
     1
 10
0.0
 20
0.0
 30
0.0
  3
*U40
  1

  0
SOLID
  5
31067
  8
HATCH
  6
CONTINUOUS
 10
9.1699421800112404
 20
32.898466902061656
 30
0.0
 11
9.1699421800112404
 21
32.898466902061656
 31
0.0
 12
9.3964421800112419
 22
32.898466902061656
 32
0.0
 13
9.3964421800112419
 23
32.898466902061656
 33
0.0
  0
SOLID
  5
31068
  8
HATCH
  6
CONTINUOUS
 10
9.1699421800112404
 20
32.898466902061656
 30
0.0
 11
9.1699421800112404
 21
32.897966902061647
 31
0.0
 12
9.3964421800112419
 22
32.897966902061647
 32
0.0
 13
9.3964421800112419
 23
32.897966902061647
 33
0.0
  0
SOLID
  5
31069
  8
HATCH
  6
CONTINUOUS
 10
-9.1699421800112404
 20
32.898466902061656
 30
0.0
 11
-9.3964421800112419
 21
32.898466902061656
 31
0.0
 12
-9.3964421800112419
 22
32.897966902061647
 32
0.0
 13
-9.3964421800112419
 23
32.897966902061647
 33
0.0
210
0.0
220
0.0
230
-1.0
  0
SOLID
  5
3106A
  8
HATCH
  6
CONTINUOUS
 10
5.302442180011246
 20
32.897966902061647
 30
0.0
 11
5.302442180011246
 21
32.897966902061647
 31
0.0
 12
5.3964421800112437
 22
32.897966902061647
 32
0.0
 13
5.3964421800112437
 23
32.897966902061647
 33
0.0
  0
SOLID
  5
3106B
  8
HATCH
  6
CONTINUOUS
 10
5.302442180011246
 20
32.897966902061647
 30
0.0
 11
5.302442180011246
 21
32.835966902061671
 31
0.0
 12
5.3964421800112437
 22
32.835966902061671
 32
0.0
 13
5.3964421800112437
 23
32.835966902061671
 33
0.0
  0
SOLID
  5
3106C
  8
HATCH
  6
CONTINUOUS
 10
-5.302442180011246
 20
32.897966902061647
 30
0.0
 11
-5.3964421800112437
 21
32.897966902061647
 31
0.0
 12
-5.3964421800112437
 22
32.835966902061671
 32
0.0
 13
-5.3964421800112437
 23
32.835966902061671
 33
0.0
210
0.0
220
0.0
230
-1.0
  0
SOLID
  5
3106D
  8
HATCH
  6
CONTINUOUS
 10
9.1699421800112404
 20
32.897966902061647
 30
0.0
 11
9.1699421800112386
 21
32.835966902061671
 31
0.0
 12
9.3964421800112419
 22
32.835966902061671
 32
0.0
 13
9.3964421800112419
 23
32.835966902061671
 33
0.0
  0
SOLID
  5
3106E
  8
HATCH
  6
CONTINUOUS
 10
-9.1699421800112404
 20
32.897966902061647
 30
0.0
 11
-9.3964421800112419
 21
32.897966902061647
 31
0.0
 12
-9.3964421800112419
 22
32.835966902061671
 32
0.0
 13
-9.3964421800112419
 23
32.835966902061671
 33
0.0
210
0.0
220
0.0
230
-1.0
  0
SOLID
  5
3106F
  8
HATCH
  6
CONTINUOUS
 10
9.2324421800112404
 20
32.835966902061671
 30
0.0
 11
9.2324421800112404
 21
32.835966902061671
 31
0.0
 12
9.3024421800112407
 22
32.835966902061671
 32
0.0
 13
9.3024421800112407
 23
32.835966902061671
 33
0.0
  0
SOLID
  5
31070
  8
HATCH
  6
CONTINUOUS
 10
5.302442180011246
 20
32.835966902061671
 30
0.0
 11
5.302442180011246
 21
32.774466902061647
 31
0.0
 12
5.3964421800112437
 22
32.774466902061647
 32
0.0
 13
5.3964421800112437
 23
32.774466902061647
 33
0.0
  0
SOLID
  5
31071
  8
HATCH
  6
CONTINUOUS
 10
-5.302442180011246
 20
32.835966902061671
 30
0.0
 11
-5.3964421800112437
 21
32.835966902061671
 31
0.0
 12
-5.3964421800112437
 22
32.774466902061647
 32
0.0
 13
-5.3964421800112437
 23
32.774466902061647
 33
0.0
210
0.0
220
0.0
230
-1.0
  0
SOLID
  5
31072
  8
HATCH
  6
CONTINUOUS
 10
9.1699421800112386
 20
32.835966902061671
 30
0.0
 11
9.1699421800112351
 21
32.774466902061647
 31
0.0
 12
9.2324421800112404
 22
32.774466902061647
 32
0.0
 13
9.2324421800112404
 23
32.774466902061647
 33
0.0
  0
SOLID
  5
31073
  8
HATCH
  6
CONTINUOUS
 10
-9.1699421800112386
 20
32.835966902061671
 30
0.0
 11
-9.2324421800112404
 21
32.835966902061671
 31
0.0
 12
-9.2324421800112404
 22
32.774466902061647
 32
0.0
 13
-9.2324421800112404
 23
32.774466902061647
 33
0.0
210
0.0
220
0.0
230
-1.0
  0
SOLID
  5
31074
  8
HATCH
  6
CONTINUOUS
 10
9.3024421800112407
 20
32.835966902061671
 30
0.0
 11
9.3024421800112407
 21
32.774466902061647
 31
0.0
 12
9.3964421800112419
 22
32.774466902061647
 32
0.0
 13
9.3964421800112419
 23
32.774466902061647
 33
0.0
  0
SOLID
  5
31075
  8
HATCH
  6
CONTINUOUS
 10
-9.3024421800112407
 20
32.835966902061671
 30
0.0
 11
-9.3964421800112419
 21
32.835966902061671
 31
0.0
 12
-9.3964421800112419
 22
32.774466902061647
 32
0.0
 13
-9.3964421800112419
 23
32.774466902061647
 33
0.0
210
0.0
220
0.0
230
-1.0
  0
SOLID
  5
31076
  8
HATCH
  6
CONTINUOUS
 10
9.1699421800112351
 20
32.774466902061647
 30
0.0
 11
9.1699421800112351
 21
32.774466902061647
 31
0.0
 12
9.2324421800112404
 22
32.774466902061647
 32
0.0
 13
9.2324421800112404
 23
32.774466902061647
 33
0.0
  0
SOLID
  5
31077
  8
HATCH
  6
CONTINUOUS
 10
5.302442180011246
 20
32.774466902061647
 30
0.0
 11
5.302442180011246
 21
32.024466902061661
 31
0.0
 12
5.3964421800112463
 22
32.024466902061661
 32
0.0
 13
5.3964421800112463
 23
32.024466902061661
 33
0.0
  0
SOLID
  5
31078
  8
HATCH
  6
CONTINUOUS
 10
-5.302442180011246
 20
32.774466902061647
 30
0.0
 11
-5.3964421800112437
 21
32.774466902061647
 31
0.0
 12
-5.3964421800112463
 22
32.024466902061661
 32
0.0
 13
-5.3964421800112463
 23
32.024466902061661
 33
0.0
210
0.0
220
0.0
230
-1.0
  0
SOLID
  5
31079
  8
HATCH
  6
CONTINUOUS
 10
9.3024421800112407
 20
32.774466902061647
 30
0.0
 11
9.3024421800112407
 21
32.024466902061661
 31
0.0
 12
9.3964421800112419
 22
32.024466902061661
 32
0.0
 13
9.3964421800112419
 23
32.024466902061661
 33
0.0
  0
SOLID
  5
3107A
  8
HATCH
  6
CONTINUOUS
 10
-9.3024421800112407
 20
32.774466902061647
 30
0.0
 11
-9.3964421800112419
 21
32.774466902061647
 31
0.0
 12
-9.3964421800112419
 22
32.024466902061661
 32
0.0
 13
-9.3964421800112419
 23
32.024466902061661
 33
0.0
210
0.0
220
0.0
230
-1.0
  0
SOLID
  5
3107B
  8
HATCH
  6
CONTINUOUS
 10
9.1699421800112351
 20
32.024466902061661
 30
0.0
 11
9.1699421800112351
 21
32.024466902061661
 31
0.0
 12
9.2324421800112404
 22
32.024466902061661
 32
0.0
 13
9.2324421800112404
 23
32.024466902061661
 33
0.0
  0
SOLID
  5
3107C
  8
HATCH
  6
CONTINUOUS
 10
5.302442180011246
 20
32.024466902061661
 30
0.0
 11
5.302442180011246
 21
31.961966902061661
 31
0.0
 12
5.3964421800112463
 22
31.961966902061661
 32
0.0
 13
5.3964421800112463
 23
31.961966902061661
 33
0.0
  0
SOLID
  5
3107D
  8
HATCH
  6
CONTINUOUS
 10
-5.302442180011246
 20
32.024466902061661
 30
0.0
 11
-5.3964421800112463
 21
32.024466902061661
 31
0.0
 12
-5.3964421800112463
 22
31.961966902061661
 32
0.0
 13
-5.3964421800112463
 23
31.961966902061661
 33
0.0
210
0.0
220
0.0
230
-1.0
  0
SOLID
  5
3107E
  8
HATCH
  6
CONTINUOUS
 10
9.1699421800112351
 20
32.024466902061661
 30
0.0
 11
9.1699421800112404
 21
31.961966902061661
 31
0.0
 12
9.2324421800112404
 22
31.961966902061661
 32
0.0
 13
9.2324421800112404
 23
31.961966902061661
 33
0.0
  0
SOLID
  5
3107F
  8
HATCH
  6
CONTINUOUS
 10
-9.1699421800112351
 20
32.024466902061661
 30
0.0
 11
-9.2324421800112404
 21
32.024466902061661
 31
0.0
 12
-9.2324421800112404
 22
31.961966902061661
 32
0.0
 13
-9.2324421800112404
 23
31.961966902061661
 33
0.0
210
0.0
220
0.0
230
-1.0
  0
SOLID
  5
31080
  8
HATCH
  6
CONTINUOUS
 10
9.3024421800112407
 20
32.024466902061661
 30
0.0
 11
9.3024421800112407
 21
31.961966902061661
 31
0.0
 12
9.3964421800112419
 22
31.961966902061661
 32
0.0
 13
9.3964421800112419
 23
31.961966902061661
 33
0.0
  0
SOLID
  5
31081
  8
HATCH
  6
CONTINUOUS
 10
-9.3024421800112407
 20
32.024466902061661
 30
0.0
 11
-9.3964421800112419
 21
32.024466902061661
 31
0.0
 12
-9.3964421800112419
 22
31.961966902061661
 32
0.0
 13
-9.3964421800112419
 23
31.961966902061661
 33
0.0
210
0.0
220
0.0
230
-1.0
  0
SOLID
  5
31082
  8
HATCH
  6
CONTINUOUS
 10
5.3964421800112463
 20
31.961966902061661
 30
0.0
 11
5.3964421800112463
 21
31.961966902061661
 31
0.0
 12
9.1699421800112404
 22
31.961966902061661
 32
0.0
 13
9.1699421800112404
 23
31.961966902061661
 33
0.0
  0
SOLID
  5
31083
  8
HATCH
  6
CONTINUOUS
 10
9.2324421800112404
 20
31.961966902061661
 30
0.0
 11
9.2324421800112404
 21
31.961966902061661
 31
0.0
 12
9.3024421800112407
 22
31.961966902061661
 32
0.0
 13
9.3024421800112407
 23
31.961966902061661
 33
0.0
  0
SOLID
  5
31084
  8
HATCH
  6
CONTINUOUS
 10
5.302442180011246
 20
31.961966902061661
 30
0.0
 11
5.302442180011246
 21
31.867966902061649
 31
0.0
 12
9.3964421800112419
 22
31.867966902061649
 32
0.0
 13
9.3964421800112419
 23
31.867966902061649
 33
0.0
  0
SOLID
  5
31085
  8
HATCH
  6
CONTINUOUS
 10
-5.302442180011246
 20
31.961966902061661
 30
0.0
 11
-9.3964421800112419
 21
31.961966902061661
 31
0.0
 12
-9.3964421800112419
 22
31.867966902061649
 32
0.0
 13
-9.3964421800112419
 23
31.867966902061649
 33
0.0
210
0.0
220
0.0
230
-1.0
  0
SOLID
  5
31086
  8
HATCH
  6
CONTINUOUS
 10
5.302442180011246
 20
31.867966902061649
 30
0.0
 11
5.302442180011246
 21
31.867966902061649
 31
0.0
 12
9.3024421800112407
 22
31.867966902061649
 32
0.0
 13
9.3024421800112407
 23
31.867966902061649
 33
0.0
  0
SOLID
  5
31087
  8
HATCH
  6
CONTINUOUS
 10
9.3024421800112407
 20
31.867966902061649
 30
0.0
 11
9.3024421800112442
 21
28.11663737819006
 31
0.0
 12
9.3964421800112454
 22
28.11663737819006
 32
0.0
 13
9.3964421800112454
 23
28.11663737819006
 33
0.0
  0
SOLID
  5
31088
  8
HATCH
  6
CONTINUOUS
 10
-9.3024421800112407
 20
31.867966902061649
 30
0.0
 11
-9.3964421800112419
 21
31.867966902061649
 31
0.0
 12
-9.3964421800112454
 22
28.11663737819006
 32
0.0
 13
-9.3964421800112454
 23
28.11663737819006
 33
0.0
210
0.0
220
0.0
230
-1.0
  0
SOLID
  5
31089
  8
HATCH
  6
CONTINUOUS
 10
9.3024421800112442
 20
28.11663737819006
 30
0.0
 11
9.3024421800112442
 21
28.113438681260249
 31
0.0
 12
9.3981037395380689
 22
28.113438681260249
 32
0.0
 13
9.3981037395380689
 23
28.113438681260249
 33
0.0
  0
SOLID
  5
3108A
  8
HATCH
  6
CONTINUOUS
 10
-9.3024421800112442
 20
28.11663737819006
 30
0.0
 11
-9.3964421800112454
 21
28.11663737819006
 31
0.0
 12
-9.3981037395380689
 22
28.113438681260249
 32
0.0
 13
-9.3981037395380689
 23
28.113438681260249
 33
0.0
210
0.0
220
0.0
230
-1.0
  0
SOLID
  5
3108B
  8
HATCH
  6
CONTINUOUS
 10
9.3024421800112442
 20
28.113438681260249
 30
0.0
 11
9.3024421800112442
 21
28.111196178775089
 31
0.0
 12
9.3992686049347984
 22
28.111196178775089
 32
0.0
 13
9.3992686049347984
 23
28.111196178775089
 33
0.0
  0
SOLID
  5
3108C
  8
HATCH
  6
CONTINUOUS
 10
-9.3024421800112442
 20
28.113438681260249
 30
0.0
 11
-9.3981037395380689
 21
28.113438681260249
 31
0.0
 12
-9.3992686049347984
 22
28.111196178775089
 32
0.0
 13
-9.3992686049347984
 23
28.111196178775089
 33
0.0
210
0.0
220
0.0
230
-1.0
  0
SOLID
  5
3108D
  8
HATCH
  6
CONTINUOUS
 10
9.4374806415496995
 20
28.113438681260249
 30
0.0
 11
9.4234612272316554
 21
28.111196178775089
 31
0.0
 12
9.4442369286006205
 22
28.111196178775089
 32
0.0
 13
9.4442369286006205
 23
28.111196178775089
 33
0.0
  0
SOLID
  5
3108E
  8
HATCH
  6
CONTINUOUS
 10
9.3024421800112442
 20
28.111196178775089
 30
0.0
 11
9.3024421800112442
 21
28.110888238170141
 31
0.0
 12
9.3994285643361035
 22
28.110888238170141
 32
0.0
 13
9.3994285643361035
 23
28.110888238170141
 33
0.0
  0
SOLID
  5
3108F
  8
HATCH
  6
CONTINUOUS
 10
-9.3024421800112442
 20
28.111196178775089
 30
0.0
 11
-9.3992686049347984
 21
28.111196178775089
 31
0.0
 12
-9.3994285643361035
 22
28.110888238170141
 32
0.0
 13
-9.3994285643361035
 23
28.110888238170141
 33
0.0
210
0.0
220
0.0
230
-1.0
  0
SOLID
  5
31090
  8
HATCH
  6
CONTINUOUS
 10
9.4234612272316554
 20
28.111196178775089
 30
0.0
 11
9.4224032287590909
 21
28.110888238170141
 31
0.0
 12
9.4451647024316081
 22
28.110888238170141
 32
0.0
 13
9.4451647024316081
 23
28.110888238170141
 33
0.0
  0
SOLID
  5
31091
  8
HATCH
  6
CONTINUOUS
 10
-9.4234612272316554
 20
28.111196178775089
 30
0.0
 11
-9.4442369286006205
 21
28.111196178775089
 31
0.0
 12
-9.4451647024316081
 22
28.110888238170141
 32
0.0
 13
-9.4451647024316081
 23
28.110888238170141
 33
0.0
210
0.0
220
0.0
230
-1.0
  0
SOLID
  5
31092
  8
HATCH
  6
CONTINUOUS
 10
9.3024421800112442
 20
28.110888238170141
 30
0.0
 11
9.3024421800112442
 21
28.108455967317109
 31
0.0
 12
9.4006920046983389
 22
28.108455967317109
 32
0.0
 13
9.4006920046983389
 23
28.108455967317109
 33
0.0
  0
SOLID
  5
31093
  8
HATCH
  6
CONTINUOUS
 10
-9.3024421800112442
 20
28.110888238170141
 30
0.0
 11
-9.3994285643361035
 21
28.110888238170141
 31
0.0
 12
-9.4006920046983389
 22
28.108455967317109
 32
0.0
 13
-9.4006920046983389
 23
28.108455967317109
 33
0.0
210
0.0
220
0.0
230
-1.0
  0
SOLID
  5
31094
  8
HATCH
  6
CONTINUOUS
 10
9.4224032287590909
 20
28.110888238170141
 30
0.0
 11
9.4140466210041431
 21
28.108455967317109
 31
0.0
 12
9.4462414921666156
 22
28.108455967317109
 32
0.0
 13
9.4462414921666156
 23
28.108455967317109
 33
0.0
  0
SOLID
  5
31095
  8
HATCH
  6
CONTINUOUS
 10
-9.4224032287590909
 20
28.110888238170141
 30
0.0
 11
-9.4451647024316081
 21
28.110888238170141
 31
0.0
 12
-9.4462414921666156
 22
28.108455967317109
 32
0.0
 13
-9.4462414921666156
 23
28.108455967317109
 33
0.0
210
0.0
220
0.0
230
-1.0
  0
SOLID
  5
31096
  8
HATCH
  6
CONTINUOUS
 10
9.3024421800112442
 20
28.108455967317109
 30
0.0
 11
9.3024421800112442
 21
28.107228468824768
 31
0.0
 12
9.4098292767854748
 22
28.107228468824768
 32
0.0
 13
9.4098292767854748
 23
28.107228468824768
 33
0.0
  0
SOLID
  5
31097
  8
HATCH
  6
CONTINUOUS
 10
-9.3024421800112442
 20
28.108455967317109
 30
0.0
 11
-9.4006920046983389
 21
28.108455967317109
 31
0.0
 12
-9.4098292767854748
 22
28.107228468824768
 32
0.0
 13
-9.4098292767854748
 23
28.107228468824768
 33
0.0
210
0.0
220
0.0
230
-1.0
  0
SOLID
  5
31098
  8
HATCH
  6
CONTINUOUS
 10
9.4140466210041431
 20
28.108455967317109
 30
0.0
 11
9.4098292767854748
 21
28.107228468824768
 31
0.0
 12
9.4467849175728134
 22
28.107228468824768
 32
0.0
 13
9.4467849175728134
 23
28.107228468824768
 33
0.0
  0
SOLID
  5
31099
  8
HATCH
  6
CONTINUOUS
 10
-9.4140466210041431
 20
28.108455967317109
 30
0.0
 11
-9.4462414921666156
 21
28.108455967317109
 31
0.0
 12
-9.4467849175728134
 22
28.107228468824768
 32
0.0
 13
-9.4467849175728134
 23
28.107228468824768
 33
0.0
210
0.0
220
0.0
230
-1.0
  0
SOLID
  5
3109A
  8
HATCH
  6
CONTINUOUS
 10
9.3024421800112442
 20
28.107228468824768
 30
0.0
 11
9.3024421800112442
 21
28.103485016418251
 31
0.0
 12
9.4484421800112433
 22
28.103485016418251
 32
0.0
 13
9.4484421800112433
 23
28.103485016418251
 33
0.0
  0
SOLID
  5
3109B
  8
HATCH
  6
CONTINUOUS
 10
-9.3024421800112442
 20
28.107228468824768
 30
0.0
 11
-9.4467849175728134
 21
28.107228468824768
 31
0.0
 12
-9.4484421800112433
 22
28.103485016418251
 32
0.0
 13
-9.4484421800112433
 23
28.103485016418251
 33
0.0
210
0.0
220
0.0
230
-1.0
  0
SOLID
  5
3109C
  8
HATCH
  6
CONTINUOUS
 10
9.3024421800112442
 20
28.103485016418251
 30
0.0
 11
9.3024421800112442
 21
28.061155136225089
 31
0.0
 12
9.4484421800112433
 22
28.061155136225089
 32
0.0
 13
9.4484421800112433
 23
28.061155136225089
 33
0.0
  0
SOLID
  5
3109D
  8
HATCH
  6
CONTINUOUS
 10
-9.3024421800112442
 20
28.103485016418251
 30
0.0
 11
-9.4484421800112433
 21
28.103485016418251
 31
0.0
 12
-9.4484421800112433
 22
28.061155136225089
 32
0.0
 13
-9.4484421800112433
 23
28.061155136225089
 33
0.0
210
0.0
220
0.0
230
-1.0
  0
SOLID
  5
3109E
  8
HATCH
  6
CONTINUOUS
 10
9.3024421800112442
 20
28.061155136225089
 30
0.0
 11
9.3024421800112442
 21
28.054679374966909
 31
0.0
 12
9.4460621876313358
 22
28.054679374966909
 32
0.0
 13
9.4460621876313358
 23
28.054679374966909
 33
0.0
  0
SOLID
  5
3109F
  8
HATCH
  6
CONTINUOUS
 10
-9.3024421800112442
 20
28.061155136225089
 30
0.0
 11
-9.4484421800112433
 21
28.061155136225089
 31
0.0
 12
-9.4460621876313358
 22
28.054679374966909
 32
0.0
 13
-9.4460621876313358
 23
28.054679374966909
 33
0.0
210
0.0
220
0.0
230
-1.0
  0
SOLID
  5
310A0
  8
HATCH
  6
CONTINUOUS
 10
9.3024421800112442
 20
28.054679374966909
 30
0.0
 11
9.3024421800112442
 21
28.051286066198472
 31
0.0
 12
9.4400550832370946
 22
28.051286066198472
 32
0.0
 13
9.4400550832370946
 23
28.051286066198472
 33
0.0
  0
SOLID
  5
310A1
  8
HATCH
  6
CONTINUOUS
 10
-9.3024421800112442
 20
28.054679374966909
 30
0.0
 11
-9.4460621876313358
 21
28.054679374966909
 31
0.0
 12
-9.4400550832370946
 22
28.051286066198472
 32
0.0
 13
-9.4400550832370946
 23
28.051286066198472
 33
0.0
210
0.0
220
0.0
230
-1.0
  0
SOLID
  5
310A2
  8
HATCH
  6
CONTINUOUS
 10
9.3024421800112442
 20
28.051286066198472
 30
0.0
 11
9.3024421800112442
 21
28.032558881916131
 31
0.0
 12
9.4079235071657283
 22
28.032558881916131
 32
0.0
 13
9.4079235071657283
 23
28.032558881916131
 33
0.0
  0
SOLID
  5
310A3
  8
HATCH
  6
CONTINUOUS
 10
-9.3024421800112442
 20
28.051286066198472
 30
0.0
 11
-9.4400550832370946
 21
28.051286066198472
 31
0.0
 12
-9.4079235071657283
 22
28.032558881916131
 32
0.0
 13
-9.4079235071657283
 23
28.032558881916131
 33
0.0
210
0.0
220
0.0
230
-1.0
  0
SOLID
  5
310A4
  8
HATCH
  6
CONTINUOUS
 10
9.3024421800112442
 20
28.032558881916131
 30
0.0
 11
9.3024421800112442
 21
27.999966902061651
 31
0.0
 12
9.3974222708753601
 22
27.999966902061651
 32
0.0
 13
9.3974222708753601
 23
27.999966902061651
 33
0.0
  0
SOLID
  5
310A5
  8
HATCH
  6
CONTINUOUS
 10
-9.3024421800112442
 20
28.032558881916131
 30
0.0
 11
-9.4079235071657283
 21
28.032558881916131
 31
0.0
 12
-9.3974222708753601
 22
27.999966902061651
 32
0.0
 13
-9.3974222708753601
 23
27.999966902061651
 33
0.0
210
0.0
220
0.0
230
-1.0
  0
SOLID
  5
310A6
  8
HATCH
  6
CONTINUOUS
 10
9.509630414174687
 20
27.999966902061651
 30
0.0
 11
9.509630414174687
 21
27.999966902061651
 31
0.0
 12
9.5519602943678397
 22
27.999966902061651
 32
0.0
 13
9.5519602943678397
 23
27.999966902061651
 33
0.0
  0
SOLID
  5
310A7
  8
HATCH
  6
CONTINUOUS
 10
9.3024421800112442
 20
27.999966902061651
 30
0.0
 11
9.3024421800112442
 21
27.997586909681669
 31
0.0
 12
9.3966554300003011
 22
27.997586909681669
 32
0.0
 13
9.3966554300003011
 23
27.997586909681669
 33
0.0
  0
SOLID
  5
310A8
  8
HATCH
  6
CONTINUOUS
 10
-9.3024421800112442
 20
27.999966902061651
 30
0.0
 11
-9.3974222708753601
 21
27.999966902061651
 31
0.0
 12
-9.3966554300003011
 22
27.997586909681669
 32
0.0
 13
-9.3966554300003011
 23
27.997586909681669
 33
0.0
210
0.0
220
0.0
230
-1.0
  0
SOLID
  5
310A9
  8
HATCH
  6
CONTINUOUS
 10
9.509630414174687
 20
27.999966902061651
 30
0.0
 11
9.5031546529166562
 21
27.997586909681669
 31
0.0
 12
9.5573362613819022
 22
27.997586909681669
 32
0.0
 13
9.5573362613819022
 23
27.997586909681669
 33
0.0
  0
SOLID
  5
310AA
  8
HATCH
  6
CONTINUOUS
 10
-9.509630414174687
 20
27.999966902061651
 30
0.0
 11
-9.5519602943678397
 21
27.999966902061651
 31
0.0
 12
-9.5573362613819022
 22
27.997586909681669
 32
0.0
 13
-9.5573362613819022
 23
27.997586909681669
 33
0.0
210
0.0
220
0.0
230
-1.0
  0
SOLID
  5
310AB
  8
HATCH
  6
CONTINUOUS
 10
9.3024421800112442
 20
27.997586909681669
 30
0.0
 11
9.3024421800112442
 21
27.99716030195286
 31
0.0
 12
9.3965179756761543
 22
27.99716030195286
 32
0.0
 13
9.3965179756761543
 23
27.99716030195286
 33
0.0
  0
SOLID
  5
310AC
  8
HATCH
  6
CONTINUOUS
 10
-9.3024421800112442
 20
27.997586909681669
 30
0.0
 11
-9.3966554300003011
 21
27.997586909681669
 31
0.0
 12
-9.3965179756761543
 22
27.99716030195286
 32
0.0
 13
-9.3965179756761543
 23
27.99716030195286
 33
0.0
210
0.0
220
0.0
230
-1.0
  0
SOLID
  5
310AD
  8
HATCH
  6
CONTINUOUS
 10
9.5031546529166562
 20
27.997586909681669
 30
0.0
 11
9.5029136696322407
 21
27.99716030195286
 31
0.0
 12
9.5582998901301544
 22
27.99716030195286
 32
0.0
 13
9.5582998901301544
 23
27.99716030195286
 33
0.0
  0
SOLID
  5
310AE
  8
HATCH
  6
CONTINUOUS
 10
-9.5031546529166562
 20
27.997586909681669
 30
0.0
 11
-9.5573362613819022
 21
27.997586909681669
 31
0.0
 12
-9.5582998901301544
 22
27.99716030195286
 32
0.0
 13
-9.5582998901301544
 23
27.99716030195286
 33
0.0
210
0.0
220
0.0
230
-1.0
  0
SOLID
  5
310AF
  8
HATCH
  6
CONTINUOUS
 10
9.3024421800112442
 20
27.99716030195286
 30
0.0
 11
9.3024421800112442
 21
27.99668942448206
 31
0.0
 12
9.3967280865040301
 22
27.99668942448206
 32
0.0
 13
9.3967280865040301
 23
27.99668942448206
 33
0.0
  0
SOLID
  5
310B0
  8
HATCH
  6
CONTINUOUS
 10
-9.3024421800112442
 20
27.99716030195286
 30
0.0
 11
-9.3965179756761543
 21
27.99716030195286
 31
0.0
 12
-9.3967280865040301
 22
27.99668942448206
 32
0.0
 13
-9.3967280865040301
 23
27.99668942448206
 33
0.0
210
0.0
220
0.0
230
-1.0
  0
SOLID
  5
310B1
  8
HATCH
  6
CONTINUOUS
 10
9.5029136696322407
 20
27.99716030195286
 30
0.0
 11
9.5026476791407166
 21
27.99668942448206
 31
0.0
 12
9.5593635161198716
 22
27.99668942448206
 32
0.0
 13
9.5593635161198716
 23
27.99668942448206
 33
0.0
  0
SOLID
  5
310B2
  8
HATCH
  6
CONTINUOUS
 10
-9.5029136696322407
 20
27.99716030195286
 30
0.0
 11
-9.5582998901301544
 21
27.99716030195286
 31
0.0
 12
-9.5593635161198716
 22
27.99668942448206
 32
0.0
 13
-9.5593635161198716
 23
27.99668942448206
 33
0.0
210
0.0
220
0.0
230
-1.0
  0
SOLID
  5
310B3
  8
HATCH
  6
CONTINUOUS
 10
9.3024421800112442
 20
27.99668942448206
 30
0.0
 11
9.3024421800112442
 21
27.991579805287451
 31
0.0
 12
9.3990080561048135
 22
27.991579805287451
 32
0.0
 13
9.3990080561048135
 23
27.991579805287451
 33
0.0
  0
SOLID
  5
310B4
  8
HATCH
  6
CONTINUOUS
 10
-9.3024421800112442
 20
27.99668942448206
 30
0.0
 11
-9.3967280865040301
 21
27.99668942448206
 31
0.0
 12
-9.3990080561048135
 22
27.991579805287451
 32
0.0
 13
-9.3990080561048135
 23
27.991579805287451
 33
0.0
210
0.0
220
0.0
230
-1.0
  0
SOLID
  5
310B5
  8
HATCH
  6
CONTINUOUS
 10
9.5026476791407166
 20
27.99668942448206
 30
0.0
 11
9.4997613441483768
 21
27.991579805287451
 31
0.0
 12
9.5610594674103169
 22
27.991579805287451
 32
0.0
 13
9.5610594674103169
 23
27.991579805287451
 33
0.0
  0
SOLID
  5
310B6
  8
HATCH
  6
CONTINUOUS
 10
-9.5026476791407166
 20
27.99668942448206
 30
0.0
 11
-9.5593635161198716
 21
27.99668942448206
 31
0.0
 12
-9.5610594674103169
 22
27.991579805287451
 32
0.0
 13
-9.5610594674103169
 23
27.991579805287451
 33
0.0
210
0.0
220
0.0
230
-1.0
  0
SOLID
  5
310B7
  8
HATCH
  6
CONTINUOUS
 10
9.3024421800112442
 20
27.991579805287451
 30
0.0
 11
9.3024421800112442
 21
27.989005363600089
 31
0.0
 12
9.4001568009647691
 22
27.989005363600089
 32
0.0
 13
9.4001568009647691
 23
27.989005363600089
 33
0.0
  0
SOLID
  5
310B8
  8
HATCH
  6
CONTINUOUS
 10
-9.3024421800112442
 20
27.991579805287451
 30
0.0
 11
-9.3990080561048135
 21
27.991579805287451
 31
0.0
 12
-9.4001568009647691
 22
27.989005363600089
 32
0.0
 13
-9.4001568009647691
 23
27.989005363600089
 33
0.0
210
0.0
220
0.0
230
-1.0
  0
SOLID
  5
310B9
  8
HATCH
  6
CONTINUOUS
 10
9.4997613441483768
 20
27.991579805287451
 30
0.0
 11
9.4982608872832728
 21
27.989005363600089
 31
0.0
 12
9.5619139592101092
 22
27.989005363600089
 32
0.0
 13
9.5619139592101092
 23
27.989005363600089
 33
0.0
  0
SOLID
  5
310BA
  8
HATCH
  6
CONTINUOUS
 10
-9.4997613441483768
 20
27.991579805287451
 30
0.0
 11
-9.5610594674103169
 21
27.991579805287451
 31
0.0
 12
-9.5619139592101092
 22
27.989005363600089
 32
0.0
 13
-9.5619139592101092
 23
27.989005363600089
 33
0.0
210
0.0
220
0.0
230
-1.0
  0
SOLID
  5
310BB
  8
HATCH
  6
CONTINUOUS
 10
9.3024421800112442
 20
27.989005363600089
 30
0.0
 11
9.3024421800112442
 21
27.981575444935419
 31
0.0
 12
9.4034721143074105
 22
27.981575444935419
 32
0.0
 13
9.4034721143074105
 23
27.981575444935419
 33
0.0
  0
SOLID
  5
310BC
  8
HATCH
  6
CONTINUOUS
 10
-9.3024421800112442
 20
27.989005363600089
 30
0.0
 11
-9.4001568009647691
 21
27.989005363600089
 31
0.0
 12
-9.4034721143074105
 22
27.981575444935419
 32
0.0
 13
-9.4034721143074105
 23
27.981575444935419
 33
0.0
210
0.0
220
0.0
230
-1.0
  0
SOLID
  5
310BD
  8
HATCH
  6
CONTINUOUS
 10
9.4982608872832728
 20
27.989005363600089
 30
0.0
 11
9.4939305221706061
 21
27.981575444935419
 31
0.0
 12
9.5609488656116461
 22
27.981575444935419
 32
0.0
 13
9.5609488656116461
 23
27.981575444935419
 33
0.0
  0
SOLID
  5
310BE
  8
HATCH
  6
CONTINUOUS
 10
-9.4982608872832728
 20
27.989005363600089
 30
0.0
 11
-9.5619139592101092
 21
27.989005363600089
 31
0.0
 12
-9.5609488656116461
 22
27.981575444935419
 32
0.0
 13
-9.5609488656116461
 23
27.981575444935419
 33
0.0
210
0.0
220
0.0
230
-1.0
  0
SOLID
  5
310BF
  8
HATCH
  6
CONTINUOUS
 10
9.3024421800112442
 20
27.981575444935419
 30
0.0
 11
9.3024421800112442
 21
27.974224966577768
 31
0.0
 12
9.4067519804908422
 22
27.974224966577768
 32
0.0
 13
9.4067519804908422
 23
27.974224966577768
 33
0.0
  0
SOLID
  5
310C0
  8
HATCH
  6
CONTINUOUS
 10
-9.3024421800112442
 20
27.981575444935419
 30
0.0
 11
-9.4034721143074105
 21
27.981575444935419
 31
0.0
 12
-9.4067519804908422
 22
27.974224966577768
 32
0.0
 13
-9.4067519804908422
 23
27.974224966577768
 33
0.0
210
0.0
220
0.0
230
-1.0
  0
SOLID
  5
310C1
  8
HATCH
  6
CONTINUOUS
 10
9.4939305221706061
 20
27.981575444935419
 30
0.0
 11
9.4896464570982957
 21
27.974224966577768
 31
0.0
 12
9.5594978091237301
 22
27.974224966577768
 32
0.0
 13
9.5594978091237301
 23
27.974224966577768
 33
0.0
  0
SOLID
  5
310C2
  8
HATCH
  6
CONTINUOUS
 10
-9.4939305221706061
 20
27.981575444935419
 30
0.0
 11
-9.5609488656116461
 21
27.981575444935419
 31
0.0
 12
-9.5594978091237301
 22
27.974224966577768
 32
0.0
 13
-9.5594978091237301
 23
27.974224966577768
 33
0.0
210
0.0
220
0.0
230
-1.0
  0
SOLID
  5
310C3
  8
HATCH
  6
CONTINUOUS
 10
9.3024421800112442
 20
27.974224966577768
 30
0.0
 11
9.3024421800112442
 21
27.965745191893269
 31
0.0
 12
9.4105357514071848
 22
27.965745191893269
 32
0.0
 13
9.4105357514071848
 23
27.965745191893269
 33
0.0
  0
SOLID
  5
310C4
  8
HATCH
  6
CONTINUOUS
 10
-9.3024421800112442
 20
27.974224966577768
 30
0.0
 11
-9.4067519804908422
 21
27.974224966577768
 31
0.0
 12
-9.4105357514071848
 22
27.965745191893269
 32
0.0
 13
-9.4105357514071848
 23
27.965745191893269
 33
0.0
210
0.0
220
0.0
230
-1.0
  0
SOLID
  5
310C5
  8
HATCH
  6
CONTINUOUS
 10
9.4896464570982957
 20
27.974224966577768
 30
0.0
 11
9.484704206433868
 21
27.965745191893269
 31
0.0
 12
9.5614107173631062
 22
27.965745191893269
 32
0.0
 13
9.5614107173631062
 23
27.965745191893269
 33
0.0
  0
SOLID
  5
310C6
  8
HATCH
  6
CONTINUOUS
 10
-9.4896464570982957
 20
27.974224966577768
 30
0.0
 11
-9.5594978091237301
 21
27.974224966577768
 31
0.0
 12
-9.5614107173631062
 22
27.965745191893269
 32
0.0
 13
-9.5614107173631062
 23
27.965745191893269
 33
0.0
210
0.0
220
0.0
230
-1.0
  0
SOLID
  5
310C7
  8
HATCH
  6
CONTINUOUS
 10
9.3024421800112442
 20
27.965745191893269
 30
0.0
 11
9.3024421800112442
 21
27.963197349439611
 31
0.0
 12
9.411672627389656
 22
27.963197349439611
 32
0.0
 13
9.411672627389656
 23
27.963197349439611
 33
0.0
  0
SOLID
  5
310C8
  8
HATCH
  6
CONTINUOUS
 10
-9.3024421800112442
 20
27.965745191893269
 30
0.0
 11
-9.4105357514071848
 21
27.965745191893269
 31
0.0
 12
-9.411672627389656
 22
27.963197349439611
 32
0.0
 13
-9.411672627389656
 23
27.963197349439611
 33
0.0
210
0.0
220
0.0
230
-1.0
  0
SOLID
  5
310C9
  8
HATCH
  6
CONTINUOUS
 10
9.484704206433868
 20
27.965745191893269
 30
0.0
 11
9.483219252348654
 21
27.963197349439611
 31
0.0
 12
9.5666899798265206
 22
27.963197349439611
 32
0.0
 13
9.5666899798265206
 23
27.963197349439611
 33
0.0
  0
SOLID
  5
310CA
  8
HATCH
  6
CONTINUOUS
 10
-9.484704206433868
 20
27.965745191893269
 30
0.0
 11
-9.5614107173631062
 21
27.965745191893269
 31
0.0
 12
-9.5666899798265206
 22
27.963197349439611
 32
0.0
 13
-9.5666899798265206
 23
27.963197349439611
 33
0.0
210
0.0
220
0.0
230
-1.0
  0
SOLID
  5
310CB
  8
HATCH
  6
CONTINUOUS
 10
9.3024421800112442
 20
27.963197349439611
 30
0.0
 11
9.3024421800112442
 21
27.961966902061661
 31
0.0
 12
9.4144301718491494
 22
27.961966902061661
 32
0.0
 13
9.4144301718491494
 23
27.961966902061661
 33
0.0
  0
SOLID
  5
310CC
  8
HATCH
  6
CONTINUOUS
 10
-9.3024421800112442
 20
27.963197349439611
 30
0.0
 11
-9.411672627389656
 21
27.963197349439611
 31
0.0
 12
-9.4144301718491494
 22
27.961966902061661
 32
0.0
 13
-9.4144301718491494
 23
27.961966902061661
 33
0.0
210
0.0
220
0.0
230
-1.0
  0
SOLID
  5
310CD
  8
HATCH
  6
CONTINUOUS
 10
9.483219252348654
 20
27.963197349439611
 30
0.0
 11
9.4825021130852303
 21
27.961966902061661
 31
0.0
 12
9.5692395309756968
 22
27.961966902061661
 32
0.0
 13
9.5692395309756968
 23
27.961966902061661
 33
0.0
  0
SOLID
  5
310CE
  8
HATCH
  6
CONTINUOUS
 10
-9.483219252348654
 20
27.963197349439611
 30
0.0
 11
-9.5666899798265206
 21
27.963197349439611
 31
0.0
 12
-9.5692395309756968
 22
27.961966902061661
 32
0.0
 13
-9.5692395309756968
 23
27.961966902061661
 33
0.0
210
0.0
220
0.0
230
-1.0
  0
SOLID
  5
310CF
  8
HATCH
  6
CONTINUOUS
 10
9.5692395309756968
 20
27.961966902061661
 30
0.0
 11
9.5692395309756968
 21
27.961966902061661
 31
0.0
 12
10.302442180011241
 22
27.961966902061661
 32
0.0
 13
10.302442180011241
 23
27.961966902061661
 33
0.0
  0
SOLID
  5
310D0
  8
HATCH
  6
CONTINUOUS
 10
9.3024421800112442
 20
27.961966902061661
 30
0.0
 11
9.3024421800112442
 21
27.959448229216001
 31
0.0
 12
9.4200747467210526
 22
27.959448229216001
 32
0.0
 13
9.4200747467210526
 23
27.959448229216001
 33
0.0
  0
SOLID
  5
310D1
  8
HATCH
  6
CONTINUOUS
 10
-9.3024421800112442
 20
27.961966902061661
 30
0.0
 11
-9.4144301718491494
 21
27.961966902061661
 31
0.0
 12
-9.4200747467210526
 22
27.959448229216001
 32
0.0
 13
-9.4200747467210526
 23
27.959448229216001
 33
0.0
210
0.0
220
0.0
230
-1.0
  0
SOLID
  5
310D2
  8
HATCH
  6
CONTINUOUS
 10
9.4825021130852303
 20
27.961966902061661
 30
0.0
 11
9.48103415986618
 21
27.959448229216001
 31
0.0
 12
10.302442180011241
 22
27.959448229216001
 32
0.0
 13
10.302442180011241
 23
27.959448229216001
 33
0.0
  0
SOLID
  5
310D3
  8
HATCH
  6
CONTINUOUS
 10
-9.4825021130852303
 20
27.961966902061661
 30
0.0
 11
-10.302442180011241
 21
27.961966902061661
 31
0.0
 12
-10.302442180011241
 22
27.959448229216001
 32
0.0
 13
-10.302442180011241
 23
27.959448229216001
 33
0.0
210
0.0
220
0.0
230
-1.0
  0
SOLID
  5
310D4
  8
HATCH
  6
CONTINUOUS
 10
9.3024421800112442
 20
27.959448229216001
 30
0.0
 11
9.3024421800112442
 21
27.948042697726262
 31
0.0
 12
9.4456355799029765
 22
27.948042697726262
 32
0.0
 13
9.4456355799029765
 23
27.948042697726262
 33
0.0
  0
SOLID
  5
310D5
  8
HATCH
  6
CONTINUOUS
 10
-9.3024421800112442
 20
27.959448229216001
 30
0.0
 11
-9.4200747467210526
 21
27.959448229216001
 31
0.0
 12
-9.4456355799029765
 22
27.948042697726262
 32
0.0
 13
-9.4456355799029765
 23
27.948042697726262
 33
0.0
210
0.0
220
0.0
230
-1.0
  0
SOLID
  5
310D6
  8
HATCH
  6
CONTINUOUS
 10
9.48103415986618
 20
27.959448229216001
 30
0.0
 11
9.4456355799029765
 21
27.948042697726262
 31
0.0
 12
10.302442180011241
 22
27.948042697726262
 32
0.0
 13
10.302442180011241
 23
27.948042697726262
 33
0.0
  0
SOLID
  5
310D7
  8
HATCH
  6
CONTINUOUS
 10
-9.48103415986618
 20
27.959448229216001
 30
0.0
 11
-10.302442180011241
 21
27.959448229216001
 31
0.0
 12
-10.302442180011241
 22
27.948042697726262
 32
0.0
 13
-10.302442180011241
 23
27.948042697726262
 33
0.0
210
0.0
220
0.0
230
-1.0
  0
SOLID
  5
310D8
  8
HATCH
  6
CONTINUOUS
 10
9.3024421800112442
 20
27.948042697726262
 30
0.0
 11
9.3024421800112442
 21
27.867966902061649
 31
0.0
 12
10.302442180011241
 22
27.867966902061649
 32
0.0
 13
10.302442180011241
 23
27.867966902061649
 33
0.0
  0
SOLID
  5
310D9
  8
HATCH
  6
CONTINUOUS
 10
-9.3024421800112442
 20
27.948042697726262
 30
0.0
 11
-10.302442180011241
 21
27.948042697726262
 31
0.0
 12
-10.302442180011241
 22
27.867966902061649
 32
0.0
 13
-10.302442180011241
 23
27.867966902061649
 33
0.0
210
0.0
220
0.0
230
-1.0
  0
SOLID
  5
310DA
  8
HATCH
  6
CONTINUOUS
 10
9.3024421800112442
 20
27.867966902061649
 30
0.0
 11
9.3024421800112442
 21
27.867966902061649
 31
0.0
 12
10.302442180011241
 22
27.867966902061649
 32
0.0
 13
10.302442180011241
 23
27.867966902061649
 33
0.0
  0
LINE
  5
310DB
  8
HATCH
  6
CONTINUOUS
 10
9.1699421800112404
 20
32.898466902061656
 30
0.0
 11
9.3964421800112419
 21
32.898466902061656
 31
0.0
  0
LINE
  5
310DC
  8
HATCH
  6
CONTINUOUS
 10
9.1699421800112404
 20
32.898466902061656
 30
0.0
 11
9.1699421800112404
 21
32.897966902061647
 31
0.0
  0
LINE
  5
310DD
  8
HATCH
  6
CONTINUOUS
 10
9.3964421800112419
 20
32.898466902061656
 30
0.0
 11
9.3964421800112419
 21
32.897966902061647
 31
0.0
  0
LINE
  5
310DE
  8
HATCH
  6
CONTINUOUS
 10
5.302442180011246
 20
32.897966902061647
 30
0.0
 11
5.3964421800112437
 21
32.897966902061647
 31
0.0
  0
LINE
  5
310DF
  8
HATCH
  6
CONTINUOUS
 10
5.302442180011246
 20
32.897966902061647
 30
0.0
 11
5.302442180011246
 21
32.835966902061671
 31
0.0
  0
LINE
  5
310E0
  8
HATCH
  6
CONTINUOUS
 10
5.3964421800112437
 20
32.897966902061647
 30
0.0
 11
5.3964421800112437
 21
32.835966902061671
 31
0.0
  0
LINE
  5
310E1
  8
HATCH
  6
CONTINUOUS
 10
9.1699421800112404
 20
32.897966902061647
 30
0.0
 11
9.1699421800112386
 21
32.835966902061671
 31
0.0
  0
LINE
  5
310E2
  8
HATCH
  6
CONTINUOUS
 10
9.3964421800112419
 20
32.897966902061647
 30
0.0
 11
9.3964421800112419
 21
32.835966902061671
 31
0.0
  0
LINE
  5
310E3
  8
HATCH
  6
CONTINUOUS
 10
9.2324421800112404
 20
32.835966902061671
 30
0.0
 11
9.3024421800112407
 21
32.835966902061671
 31
0.0
  0
LINE
  5
310E4
  8
HATCH
  6
CONTINUOUS
 10
5.302442180011246
 20
32.835966902061671
 30
0.0
 11
5.302442180011246
 21
32.774466902061647
 31
0.0
  0
LINE
  5
310E5
  8
HATCH
  6
CONTINUOUS
 10
5.3964421800112437
 20
32.835966902061671
 30
0.0
 11
5.3964421800112437
 21
32.774466902061647
 31
0.0
  0
LINE
  5
310E6
  8
HATCH
  6
CONTINUOUS
 10
9.1699421800112386
 20
32.835966902061671
 30
0.0
 11
9.1699421800112351
 21
32.774466902061647
 31
0.0
  0
LINE
  5
310E7
  8
HATCH
  6
CONTINUOUS
 10
9.2324421800112404
 20
32.835966902061671
 30
0.0
 11
9.2324421800112404
 21
32.774466902061647
 31
0.0
  0
LINE
  5
310E8
  8
HATCH
  6
CONTINUOUS
 10
9.3024421800112407
 20
32.835966902061671
 30
0.0
 11
9.3024421800112407
 21
32.774466902061647
 31
0.0
  0
LINE
  5
310E9
  8
HATCH
  6
CONTINUOUS
 10
9.3964421800112419
 20
32.835966902061671
 30
0.0
 11
9.3964421800112419
 21
32.774466902061647
 31
0.0
  0
LINE
  5
310EA
  8
HATCH
  6
CONTINUOUS
 10
9.1699421800112351
 20
32.774466902061647
 30
0.0
 11
9.2324421800112404
 21
32.774466902061647
 31
0.0
  0
LINE
  5
310EB
  8
HATCH
  6
CONTINUOUS
 10
5.302442180011246
 20
32.774466902061647
 30
0.0
 11
5.302442180011246
 21
32.024466902061661
 31
0.0
  0
LINE
  5
310EC
  8
HATCH
  6
CONTINUOUS
 10
5.3964421800112437
 20
32.774466902061647
 30
0.0
 11
5.3964421800112463
 21
32.024466902061661
 31
0.0
  0
LINE
  5
310ED
  8
HATCH
  6
CONTINUOUS
 10
9.3024421800112407
 20
32.774466902061647
 30
0.0
 11
9.3024421800112407
 21
32.024466902061661
 31
0.0
  0
LINE
  5
310EE
  8
HATCH
  6
CONTINUOUS
 10
9.3964421800112419
 20
32.774466902061647
 30
0.0
 11
9.3964421800112419
 21
32.024466902061661
 31
0.0
  0
LINE
  5
310EF
  8
HATCH
  6
CONTINUOUS
 10
9.1699421800112351
 20
32.024466902061661
 30
0.0
 11
9.2324421800112404
 21
32.024466902061661
 31
0.0
  0
LINE
  5
310F0
  8
HATCH
  6
CONTINUOUS
 10
5.302442180011246
 20
32.024466902061661
 30
0.0
 11
5.302442180011246
 21
31.961966902061661
 31
0.0
  0
LINE
  5
310F1
  8
HATCH
  6
CONTINUOUS
 10
5.3964421800112463
 20
32.024466902061661
 30
0.0
 11
5.3964421800112463
 21
31.961966902061661
 31
0.0
  0
LINE
  5
310F2
  8
HATCH
  6
CONTINUOUS
 10
9.1699421800112351
 20
32.024466902061661
 30
0.0
 11
9.1699421800112404
 21
31.961966902061661
 31
0.0
  0
LINE
  5
310F3
  8
HATCH
  6
CONTINUOUS
 10
9.2324421800112404
 20
32.024466902061661
 30
0.0
 11
9.2324421800112404
 21
31.961966902061661
 31
0.0
  0
LINE
  5
310F4
  8
HATCH
  6
CONTINUOUS
 10
9.3024421800112407
 20
32.024466902061661
 30
0.0
 11
9.3024421800112407
 21
31.961966902061661
 31
0.0
  0
LINE
  5
310F5
  8
HATCH
  6
CONTINUOUS
 10
9.3964421800112419
 20
32.024466902061661
 30
0.0
 11
9.3964421800112419
 21
31.961966902061661
 31
0.0
  0
LINE
  5
310F6
  8
HATCH
  6
CONTINUOUS
 10
5.3964421800112463
 20
31.961966902061661
 30
0.0
 11
9.1699421800112404
 21
31.961966902061661
 31
0.0
  0
LINE
  5
310F7
  8
HATCH
  6
CONTINUOUS
 10
9.2324421800112404
 20
31.961966902061661
 30
0.0
 11
9.3024421800112407
 21
31.961966902061661
 31
0.0
  0
LINE
  5
310F8
  8
HATCH
  6
CONTINUOUS
 10
5.302442180011246
 20
31.961966902061661
 30
0.0
 11
5.302442180011246
 21
31.867966902061649
 31
0.0
  0
LINE
  5
310F9
  8
HATCH
  6
CONTINUOUS
 10
9.3964421800112419
 20
31.961966902061661
 30
0.0
 11
9.3964421800112419
 21
31.867966902061649
 31
0.0
  0
LINE
  5
310FA
  8
HATCH
  6
CONTINUOUS
 10
5.302442180011246
 20
31.867966902061649
 30
0.0
 11
9.3024421800112407
 21
31.867966902061649
 31
0.0
  0
LINE
  5
310FB
  8
HATCH
  6
CONTINUOUS
 10
9.3024421800112407
 20
31.867966902061649
 30
0.0
 11
9.3024421800112442
 21
28.11663737819006
 31
0.0
  0
LINE
  5
310FC
  8
HATCH
  6
CONTINUOUS
 10
9.3964421800112419
 20
31.867966902061649
 30
0.0
 11
9.3964421800112454
 21
28.11663737819006
 31
0.0
  0
LINE
  5
310FD
  8
HATCH
  6
CONTINUOUS
 10
9.3024421800112442
 20
28.11663737819006
 30
0.0
 11
9.3024421800112442
 21
28.113438681260249
 31
0.0
  0
LINE
  5
310FE
  8
HATCH
  6
CONTINUOUS
 10
9.3964421800112454
 20
28.11663737819006
 30
0.0
 11
9.3981037395380689
 21
28.113438681260249
 31
0.0
  0
LINE
  5
310FF
  8
HATCH
  6
CONTINUOUS
 10
9.3024421800112442
 20
28.113438681260249
 30
0.0
 11
9.3024421800112442
 21
28.111196178775089
 31
0.0
  0
LINE
  5
31100
  8
HATCH
  6
CONTINUOUS
 10
9.3981037395380689
 20
28.113438681260249
 30
0.0
 11
9.3992686049347984
 21
28.111196178775089
 31
0.0
  0
LINE
  5
31101
  8
HATCH
  6
CONTINUOUS
 10
9.4374806415496995
 20
28.113438681260249
 30
0.0
 11
9.4234612272316554
 21
28.111196178775089
 31
0.0
  0
LINE
  5
31102
  8
HATCH
  6
CONTINUOUS
 10
9.4442369286006205
 20
28.111196178775089
 30
0.0
 11
9.4374806415496995
 21
28.113438681260249
 31
0.0
  0
LINE
  5
31103
  8
HATCH
  6
CONTINUOUS
 10
9.3024421800112442
 20
28.111196178775089
 30
0.0
 11
9.3024421800112442
 21
28.110888238170141
 31
0.0
  0
LINE
  5
31104
  8
HATCH
  6
CONTINUOUS
 10
9.3992686049347984
 20
28.111196178775089
 30
0.0
 11
9.3994285643361035
 21
28.110888238170141
 31
0.0
  0
LINE
  5
31105
  8
HATCH
  6
CONTINUOUS
 10
9.4234612272316554
 20
28.111196178775089
 30
0.0
 11
9.4224032287590909
 21
28.110888238170141
 31
0.0
  0
LINE
  5
31106
  8
HATCH
  6
CONTINUOUS
 10
9.4442369286006205
 20
28.111196178775089
 30
0.0
 11
9.4451647024316081
 21
28.110888238170141
 31
0.0
  0
LINE
  5
31107
  8
HATCH
  6
CONTINUOUS
 10
9.3024421800112442
 20
28.110888238170141
 30
0.0
 11
9.3024421800112442
 21
28.108455967317109
 31
0.0
  0
LINE
  5
31108
  8
HATCH
  6
CONTINUOUS
 10
9.3994285643361035
 20
28.110888238170141
 30
0.0
 11
9.4006920046983389
 21
28.108455967317109
 31
0.0
  0
LINE
  5
31109
  8
HATCH
  6
CONTINUOUS
 10
9.4224032287590909
 20
28.110888238170141
 30
0.0
 11
9.4140466210041431
 21
28.108455967317109
 31
0.0
  0
LINE
  5
3110A
  8
HATCH
  6
CONTINUOUS
 10
9.4451647024316081
 20
28.110888238170141
 30
0.0
 11
9.4462414921666156
 21
28.108455967317109
 31
0.0
  0
LINE
  5
3110B
  8
HATCH
  6
CONTINUOUS
 10
9.3024421800112442
 20
28.108455967317109
 30
0.0
 11
9.3024421800112442
 21
28.107228468824768
 31
0.0
  0
LINE
  5
3110C
  8
HATCH
  6
CONTINUOUS
 10
9.4462414921666156
 20
28.108455967317109
 30
0.0
 11
9.4467849175728134
 21
28.107228468824768
 31
0.0
  0
LINE
  5
3110D
  8
HATCH
  6
CONTINUOUS
 10
9.3024421800112442
 20
28.107228468824768
 30
0.0
 11
9.3024421800112442
 21
28.103485016418251
 31
0.0
  0
LINE
  5
3110E
  8
HATCH
  6
CONTINUOUS
 10
9.4467849175728134
 20
28.107228468824768
 30
0.0
 11
9.4484421800112433
 21
28.103485016418251
 31
0.0
  0
LINE
  5
3110F
  8
HATCH
  6
CONTINUOUS
 10
9.3024421800112442
 20
28.103485016418251
 30
0.0
 11
9.3024421800112442
 21
28.061155136225089
 31
0.0
  0
LINE
  5
31110
  8
HATCH
  6
CONTINUOUS
 10
9.4484421800112433
 20
28.103485016418251
 30
0.0
 11
9.4484421800112433
 21
28.061155136225089
 31
0.0
  0
LINE
  5
31111
  8
HATCH
  6
CONTINUOUS
 10
9.3024421800112442
 20
28.061155136225089
 30
0.0
 11
9.3024421800112442
 21
28.054679374966909
 31
0.0
  0
LINE
  5
31112
  8
HATCH
  6
CONTINUOUS
 10
9.4484421800112433
 20
28.061155136225089
 30
0.0
 11
9.4460621876313358
 21
28.054679374966909
 31
0.0
  0
LINE
  5
31113
  8
HATCH
  6
CONTINUOUS
 10
9.3024421800112442
 20
28.054679374966909
 30
0.0
 11
9.3024421800112442
 21
28.051286066198472
 31
0.0
  0
LINE
  5
31114
  8
HATCH
  6
CONTINUOUS
 10
9.4460621876313358
 20
28.054679374966909
 30
0.0
 11
9.4400550832370946
 21
28.051286066198472
 31
0.0
  0
LINE
  5
31115
  8
HATCH
  6
CONTINUOUS
 10
9.3024421800112442
 20
28.051286066198472
 30
0.0
 11
9.3024421800112442
 21
28.032558881916131
 31
0.0
  0
LINE
  5
31116
  8
HATCH
  6
CONTINUOUS
 10
9.4400550832370946
 20
28.051286066198472
 30
0.0
 11
9.4079235071657283
 21
28.032558881916131
 31
0.0
  0
LINE
  5
31117
  8
HATCH
  6
CONTINUOUS
 10
9.3024421800112442
 20
28.032558881916131
 30
0.0
 11
9.3024421800112442
 21
27.999966902061651
 31
0.0
  0
LINE
  5
31118
  8
HATCH
  6
CONTINUOUS
 10
9.4079235071657283
 20
28.032558881916131
 30
0.0
 11
9.3974222708753601
 21
27.999966902061651
 31
0.0
  0
LINE
  5
31119
  8
HATCH
  6
CONTINUOUS
 10
9.509630414174687
 20
27.999966902061651
 30
0.0
 11
9.5519602943678397
 21
27.999966902061651
 31
0.0
  0
LINE
  5
3111A
  8
HATCH
  6
CONTINUOUS
 10
9.3024421800112442
 20
27.999966902061651
 30
0.0
 11
9.3024421800112442
 21
27.997586909681669
 31
0.0
  0
LINE
  5
3111B
  8
HATCH
  6
CONTINUOUS
 10
9.3974222708753601
 20
27.999966902061651
 30
0.0
 11
9.3966554300003011
 21
27.997586909681669
 31
0.0
  0
LINE
  5
3111C
  8
HATCH
  6
CONTINUOUS
 10
9.509630414174687
 20
27.999966902061651
 30
0.0
 11
9.5031546529166562
 21
27.997586909681669
 31
0.0
  0
LINE
  5
3111D
  8
HATCH
  6
CONTINUOUS
 10
9.5519602943678397
 20
27.999966902061651
 30
0.0
 11
9.5573362613819022
 21
27.997586909681669
 31
0.0
  0
LINE
  5
3111E
  8
HATCH
  6
CONTINUOUS
 10
9.3024421800112442
 20
27.997586909681669
 30
0.0
 11
9.3024421800112442
 21
27.99716030195286
 31
0.0
  0
LINE
  5
3111F
  8
HATCH
  6
CONTINUOUS
 10
9.3966554300003011
 20
27.997586909681669
 30
0.0
 11
9.3965179756761543
 21
27.99716030195286
 31
0.0
  0
LINE
  5
31120
  8
HATCH
  6
CONTINUOUS
 10
9.5031546529166562
 20
27.997586909681669
 30
0.0
 11
9.5029136696322407
 21
27.99716030195286
 31
0.0
  0
LINE
  5
31121
  8
HATCH
  6
CONTINUOUS
 10
9.5573362613819022
 20
27.997586909681669
 30
0.0
 11
9.5582998901301544
 21
27.99716030195286
 31
0.0
  0
LINE
  5
31122
  8
HATCH
  6
CONTINUOUS
 10
9.3024421800112442
 20
27.99716030195286
 30
0.0
 11
9.3024421800112442
 21
27.99668942448206
 31
0.0
  0
LINE
  5
31123
  8
HATCH
  6
CONTINUOUS
 10
9.3965179756761543
 20
27.99716030195286
 30
0.0
 11
9.3967280865040301
 21
27.99668942448206
 31
0.0
  0
LINE
  5
31124
  8
HATCH
  6
CONTINUOUS
 10
9.5029136696322407
 20
27.99716030195286
 30
0.0
 11
9.5026476791407166
 21
27.99668942448206
 31
0.0
  0
LINE
  5
31125
  8
HATCH
  6
CONTINUOUS
 10
9.5582998901301544
 20
27.99716030195286
 30
0.0
 11
9.5593635161198716
 21
27.99668942448206
 31
0.0
  0
LINE
  5
31126
  8
HATCH
  6
CONTINUOUS
 10
9.3024421800112442
 20
27.99668942448206
 30
0.0
 11
9.3024421800112442
 21
27.991579805287451
 31
0.0
  0
LINE
  5
31127
  8
HATCH
  6
CONTINUOUS
 10
9.3967280865040301
 20
27.99668942448206
 30
0.0
 11
9.3990080561048135
 21
27.991579805287451
 31
0.0
  0
LINE
  5
31128
  8
HATCH
  6
CONTINUOUS
 10
9.5026476791407166
 20
27.99668942448206
 30
0.0
 11
9.4997613441483768
 21
27.991579805287451
 31
0.0
  0
LINE
  5
31129
  8
HATCH
  6
CONTINUOUS
 10
9.5593635161198716
 20
27.99668942448206
 30
0.0
 11
9.5610594674103169
 21
27.991579805287451
 31
0.0
  0
LINE
  5
3112A
  8
HATCH
  6
CONTINUOUS
 10
9.3024421800112442
 20
27.991579805287451
 30
0.0
 11
9.3024421800112442
 21
27.989005363600089
 31
0.0
  0
LINE
  5
3112B
  8
HATCH
  6
CONTINUOUS
 10
9.3990080561048135
 20
27.991579805287451
 30
0.0
 11
9.4001568009647691
 21
27.989005363600089
 31
0.0
  0
LINE
  5
3112C
  8
HATCH
  6
CONTINUOUS
 10
9.4997613441483768
 20
27.991579805287451
 30
0.0
 11
9.4982608872832728
 21
27.989005363600089
 31
0.0
  0
LINE
  5
3112D
  8
HATCH
  6
CONTINUOUS
 10
9.5610594674103169
 20
27.991579805287451
 30
0.0
 11
9.5619139592101092
 21
27.989005363600089
 31
0.0
  0
LINE
  5
3112E
  8
HATCH
  6
CONTINUOUS
 10
9.3024421800112442
 20
27.989005363600089
 30
0.0
 11
9.3024421800112442
 21
27.981575444935419
 31
0.0
  0
LINE
  5
3112F
  8
HATCH
  6
CONTINUOUS
 10
9.4001568009647691
 20
27.989005363600089
 30
0.0
 11
9.4034721143074105
 21
27.981575444935419
 31
0.0
  0
LINE
  5
31130
  8
HATCH
  6
CONTINUOUS
 10
9.4982608872832728
 20
27.989005363600089
 30
0.0
 11
9.4939305221706061
 21
27.981575444935419
 31
0.0
  0
LINE
  5
31131
  8
HATCH
  6
CONTINUOUS
 10
9.5619139592101092
 20
27.989005363600089
 30
0.0
 11
9.5609488656116461
 21
27.981575444935419
 31
0.0
  0
LINE
  5
31132
  8
HATCH
  6
CONTINUOUS
 10
9.3024421800112442
 20
27.981575444935419
 30
0.0
 11
9.3024421800112442
 21
27.974224966577768
 31
0.0
  0
LINE
  5
31133
  8
HATCH
  6
CONTINUOUS
 10
9.4034721143074105
 20
27.981575444935419
 30
0.0
 11
9.4067519804908422
 21
27.974224966577768
 31
0.0
  0
LINE
  5
31134
  8
HATCH
  6
CONTINUOUS
 10
9.4939305221706061
 20
27.981575444935419
 30
0.0
 11
9.4896464570982957
 21
27.974224966577768
 31
0.0
  0
LINE
  5
31135
  8
HATCH
  6
CONTINUOUS
 10
9.5609488656116461
 20
27.981575444935419
 30
0.0
 11
9.5594978091237301
 21
27.974224966577768
 31
0.0
  0
LINE
  5
31136
  8
HATCH
  6
CONTINUOUS
 10
9.3024421800112442
 20
27.974224966577768
 30
0.0
 11
9.3024421800112442
 21
27.965745191893269
 31
0.0
  0
LINE
  5
31137
  8
HATCH
  6
CONTINUOUS
 10
9.4067519804908422
 20
27.974224966577768
 30
0.0
 11
9.4105357514071848
 21
27.965745191893269
 31
0.0
  0
LINE
  5
31138
  8
HATCH
  6
CONTINUOUS
 10
9.4896464570982957
 20
27.974224966577768
 30
0.0
 11
9.484704206433868
 21
27.965745191893269
 31
0.0
  0
LINE
  5
31139
  8
HATCH
  6
CONTINUOUS
 10
9.5594978091237301
 20
27.974224966577768
 30
0.0
 11
9.5614107173631062
 21
27.965745191893269
 31
0.0
  0
LINE
  5
3113A
  8
HATCH
  6
CONTINUOUS
 10
9.3024421800112442
 20
27.965745191893269
 30
0.0
 11
9.3024421800112442
 21
27.963197349439611
 31
0.0
  0
LINE
  5
3113B
  8
HATCH
  6
CONTINUOUS
 10
9.4105357514071848
 20
27.965745191893269
 30
0.0
 11
9.411672627389656
 21
27.963197349439611
 31
0.0
  0
LINE
  5
3113C
  8
HATCH
  6
CONTINUOUS
 10
9.484704206433868
 20
27.965745191893269
 30
0.0
 11
9.483219252348654
 21
27.963197349439611
 31
0.0
  0
LINE
  5
3113D
  8
HATCH
  6
CONTINUOUS
 10
9.5614107173631062
 20
27.965745191893269
 30
0.0
 11
9.5666899798265206
 21
27.963197349439611
 31
0.0
  0
LINE
  5
3113E
  8
HATCH
  6
CONTINUOUS
 10
9.3024421800112442
 20
27.963197349439611
 30
0.0
 11
9.3024421800112442
 21
27.961966902061661
 31
0.0
  0
LINE
  5
3113F
  8
HATCH
  6
CONTINUOUS
 10
9.411672627389656
 20
27.963197349439611
 30
0.0
 11
9.4144301718491494
 21
27.961966902061661
 31
0.0
  0
LINE
  5
31140
  8
HATCH
  6
CONTINUOUS
 10
9.483219252348654
 20
27.963197349439611
 30
0.0
 11
9.4825021130852303
 21
27.961966902061661
 31
0.0
  0
LINE
  5
31141
  8
HATCH
  6
CONTINUOUS
 10
9.5666899798265206
 20
27.963197349439611
 30
0.0
 11
9.5692395309756968
 21
27.961966902061661
 31
0.0
  0
LINE
  5
31142
  8
HATCH
  6
CONTINUOUS
 10
9.5692395309756968
 20
27.961966902061661
 30
0.0
 11
10.302442180011241
 21
27.961966902061661
 31
0.0
  0
LINE
  5
31143
  8
HATCH
  6
CONTINUOUS
 10
9.3024421800112442
 20
27.961966902061661
 30
0.0
 11
9.3024421800112442
 21
27.959448229216001
 31
0.0
  0
LINE
  5
31144
  8
HATCH
  6
CONTINUOUS
 10
9.4144301718491494
 20
27.961966902061661
 30
0.0
 11
9.4200747467210526
 21
27.959448229216001
 31
0.0
  0
LINE
  5
31145
  8
HATCH
  6
CONTINUOUS
 10
9.4825021130852303
 20
27.961966902061661
 30
0.0
 11
9.48103415986618
 21
27.959448229216001
 31
0.0
  0
LINE
  5
31146
  8
HATCH
  6
CONTINUOUS
 10
10.302442180011241
 20
27.961966902061661
 30
0.0
 11
10.302442180011241
 21
27.959448229216001
 31
0.0
  0
LINE
  5
31147
  8
HATCH
  6
CONTINUOUS
 10
9.3024421800112442
 20
27.959448229216001
 30
0.0
 11
9.3024421800112442
 21
27.948042697726262
 31
0.0
  0
LINE
  5
31148
  8
HATCH
  6
CONTINUOUS
 10
10.302442180011241
 20
27.959448229216001
 30
0.0
 11
10.302442180011241
 21
27.948042697726262
 31
0.0
  0
LINE
  5
31149
  8
HATCH
  6
CONTINUOUS
 10
9.3024421800112442
 20
27.948042697726262
 30
0.0
 11
9.3024421800112442
 21
27.867966902061649
 31
0.0
  0
LINE
  5
3114A
  8
HATCH
  6
CONTINUOUS
 10
10.302442180011241
 20
27.948042697726262
 30
0.0
 11
10.302442180011241
 21
27.867966902061649
 31
0.0
  0
LINE
  5
3114B
  8
HATCH
  6
CONTINUOUS
 10
9.3024421800112442
 20
27.867966902061649
 30
0.0
 11
10.302442180011241
 21
27.867966902061649
 31
0.0
  0
ENDBLK
  5
3114D
  8
0
  0
BLOCK
  8
0
  2
*U41
 70
     1
 10
0.0
 20
0.0
 30
0.0
  3
*U41
  1

  0
SOLID
  5
3114F
  8
HATCH
  6
CONTINUOUS
 10
9.1974421800113415
 20
28.40029562566945
 30
0.0
 11
9.1974421800113415
 21
28.40029562566945
 31
0.0
 12
9.2599421800113362
 22
28.40029562566945
 32
0.0
 13
9.2599421800113362
 23
28.40029562566945
 33
0.0
  0
SOLID
  5
31150
  8
HATCH
  6
CONTINUOUS
 10
9.1974421800113415
 20
28.40029562566945
 30
0.0
 11
9.1974421800112314
 21
27.68029562566943
 31
0.0
 12
9.2599421800112314
 22
27.68029562566943
 32
0.0
 13
9.2599421800112314
 23
27.68029562566943
 33
0.0
  0
SOLID
  5
31151
  8
HATCH
  6
CONTINUOUS
 10
-9.1974421800113415
 20
28.40029562566945
 30
0.0
 11
-9.2599421800113362
 21
28.40029562566945
 31
0.0
 12
-9.2599421800112314
 22
27.68029562566943
 32
0.0
 13
-9.2599421800112314
 23
27.68029562566943
 33
0.0
210
0.0
220
0.0
230
-1.0
  0
SOLID
  5
31152
  8
HATCH
  6
CONTINUOUS
 10
9.3649421800112442
 20
27.68029562566943
 30
0.0
 11
9.3649421800112442
 21
27.68029562566943
 31
0.0
 12
10.194942180011401
 22
27.68029562566943
 32
0.0
 13
10.194942180011401
 23
27.68029562566943
 33
0.0
  0
SOLID
  5
31153
  8
HATCH
  6
CONTINUOUS
 10
9.1974421800112314
 20
27.68029562566943
 30
0.0
 11
9.1974421800112296
 21
27.676032448685909
 31
0.0
 12
9.2599421800112314
 22
27.676032448685909
 32
0.0
 13
9.2599421800112314
 23
27.676032448685909
 33
0.0
  0
SOLID
  5
31154
  8
HATCH
  6
CONTINUOUS
 10
-9.1974421800112314
 20
27.68029562566943
 30
0.0
 11
-9.2599421800112314
 21
27.68029562566943
 31
0.0
 12
-9.2599421800112314
 22
27.676032448685909
 32
0.0
 13
-9.2599421800112314
 23
27.676032448685909
 33
0.0
210
0.0
220
0.0
230
-1.0
  0
SOLID
  5
31155
  8
HATCH
  6
CONTINUOUS
 10
9.3649421800112442
 20
27.68029562566943
 30
0.0
 11
9.3606790030277303
 21
27.676032448685909
 31
0.0
 12
10.205416941656059
 22
27.676032448685909
 32
0.0
 13
10.205416941656059
 23
27.676032448685909
 33
0.0
  0
SOLID
  5
31156
  8
HATCH
  6
CONTINUOUS
 10
-9.3649421800112442
 20
27.68029562566943
 30
0.0
 11
-10.194942180011401
 21
27.68029562566943
 31
0.0
 12
-10.205416941656059
 22
27.676032448685909
 32
0.0
 13
-10.205416941656059
 23
27.676032448685909
 33
0.0
210
0.0
220
0.0
230
-1.0
  0
SOLID
  5
31157
  8
HATCH
  6
CONTINUOUS
 10
9.1974421800112296
 20
27.676032448685909
 30
0.0
 11
9.1974421800112296
 21
27.665666208134429
 31
0.0
 12
9.2599421800112296
 22
27.665666208134429
 32
0.0
 13
9.2599421800112296
 23
27.665666208134429
 33
0.0
  0
SOLID
  5
31158
  8
HATCH
  6
CONTINUOUS
 10
-9.1974421800112296
 20
27.676032448685909
 30
0.0
 11
-9.2599421800112314
 21
27.676032448685909
 31
0.0
 12
-9.2599421800112296
 22
27.665666208134429
 32
0.0
 13
-9.2599421800112296
 23
27.665666208134429
 33
0.0
210
0.0
220
0.0
230
-1.0
  0
SOLID
  5
31159
  8
HATCH
  6
CONTINUOUS
 10
9.3606790030277303
 20
27.676032448685909
 30
0.0
 11
9.3503127624762321
 21
27.665666208134429
 31
0.0
 12
10.20993760160054
 22
27.665666208134429
 32
0.0
 13
10.20993760160054
 23
27.665666208134429
 33
0.0
  0
SOLID
  5
3115A
  8
HATCH
  6
CONTINUOUS
 10
-9.3606790030277303
 20
27.676032448685909
 30
0.0
 11
-10.205416941656059
 21
27.676032448685909
 31
0.0
 12
-10.20993760160054
 22
27.665666208134429
 32
0.0
 13
-10.20993760160054
 23
27.665666208134429
 33
0.0
210
0.0
220
0.0
230
-1.0
  0
SOLID
  5
3115B
  8
HATCH
  6
CONTINUOUS
 10
9.1974421800112296
 20
27.665666208134429
 30
0.0
 11
9.1974421800112296
 21
27.65881589642964
 31
0.0
 12
9.2599421800112296
 22
27.65881589642964
 32
0.0
 13
9.2599421800112296
 23
27.65881589642964
 33
0.0
  0
SOLID
  5
3115C
  8
HATCH
  6
CONTINUOUS
 10
-9.1974421800112296
 20
27.665666208134429
 30
0.0
 11
-9.2599421800112296
 21
27.665666208134429
 31
0.0
 12
-9.2599421800112296
 22
27.65881589642964
 32
0.0
 13
-9.2599421800112296
 23
27.65881589642964
 33
0.0
210
0.0
220
0.0
230
-1.0
  0
SOLID
  5
3115D
  8
HATCH
  6
CONTINUOUS
 10
9.3503127624762321
 20
27.665666208134429
 30
0.0
 11
9.3434624507714563
 21
27.65881589642964
 31
0.0
 12
10.20734492746867
 22
27.65881589642964
 32
0.0
 13
10.20734492746867
 23
27.65881589642964
 33
0.0
  0
SOLID
  5
3115E
  8
HATCH
  6
CONTINUOUS
 10
-9.3503127624762321
 20
27.665666208134429
 30
0.0
 11
-10.20993760160054
 21
27.665666208134429
 31
0.0
 12
-10.20734492746867
 22
27.65881589642964
 32
0.0
 13
-10.20734492746867
 23
27.65881589642964
 33
0.0
210
0.0
220
0.0
230
-1.0
  0
SOLID
  5
3115F
  8
HATCH
  6
CONTINUOUS
 10
9.1974421800112296
 20
27.65881589642964
 30
0.0
 11
9.1974421800112296
 21
27.656838853168551
 31
0.0
 12
9.2599421800112296
 22
27.656838853168551
 32
0.0
 13
9.2599421800112296
 23
27.656838853168551
 33
0.0
  0
SOLID
  5
31160
  8
HATCH
  6
CONTINUOUS
 10
-9.1974421800112296
 20
27.65881589642964
 30
0.0
 11
-9.2599421800112296
 21
27.65881589642964
 31
0.0
 12
-9.2599421800112296
 22
27.656838853168551
 32
0.0
 13
-9.2599421800112296
 23
27.656838853168551
 33
0.0
210
0.0
220
0.0
230
-1.0
  0
SOLID
  5
31161
  8
HATCH
  6
CONTINUOUS
 10
9.3434624507714563
 20
27.65881589642964
 30
0.0
 11
9.3414854075103673
 21
27.656838853168551
 31
0.0
 12
10.13306049759521
 22
27.656838853168551
 32
0.0
 13
10.13306049759521
 23
27.656838853168551
 33
0.0
  0
SOLID
  5
31162
  8
HATCH
  6
CONTINUOUS
 10
-9.3434624507714563
 20
27.65881589642964
 30
0.0
 11
-10.13494218001134
 21
27.65881589642964
 31
0.0
 12
-10.13306049759521
 22
27.656838853168551
 32
0.0
 13
-10.13306049759521
 23
27.656838853168551
 33
0.0
210
0.0
220
0.0
230
-1.0
  0
SOLID
  5
31163
  8
HATCH
  6
CONTINUOUS
 10
10.13494218001134
 20
27.65881589642964
 30
0.0
 11
10.137019416862071
 21
27.656838853168551
 31
0.0
 12
10.20659666532506
 22
27.656838853168551
 32
0.0
 13
10.20659666532506
 23
27.656838853168551
 33
0.0
  0
SOLID
  5
31164
  8
HATCH
  6
CONTINUOUS
 10
-10.13494218001134
 20
27.65881589642964
 30
0.0
 11
-10.20734492746867
 21
27.65881589642964
 31
0.0
 12
-10.20659666532506
 22
27.656838853168551
 32
0.0
 13
-10.20659666532506
 23
27.656838853168551
 33
0.0
210
0.0
220
0.0
230
-1.0
  0
SOLID
  5
31165
  8
HATCH
  6
CONTINUOUS
 10
9.1974421800112296
 20
27.656838853168551
 30
0.0
 11
9.1974421800112278
 21
27.65508931976489
 31
0.0
 12
9.2599421800112296
 22
27.65508931976489
 32
0.0
 13
9.2599421800112296
 23
27.65508931976489
 33
0.0
  0
SOLID
  5
31166
  8
HATCH
  6
CONTINUOUS
 10
-9.1974421800112296
 20
27.656838853168551
 30
0.0
 11
-9.2599421800112296
 21
27.656838853168551
 31
0.0
 12
-9.2599421800112296
 22
27.65508931976489
 32
0.0
 13
-9.2599421800112296
 23
27.65508931976489
 33
0.0
210
0.0
220
0.0
230
-1.0
  0
SOLID
  5
31167
  8
HATCH
  6
CONTINUOUS
 10
9.3414854075103673
 20
27.656838853168551
 30
0.0
 11
9.339735874106708
 21
27.65508931976489
 31
0.0
 12
10.05327703372599
 22
27.65508931976489
 32
0.0
 13
10.05327703372599
 23
27.65508931976489
 33
0.0
  0
SOLID
  5
31168
  8
HATCH
  6
CONTINUOUS
 10
-9.3414854075103673
 20
27.656838853168551
 30
0.0
 11
-10.054942180011301
 21
27.656838853168551
 31
0.0
 12
-10.05327703372599
 22
27.65508931976489
 32
0.0
 13
-10.05327703372599
 23
27.65508931976489
 33
0.0
210
0.0
220
0.0
230
-1.0
  0
SOLID
  5
31169
  8
HATCH
  6
CONTINUOUS
 10
10.054942180011301
 20
27.656838853168551
 30
0.0
 11
10.056780377145961
 21
27.65508931976489
 31
0.0
 12
10.13139535130991
 22
27.65508931976489
 32
0.0
 13
10.13139535130991
 23
27.65508931976489
 33
0.0
  0
SOLID
  5
3116A
  8
HATCH
  6
CONTINUOUS
 10
-10.054942180011301
 20
27.656838853168551
 30
0.0
 11
-10.13306049759521
 21
27.656838853168551
 31
0.0
 12
-10.13139535130991
 22
27.65508931976489
 32
0.0
 13
-10.13139535130991
 23
27.65508931976489
 33
0.0
210
0.0
220
0.0
230
-1.0
  0
SOLID
  5
3116B
  8
HATCH
  6
CONTINUOUS
 10
10.137019416862071
 20
27.656838853168551
 30
0.0
 11
10.138857613996739
 21
27.65508931976489
 31
0.0
 12
10.20593451005476
 22
27.65508931976489
 32
0.0
 13
10.20593451005476
 23
27.65508931976489
 33
0.0
  0
SOLID
  5
3116C
  8
HATCH
  6
CONTINUOUS
 10
-10.137019416862071
 20
27.656838853168551
 30
0.0
 11
-10.20659666532506
 21
27.656838853168551
 31
0.0
 12
-10.20593451005476
 22
27.65508931976489
 32
0.0
 13
-10.20593451005476
 23
27.65508931976489
 33
0.0
210
0.0
220
0.0
230
-1.0
  0
SOLID
  5
3116D
  8
HATCH
  6
CONTINUOUS
 10
9.1974421800112278
 20
27.65508931976489
 30
0.0
 11
9.1974421800112278
 21
27.654861809907569
 31
0.0
 12
9.2599421800112296
 22
27.654861809907569
 32
0.0
 13
9.2599421800112296
 23
27.654861809907569
 33
0.0
  0
SOLID
  5
3116E
  8
HATCH
  6
CONTINUOUS
 10
-9.1974421800112278
 20
27.65508931976489
 30
0.0
 11
-9.2599421800112296
 21
27.65508931976489
 31
0.0
 12
-9.2599421800112296
 22
27.654861809907569
 32
0.0
 13
-9.2599421800112296
 23
27.654861809907569
 33
0.0
210
0.0
220
0.0
230
-1.0
  0
SOLID
  5
3116F
  8
HATCH
  6
CONTINUOUS
 10
9.339735874106708
 20
27.65508931976489
 30
0.0
 11
9.3395083642493848
 21
27.654861809907569
 31
0.0
 12
10.05306049759527
 22
27.654861809907569
 32
0.0
 13
10.05306049759527
 23
27.654861809907569
 33
0.0
  0
SOLID
  5
31170
  8
HATCH
  6
CONTINUOUS
 10
-9.339735874106708
 20
27.65508931976489
 30
0.0
 11
-10.05327703372599
 21
27.65508931976489
 31
0.0
 12
-10.05306049759527
 22
27.654861809907569
 32
0.0
 13
-10.05306049759527
 23
27.654861809907569
 33
0.0
210
0.0
220
0.0
230
-1.0
  0
SOLID
  5
31171
  8
HATCH
  6
CONTINUOUS
 10
10.056780377145961
 20
27.65508931976489
 30
0.0
 11
10.05701941686192
 21
27.654861809907569
 31
0.0
 12
10.13117881517918
 22
27.654861809907569
 32
0.0
 13
10.13117881517918
 23
27.654861809907569
 33
0.0
  0
SOLID
  5
31172
  8
HATCH
  6
CONTINUOUS
 10
-10.056780377145961
 20
27.65508931976489
 30
0.0
 11
-10.13139535130991
 21
27.65508931976489
 31
0.0
 12
-10.13117881517918
 22
27.654861809907569
 32
0.0
 13
-10.13117881517918
 23
27.654861809907569
 33
0.0
210
0.0
220
0.0
230
-1.0
  0
SOLID
  5
31173
  8
HATCH
  6
CONTINUOUS
 10
10.138857613996739
 20
27.65508931976489
 30
0.0
 11
10.13909665371269
 21
27.654861809907569
 31
0.0
 12
10.205446111017469
 22
27.654861809907569
 32
0.0
 13
10.205446111017469
 23
27.654861809907569
 33
0.0
  0
SOLID
  5
31174
  8
HATCH
  6
CONTINUOUS
 10
-10.138857613996739
 20
27.65508931976489
 30
0.0
 11
-10.20593451005476
 21
27.65508931976489
 31
0.0
 12
-10.205446111017469
 22
27.654861809907569
 32
0.0
 13
-10.205446111017469
 23
27.654861809907569
 33
0.0
210
0.0
220
0.0
230
-1.0
  0
SOLID
  5
31175
  8
HATCH
  6
CONTINUOUS
 10
9.1974421800112278
 20
27.654861809907569
 30
0.0
 11
9.1974421800112278
 21
27.65288476664659
 31
0.0
 12
9.2599421800112296
 22
27.65288476664659
 32
0.0
 13
9.2599421800112296
 23
27.65288476664659
 33
0.0
  0
SOLID
  5
31176
  8
HATCH
  6
CONTINUOUS
 10
-9.1974421800112278
 20
27.654861809907569
 30
0.0
 11
-9.2599421800112296
 21
27.654861809907569
 31
0.0
 12
-9.2599421800112296
 22
27.65288476664659
 32
0.0
 13
-9.2599421800112296
 23
27.65288476664659
 33
0.0
210
0.0
220
0.0
230
-1.0
  0
SOLID
  5
31177
  8
HATCH
  6
CONTINUOUS
 10
9.3395083642493848
 20
27.654861809907569
 30
0.0
 11
9.3375313209884077
 21
27.65288476664659
 31
0.0
 12
9.9730604975952382
 22
27.65288476664659
 32
0.0
 13
9.9730604975952382
 23
27.65288476664659
 33
0.0
  0
SOLID
  5
31178
  8
HATCH
  6
CONTINUOUS
 10
-9.3395083642493848
 20
27.654861809907569
 30
0.0
 11
-9.9749421800112614
 21
27.654861809907569
 31
0.0
 12
-9.9730604975952382
 22
27.65288476664659
 32
0.0
 13
-9.9730604975952382
 23
27.65288476664659
 33
0.0
210
0.0
220
0.0
230
-1.0
  0
SOLID
  5
31179
  8
HATCH
  6
CONTINUOUS
 10
9.9749421800112614
 20
27.654861809907569
 30
0.0
 11
9.9770194168618662
 21
27.65288476664659
 31
0.0
 12
10.05117881517925
 22
27.65288476664659
 32
0.0
 13
10.05117881517925
 23
27.65288476664659
 33
0.0
  0
SOLID
  5
3117A
  8
HATCH
  6
CONTINUOUS
 10
-9.9749421800112614
 20
27.654861809907569
 30
0.0
 11
-10.05306049759527
 21
27.654861809907569
 31
0.0
 12
-10.05117881517925
 22
27.65288476664659
 32
0.0
 13
-10.05117881517925
 23
27.65288476664659
 33
0.0
210
0.0
220
0.0
230
-1.0
  0
SOLID
  5
3117B
  8
HATCH
  6
CONTINUOUS
 10
10.05701941686192
 20
27.654861809907569
 30
0.0
 11
10.05909665371253
 21
27.65288476664659
 31
0.0
 12
10.12929713276316
 22
27.65288476664659
 32
0.0
 13
10.12929713276316
 23
27.65288476664659
 33
0.0
  0
SOLID
  5
3117C
  8
HATCH
  6
CONTINUOUS
 10
-10.05701941686192
 20
27.654861809907569
 30
0.0
 11
-10.13117881517918
 21
27.654861809907569
 31
0.0
 12
-10.12929713276316
 22
27.65288476664659
 32
0.0
 13
-10.12929713276316
 23
27.65288476664659
 33
0.0
210
0.0
220
0.0
230
-1.0
  0
SOLID
  5
3117D
  8
HATCH
  6
CONTINUOUS
 10
10.13909665371269
 20
27.654861809907569
 30
0.0
 11
10.1411738905633
 21
27.65288476664659
 31
0.0
 12
10.20120196073451
 22
27.65288476664659
 32
0.0
 13
10.20120196073451
 23
27.65288476664659
 33
0.0
  0
SOLID
  5
3117E
  8
HATCH
  6
CONTINUOUS
 10
-10.13909665371269
 20
27.654861809907569
 30
0.0
 11
-10.205446111017469
 21
27.654861809907569
 31
0.0
 12
-10.20120196073451
 22
27.65288476664659
 32
0.0
 13
-10.20120196073451
 23
27.65288476664659
 33
0.0
210
0.0
220
0.0
230
-1.0
  0
SOLID
  5
3117F
  8
HATCH
  6
CONTINUOUS
 10
9.1974421800112278
 20
27.65288476664659
 30
0.0
 11
9.1974421800112278
 21
27.650907723385671
 31
0.0
 12
9.2599421800112296
 22
27.650907723385671
 32
0.0
 13
9.2599421800112296
 23
27.650907723385671
 33
0.0
  0
SOLID
  5
31180
  8
HATCH
  6
CONTINUOUS
 10
-9.1974421800112278
 20
27.65288476664659
 30
0.0
 11
-9.2599421800112296
 21
27.65288476664659
 31
0.0
 12
-9.2599421800112296
 22
27.650907723385671
 32
0.0
 13
-9.2599421800112296
 23
27.650907723385671
 33
0.0
210
0.0
220
0.0
230
-1.0
  0
SOLID
  5
31181
  8
HATCH
  6
CONTINUOUS
 10
9.3375313209884077
 20
27.65288476664659
 30
0.0
 11
9.3355542777274856
 21
27.650907723385671
 31
0.0
 12
9.8930604975952452
 22
27.650907723385671
 32
0.0
 13
9.8930604975952452
 23
27.650907723385671
 33
0.0
  0
SOLID
  5
31182
  8
HATCH
  6
CONTINUOUS
 10
-9.3375313209884077
 20
27.65288476664659
 30
0.0
 11
-9.8949421800112152
 21
27.65288476664659
 31
0.0
 12
-9.8930604975952452
 22
27.650907723385671
 32
0.0
 13
-9.8930604975952452
 23
27.650907723385671
 33
0.0
210
0.0
220
0.0
230
-1.0
  0
SOLID
  5
31183
  8
HATCH
  6
CONTINUOUS
 10
9.8949421800112152
 20
27.65288476664659
 30
0.0
 11
9.897019416861756
 21
27.650907723385671
 31
0.0
 12
9.9711788151792664
 22
27.650907723385671
 32
0.0
 13
9.9711788151792664
 23
27.650907723385671
 33
0.0
  0
SOLID
  5
31184
  8
HATCH
  6
CONTINUOUS
 10
-9.8949421800112152
 20
27.65288476664659
 30
0.0
 11
-9.9730604975952382
 21
27.65288476664659
 31
0.0
 12
-9.9711788151792664
 22
27.650907723385671
 32
0.0
 13
-9.9711788151792664
 23
27.650907723385671
 33
0.0
210
0.0
220
0.0
230
-1.0
  0
SOLID
  5
31185
  8
HATCH
  6
CONTINUOUS
 10
9.9770194168618662
 20
27.65288476664659
 30
0.0
 11
9.9790966537124284
 21
27.650907723385671
 31
0.0
 12
10.049297132763281
 22
27.650907723385671
 32
0.0
 13
10.049297132763281
 23
27.650907723385671
 33
0.0
  0
SOLID
  5
31186
  8
HATCH
  6
CONTINUOUS
 10
-9.9770194168618662
 20
27.65288476664659
 30
0.0
 11
-10.05117881517925
 21
27.65288476664659
 31
0.0
 12
-10.049297132763281
 22
27.650907723385671
 32
0.0
 13
-10.049297132763281
 23
27.650907723385671
 33
0.0
210
0.0
220
0.0
230
-1.0
  0
SOLID
  5
31187
  8
HATCH
  6
CONTINUOUS
 10
10.05909665371253
 20
27.65288476664659
 30
0.0
 11
10.06117389056309
 21
27.650907723385671
 31
0.0
 12
10.12741545034719
 22
27.650907723385671
 32
0.0
 13
10.12741545034719
 23
27.650907723385671
 33
0.0
  0
SOLID
  5
31188
  8
HATCH
  6
CONTINUOUS
 10
-10.05909665371253
 20
27.65288476664659
 30
0.0
 11
-10.12929713276316
 21
27.65288476664659
 31
0.0
 12
-10.12741545034719
 22
27.650907723385671
 32
0.0
 13
-10.12741545034719
 23
27.650907723385671
 33
0.0
210
0.0
220
0.0
230
-1.0
  0
SOLID
  5
31189
  8
HATCH
  6
CONTINUOUS
 10
10.1411738905633
 20
27.65288476664659
 30
0.0
 11
10.14325112741386
 21
27.650907723385671
 31
0.0
 12
10.196957810451661
 22
27.650907723385671
 32
0.0
 13
10.196957810451661
 23
27.650907723385671
 33
0.0
  0
SOLID
  5
3118A
  8
HATCH
  6
CONTINUOUS
 10
-10.1411738905633
 20
27.65288476664659
 30
0.0
 11
-10.20120196073451
 21
27.65288476664659
 31
0.0
 12
-10.196957810451661
 22
27.650907723385671
 32
0.0
 13
-10.196957810451661
 23
27.650907723385671
 33
0.0
210
0.0
220
0.0
230
-1.0
  0
SOLID
  5
3118B
  8
HATCH
  6
CONTINUOUS
 10
9.1974421800112278
 20
27.650907723385671
 30
0.0
 11
9.1974421800112278
 21
27.6503139365179
 31
0.0
 12
9.2599421800112296
 22
27.6503139365179
 32
0.0
 13
9.2599421800112296
 23
27.6503139365179
 33
0.0
  0
SOLID
  5
3118C
  8
HATCH
  6
CONTINUOUS
 10
-9.1974421800112278
 20
27.650907723385671
 30
0.0
 11
-9.2599421800112296
 21
27.650907723385671
 31
0.0
 12
-9.2599421800112296
 22
27.6503139365179
 32
0.0
 13
-9.2599421800112296
 23
27.6503139365179
 33
0.0
210
0.0
220
0.0
230
-1.0
  0
SOLID
  5
3118D
  8
HATCH
  6
CONTINUOUS
 10
9.3355542777274856
 20
27.650907723385671
 30
0.0
 11
9.3349604908597197
 21
27.6503139365179
 31
0.0
 12
9.8143770339013301
 22
27.6503139365179
 32
0.0
 13
9.8143770339013301
 23
27.6503139365179
 33
0.0
  0
SOLID
  5
3118E
  8
HATCH
  6
CONTINUOUS
 10
-9.3355542777274856
 20
27.650907723385671
 30
0.0
 11
-9.8149421800111742
 21
27.650907723385671
 31
0.0
 12
-9.8143770339013301
 22
27.6503139365179
 32
0.0
 13
-9.8143770339013301
 23
27.6503139365179
 33
0.0
210
0.0
220
0.0
230
-1.0
  0
SOLID
  5
3118F
  8
HATCH
  6
CONTINUOUS
 10
9.8149421800111742
 20
27.650907723385671
 30
0.0
 11
9.8155660591075389
 21
27.6503139365179
 31
0.0
 12
9.892495351485401
 22
27.6503139365179
 32
0.0
 13
9.892495351485401
 23
27.6503139365179
 33
0.0
  0
SOLID
  5
31190
  8
HATCH
  6
CONTINUOUS
 10
-9.8149421800111742
 20
27.650907723385671
 30
0.0
 11
-9.8930604975952452
 21
27.650907723385671
 31
0.0
 12
-9.892495351485401
 22
27.6503139365179
 32
0.0
 13
-9.892495351485401
 23
27.6503139365179
 33
0.0
210
0.0
220
0.0
230
-1.0
  0
SOLID
  5
31191
  8
HATCH
  6
CONTINUOUS
 10
9.897019416861756
 20
27.650907723385671
 30
0.0
 11
9.8976432959581118
 21
27.6503139365179
 31
0.0
 12
9.970613669069424
 22
27.6503139365179
 32
0.0
 13
9.970613669069424
 23
27.6503139365179
 33
0.0
  0
SOLID
  5
31192
  8
HATCH
  6
CONTINUOUS
 10
-9.897019416861756
 20
27.650907723385671
 30
0.0
 11
-9.9711788151792664
 21
27.650907723385671
 31
0.0
 12
-9.970613669069424
 22
27.6503139365179
 32
0.0
 13
-9.970613669069424
 23
27.6503139365179
 33
0.0
210
0.0
220
0.0
230
-1.0
  0
SOLID
  5
31193
  8
HATCH
  6
CONTINUOUS
 10
9.9790966537124284
 20
27.650907723385671
 30
0.0
 11
9.9797205328087912
 21
27.6503139365179
 31
0.0
 12
10.04873198665342
 22
27.6503139365179
 32
0.0
 13
10.04873198665342
 23
27.6503139365179
 33
0.0
  0
SOLID
  5
31194
  8
HATCH
  6
CONTINUOUS
 10
-9.9790966537124284
 20
27.650907723385671
 30
0.0
 11
-10.049297132763281
 21
27.650907723385671
 31
0.0
 12
-10.04873198665342
 22
27.6503139365179
 32
0.0
 13
-10.04873198665342
 23
27.6503139365179
 33
0.0
210
0.0
220
0.0
230
-1.0
  0
SOLID
  5
31195
  8
HATCH
  6
CONTINUOUS
 10
10.06117389056309
 20
27.650907723385671
 30
0.0
 11
10.061797769659449
 21
27.6503139365179
 31
0.0
 12
10.12685030423734
 22
27.6503139365179
 32
0.0
 13
10.12685030423734
 23
27.6503139365179
 33
0.0
  0
SOLID
  5
31196
  8
HATCH
  6
CONTINUOUS
 10
-10.06117389056309
 20
27.650907723385671
 30
0.0
 11
-10.12741545034719
 21
27.650907723385671
 31
0.0
 12
-10.12685030423734
 22
27.6503139365179
 32
0.0
 13
-10.12685030423734
 23
27.6503139365179
 33
0.0
210
0.0
220
0.0
230
-1.0
  0
SOLID
  5
31197
  8
HATCH
  6
CONTINUOUS
 10
10.14325112741386
 20
27.650907723385671
 30
0.0
 11
10.143875006510219
 21
27.6503139365179
 31
0.0
 12
10.195683118717509
 22
27.6503139365179
 32
0.0
 13
10.195683118717509
 23
27.6503139365179
 33
0.0
  0
SOLID
  5
31198
  8
HATCH
  6
CONTINUOUS
 10
-10.14325112741386
 20
27.650907723385671
 30
0.0
 11
-10.196957810451661
 21
27.650907723385671
 31
0.0
 12
-10.195683118717509
 22
27.6503139365179
 32
0.0
 13
-10.195683118717509
 23
27.6503139365179
 33
0.0
210
0.0
220
0.0
230
-1.0
  0
SOLID
  5
31199
  8
HATCH
  6
CONTINUOUS
 10
9.1974421800112278
 20
27.6503139365179
 30
0.0
 11
9.1974421800112278
 21
27.65029562566945
 31
0.0
 12
9.2599421800112296
 22
27.65029562566945
 32
0.0
 13
9.2599421800112296
 23
27.65029562566945
 33
0.0
  0
SOLID
  5
3119A
  8
HATCH
  6
CONTINUOUS
 10
-9.1974421800112278
 20
27.6503139365179
 30
0.0
 11
-9.2599421800112296
 21
27.6503139365179
 31
0.0
 12
-9.2599421800112296
 22
27.65029562566945
 32
0.0
 13
-9.2599421800112296
 23
27.65029562566945
 33
0.0
210
0.0
220
0.0
230
-1.0
  0
SOLID
  5
3119B
  8
HATCH
  6
CONTINUOUS
 10
9.3349604908597197
 20
27.6503139365179
 30
0.0
 11
9.3349421800112662
 21
27.65029562566945
 31
0.0
 12
9.8143596062596394
 22
27.65029562566945
 32
0.0
 13
9.8143596062596394
 23
27.65029562566945
 33
0.0
  0
SOLID
  5
3119C
  8
HATCH
  6
CONTINUOUS
 10
-9.3349604908597197
 20
27.6503139365179
 30
0.0
 11
-9.8143770339013301
 21
27.6503139365179
 31
0.0
 12
-9.8143596062596394
 22
27.65029562566945
 32
0.0
 13
-9.8143596062596394
 23
27.65029562566945
 33
0.0
210
0.0
220
0.0
230
-1.0
  0
SOLID
  5
3119D
  8
HATCH
  6
CONTINUOUS
 10
9.8155660591075389
 20
27.6503139365179
 30
0.0
 11
9.815585297922345
 21
27.65029562566945
 31
0.0
 12
9.8924779238437122
 22
27.65029562566945
 32
0.0
 13
9.8924779238437122
 23
27.65029562566945
 33
0.0
  0
SOLID
  5
3119E
  8
HATCH
  6
CONTINUOUS
 10
-9.8155660591075389
 20
27.6503139365179
 30
0.0
 11
-9.892495351485401
 21
27.6503139365179
 31
0.0
 12
-9.8924779238437122
 22
27.65029562566945
 32
0.0
 13
-9.8924779238437122
 23
27.65029562566945
 33
0.0
210
0.0
220
0.0
230
-1.0
  0
SOLID
  5
3119F
  8
HATCH
  6
CONTINUOUS
 10
9.8976432959581118
 20
27.6503139365179
 30
0.0
 11
9.8976625347729197
 21
27.65029562566945
 31
0.0
 12
9.9705962414277352
 22
27.65029562566945
 32
0.0
 13
9.9705962414277352
 23
27.65029562566945
 33
0.0
  0
SOLID
  5
311A0
  8
HATCH
  6
CONTINUOUS
 10
-9.8976432959581118
 20
27.6503139365179
 30
0.0
 11
-9.970613669069424
 21
27.6503139365179
 31
0.0
 12
-9.9705962414277352
 22
27.65029562566945
 32
0.0
 13
-9.9705962414277352
 23
27.65029562566945
 33
0.0
210
0.0
220
0.0
230
-1.0
  0
SOLID
  5
311A1
  8
HATCH
  6
CONTINUOUS
 10
9.9797205328087912
 20
27.6503139365179
 30
0.0
 11
9.9797397716235992
 21
27.65029562566945
 31
0.0
 12
10.048714559011749
 22
27.65029562566945
 32
0.0
 13
10.048714559011749
 23
27.65029562566945
 33
0.0
  0
SOLID
  5
311A2
  8
HATCH
  6
CONTINUOUS
 10
-9.9797205328087912
 20
27.6503139365179
 30
0.0
 11
-10.04873198665342
 21
27.6503139365179
 31
0.0
 12
-10.048714559011749
 22
27.65029562566945
 32
0.0
 13
-10.048714559011749
 23
27.65029562566945
 33
0.0
210
0.0
220
0.0
230
-1.0
  0
SOLID
  5
311A3
  8
HATCH
  6
CONTINUOUS
 10
10.061797769659449
 20
27.6503139365179
 30
0.0
 11
10.061817008474261
 21
27.65029562566945
 31
0.0
 12
10.12683287659566
 22
27.65029562566945
 32
0.0
 13
10.12683287659566
 23
27.65029562566945
 33
0.0
  0
SOLID
  5
311A4
  8
HATCH
  6
CONTINUOUS
 10
-10.061797769659449
 20
27.6503139365179
 30
0.0
 11
-10.12685030423734
 21
27.6503139365179
 31
0.0
 12
-10.12683287659566
 22
27.65029562566945
 32
0.0
 13
-10.12683287659566
 23
27.65029562566945
 33
0.0
210
0.0
220
0.0
230
-1.0
  0
SOLID
  5
311A5
  8
HATCH
  6
CONTINUOUS
 10
10.143875006510219
 20
27.6503139365179
 30
0.0
 11
10.14389424532502
 21
27.65029562566945
 31
0.0
 12
10.194942180011241
 22
27.65029562566945
 32
0.0
 13
10.194942180011241
 23
27.65029562566945
 33
0.0
  0
SOLID
  5
311A6
  8
HATCH
  6
CONTINUOUS
 10
-10.143875006510219
 20
27.6503139365179
 30
0.0
 11
-10.195683118717509
 21
27.6503139365179
 31
0.0
 12
-10.194942180011241
 22
27.65029562566945
 32
0.0
 13
-10.194942180011241
 23
27.65029562566945
 33
0.0
210
0.0
220
0.0
230
-1.0
  0
SOLID
  5
311A7
  8
HATCH
  6
CONTINUOUS
 10
8.4474421800113397
 20
27.65029562566945
 30
0.0
 11
8.4474421800113397
 21
27.65029562566945
 31
0.0
 12
9.1974421800112278
 22
27.65029562566945
 32
0.0
 13
9.1974421800112278
 23
27.65029562566945
 33
0.0
  0
SOLID
  5
311A8
  8
HATCH
  6
CONTINUOUS
 10
9.2599421800112296
 20
27.65029562566945
 30
0.0
 11
9.2599421800112296
 21
27.65029562566945
 31
0.0
 12
9.3349421800112662
 22
27.65029562566945
 32
0.0
 13
9.3349421800112662
 23
27.65029562566945
 33
0.0
  0
SOLID
  5
311A9
  8
HATCH
  6
CONTINUOUS
 10
8.4474421800113397
 20
27.65029562566945
 30
0.0
 11
8.4474421800113397
 21
27.649066003680101
 31
0.0
 12
9.8131892939445926
 22
27.649066003680101
 32
0.0
 13
9.8131892939445926
 23
27.649066003680101
 33
0.0
  0
SOLID
  5
311AA
  8
HATCH
  6
CONTINUOUS
 10
-8.4474421800113397
 20
27.65029562566945
 30
0.0
 11
-9.8143596062596394
 21
27.65029562566945
 31
0.0
 12
-9.8131892939445926
 22
27.649066003680101
 32
0.0
 13
-9.8131892939445926
 23
27.649066003680101
 33
0.0
210
0.0
220
0.0
230
-1.0
  0
SOLID
  5
311AB
  8
HATCH
  6
CONTINUOUS
 10
9.815585297922345
 20
27.65029562566945
 30
0.0
 11
9.8168772353113862
 21
27.649066003680101
 31
0.0
 12
9.8913076115286636
 22
27.649066003680101
 32
0.0
 13
9.8913076115286636
 23
27.649066003680101
 33
0.0
  0
SOLID
  5
311AC
  8
HATCH
  6
CONTINUOUS
 10
-9.815585297922345
 20
27.65029562566945
 30
0.0
 11
-9.8924779238437122
 21
27.65029562566945
 31
0.0
 12
-9.8913076115286636
 22
27.649066003680101
 32
0.0
 13
-9.8913076115286636
 23
27.649066003680101
 33
0.0
210
0.0
220
0.0
230
-1.0
  0
SOLID
  5
311AD
  8
HATCH
  6
CONTINUOUS
 10
9.8976625347729197
 20
27.65029562566945
 30
0.0
 11
9.8989544721619431
 21
27.649066003680101
 31
0.0
 12
9.9694259291126848
 22
27.649066003680101
 32
0.0
 13
9.9694259291126848
 23
27.649066003680101
 33
0.0
  0
SOLID
  5
311AE
  8
HATCH
  6
CONTINUOUS
 10
-9.8976625347729197
 20
27.65029562566945
 30
0.0
 11
-9.9705962414277352
 21
27.65029562566945
 31
0.0
 12
-9.9694259291126848
 22
27.649066003680101
 32
0.0
 13
-9.9694259291126848
 23
27.649066003680101
 33
0.0
210
0.0
220
0.0
230
-1.0
  0
SOLID
  5
311AF
  8
HATCH
  6
CONTINUOUS
 10
9.9797397716235992
 20
27.65029562566945
 30
0.0
 11
9.9810317090126368
 21
27.649066003680101
 31
0.0
 12
10.047544246696701
 22
27.649066003680101
 32
0.0
 13
10.047544246696701
 23
27.649066003680101
 33
0.0
  0
SOLID
  5
311B0
  8
HATCH
  6
CONTINUOUS
 10
-9.9797397716235992
 20
27.65029562566945
 30
0.0
 11
-10.048714559011749
 21
27.65029562566945
 31
0.0
 12
-10.047544246696701
 22
27.649066003680101
 32
0.0
 13
-10.047544246696701
 23
27.649066003680101
 33
0.0
210
0.0
220
0.0
230
-1.0
  0
SOLID
  5
311B1
  8
HATCH
  6
CONTINUOUS
 10
10.061817008474261
 20
27.65029562566945
 30
0.0
 11
10.0631089458633
 21
27.649066003680101
 31
0.0
 12
10.12566256428061
 22
27.649066003680101
 32
0.0
 13
10.12566256428061
 23
27.649066003680101
 33
0.0
  0
SOLID
  5
311B2
  8
HATCH
  6
CONTINUOUS
 10
-10.061817008474261
 20
27.65029562566945
 30
0.0
 11
-10.12683287659566
 21
27.65029562566945
 31
0.0
 12
-10.12566256428061
 22
27.649066003680101
 32
0.0
 13
-10.12566256428061
 23
27.649066003680101
 33
0.0
210
0.0
220
0.0
230
-1.0
  0
SOLID
  5
311B3
  8
HATCH
  6
CONTINUOUS
 10
-10.14389424532502
 20
27.65029562566945
 30
0.0
 11
-10.194942180011241
 21
27.65029562566945
 31
0.0
 12
-10.14518618271406
 22
27.649066003680101
 32
0.0
 13
-10.14518618271406
 23
27.649066003680101
 33
0.0
210
0.0
220
0.0
230
-1.0
  0
SOLID
  5
311B4
  8
HATCH
  6
CONTINUOUS
 10
8.4474421800113397
 20
27.649066003680101
 30
0.0
 11
8.4474421800113397
 21
27.648930680124689
 31
0.0
 12
9.8130604975951528
 22
27.648930680124689
 32
0.0
 13
9.8130604975951528
 23
27.648930680124689
 33
0.0
  0
SOLID
  5
311B5
  8
HATCH
  6
CONTINUOUS
 10
-8.4474421800113397
 20
27.649066003680101
 30
0.0
 11
-9.8131892939445926
 21
27.649066003680101
 31
0.0
 12
-9.8130604975951528
 22
27.648930680124689
 32
0.0
 13
-9.8130604975951528
 23
27.648930680124689
 33
0.0
210
0.0
220
0.0
230
-1.0
  0
SOLID
  5
311B6
  8
HATCH
  6
CONTINUOUS
 10
9.8168772353113862
 20
27.649066003680101
 30
0.0
 11
9.8170194168617861
 21
27.648930680124689
 31
0.0
 12
9.891178815179229
 22
27.648930680124689
 32
0.0
 13
9.891178815179229
 23
27.648930680124689
 33
0.0
  0
SOLID
  5
311B7
  8
HATCH
  6
CONTINUOUS
 10
-9.8168772353113862
 20
27.649066003680101
 30
0.0
 11
-9.8913076115286636
 21
27.649066003680101
 31
0.0
 12
-9.891178815179229
 22
27.648930680124689
 32
0.0
 13
-9.891178815179229
 23
27.648930680124689
 33
0.0
210
0.0
220
0.0
230
-1.0
  0
SOLID
  5
311B8
  8
HATCH
  6
CONTINUOUS
 10
9.8989544721619431
 20
27.649066003680101
 30
0.0
 11
9.8990966537123448
 21
27.648930680124689
 31
0.0
 12
9.9692971327632485
 22
27.648930680124689
 32
0.0
 13
9.9692971327632485
 23
27.648930680124689
 33
0.0
  0
SOLID
  5
311B9
  8
HATCH
  6
CONTINUOUS
 10
-9.8989544721619431
 20
27.649066003680101
 30
0.0
 11
-9.9694259291126848
 21
27.649066003680101
 31
0.0
 12
-9.9692971327632485
 22
27.648930680124689
 32
0.0
 13
-9.9692971327632485
 23
27.648930680124689
 33
0.0
210
0.0
220
0.0
230
-1.0
  0
SOLID
  5
311BA
  8
HATCH
  6
CONTINUOUS
 10
9.9810317090126368
 20
27.649066003680101
 30
0.0
 11
9.9811738905630385
 21
27.648930680124689
 31
0.0
 12
10.047415450347261
 22
27.648930680124689
 32
0.0
 13
10.047415450347261
 23
27.648930680124689
 33
0.0
  0
SOLID
  5
311BB
  8
HATCH
  6
CONTINUOUS
 10
-9.9810317090126368
 20
27.649066003680101
 30
0.0
 11
-10.047544246696701
 21
27.649066003680101
 31
0.0
 12
-10.047415450347261
 22
27.648930680124689
 32
0.0
 13
-10.047415450347261
 23
27.648930680124689
 33
0.0
210
0.0
220
0.0
230
-1.0
  0
SOLID
  5
311BC
  8
HATCH
  6
CONTINUOUS
 10
10.0631089458633
 20
27.649066003680101
 30
0.0
 11
10.063251127413711
 21
27.648930680124689
 31
0.0
 12
10.12553376793117
 22
27.648930680124689
 32
0.0
 13
10.12553376793117
 23
27.648930680124689
 33
0.0
  0
SOLID
  5
311BD
  8
HATCH
  6
CONTINUOUS
 10
-10.0631089458633
 20
27.649066003680101
 30
0.0
 11
-10.12566256428061
 21
27.649066003680101
 31
0.0
 12
-10.12553376793117
 22
27.648930680124689
 32
0.0
 13
-10.12553376793117
 23
27.648930680124689
 33
0.0
210
0.0
220
0.0
230
-1.0
  0
SOLID
  5
311BE
  8
HATCH
  6
CONTINUOUS
 10
8.4474421800113397
 20
27.648930680124689
 30
0.0
 11
8.4474421800113397
 21
27.6485718937268
 31
0.0
 12
9.7346006993418221
 22
27.6485718937268
 32
0.0
 13
9.7346006993418221
 23
27.6485718937268
 33
0.0
  0
SOLID
  5
311BF
  8
HATCH
  6
CONTINUOUS
 10
-8.4474421800113397
 20
27.648930680124689
 30
0.0
 11
-9.7349421800111369
 21
27.648930680124689
 31
0.0
 12
-9.7346006993418221
 22
27.6485718937268
 32
0.0
 13
-9.7346006993418221
 23
27.6485718937268
 33
0.0
210
0.0
220
0.0
230
-1.0
  0
SOLID
  5
311C0
  8
HATCH
  6
CONTINUOUS
 10
9.7349421800111369
 20
27.648930680124689
 30
0.0
 11
9.7353191491659867
 21
27.6485718937268
 31
0.0
 12
9.8127190169258398
 22
27.6485718937268
 32
0.0
 13
9.8127190169258398
 23
27.6485718937268
 33
0.0
  0
SOLID
  5
311C1
  8
HATCH
  6
CONTINUOUS
 10
-9.7349421800111369
 20
27.648930680124689
 30
0.0
 11
-9.8130604975951528
 21
27.648930680124689
 31
0.0
 12
-9.8127190169258398
 22
27.6485718937268
 32
0.0
 13
-9.8127190169258398
 23
27.6485718937268
 33
0.0
210
0.0
220
0.0
230
-1.0
  0
SOLID
  5
311C2
  8
HATCH
  6
CONTINUOUS
 10
9.8170194168617861
 20
27.648930680124689
 30
0.0
 11
9.8173963860166449
 21
27.6485718937268
 31
0.0
 12
9.8908373345099125
 22
27.6485718937268
 32
0.0
 13
9.8908373345099125
 23
27.6485718937268
 33
0.0
  0
SOLID
  5
311C3
  8
HATCH
  6
CONTINUOUS
 10
-9.8170194168617861
 20
27.648930680124689
 30
0.0
 11
-9.891178815179229
 21
27.648930680124689
 31
0.0
 12
-9.8908373345099125
 22
27.6485718937268
 32
0.0
 13
-9.8908373345099125
 23
27.6485718937268
 33
0.0
210
0.0
220
0.0
230
-1.0
  0
SOLID
  5
311C4
  8
HATCH
  6
CONTINUOUS
 10
9.8990966537123448
 20
27.648930680124689
 30
0.0
 11
9.8994736228671982
 21
27.6485718937268
 31
0.0
 12
9.9689556520939302
 22
27.6485718937268
 32
0.0
 13
9.9689556520939302
 23
27.6485718937268
 33
0.0
  0
SOLID
  5
311C5
  8
HATCH
  6
CONTINUOUS
 10
-9.8990966537123448
 20
27.648930680124689
 30
0.0
 11
-9.9692971327632485
 21
27.648930680124689
 31
0.0
 12
-9.9689556520939302
 22
27.6485718937268
 32
0.0
 13
-9.9689556520939302
 23
27.6485718937268
 33
0.0
210
0.0
220
0.0
230
-1.0
  0
SOLID
  5
311C6
  8
HATCH
  6
CONTINUOUS
 10
9.9811738905630385
 20
27.648930680124689
 30
0.0
 11
9.9815508597178901
 21
27.6485718937268
 31
0.0
 12
10.04707396967795
 22
27.6485718937268
 32
0.0
 13
10.04707396967795
 23
27.6485718937268
 33
0.0
  0
SOLID
  5
311C7
  8
HATCH
  6
CONTINUOUS
 10
-9.9811738905630385
 20
27.648930680124689
 30
0.0
 11
-10.047415450347261
 21
27.648930680124689
 31
0.0
 12
-10.04707396967795
 22
27.6485718937268
 32
0.0
 13
-10.04707396967795
 23
27.6485718937268
 33
0.0
210
0.0
220
0.0
230
-1.0
  0
SOLID
  5
311C8
  8
HATCH
  6
CONTINUOUS
 10
10.063251127413711
 20
27.648930680124689
 30
0.0
 11
10.063628096568561
 21
27.6485718937268
 31
0.0
 12
10.125192287261861
 22
27.6485718937268
 32
0.0
 13
10.125192287261861
 23
27.6485718937268
 33
0.0
  0
SOLID
  5
311C9
  8
HATCH
  6
CONTINUOUS
 10
-10.063251127413711
 20
27.648930680124689
 30
0.0
 11
-10.12553376793117
 21
27.648930680124689
 31
0.0
 12
-10.125192287261861
 22
27.6485718937268
 32
0.0
 13
-10.125192287261861
 23
27.6485718937268
 33
0.0
210
0.0
220
0.0
230
-1.0
  0
SOLID
  5
311CA
  8
HATCH
  6
CONTINUOUS
 10
8.4474421800113397
 20
27.6485718937268
 30
0.0
 11
8.4474421800113397
 21
27.647088960419119
 31
0.0
 12
9.7331892939445623
 22
27.647088960419119
 32
0.0
 13
9.7331892939445623
 23
27.647088960419119
 33
0.0
  0
SOLID
  5
311CB
  8
HATCH
  6
CONTINUOUS
 10
-8.4474421800113397
 20
27.6485718937268
 30
0.0
 11
-9.7346006993418221
 21
27.6485718937268
 31
0.0
 12
-9.7331892939445623
 22
27.647088960419119
 32
0.0
 13
-9.7331892939445623
 23
27.647088960419119
 33
0.0
210
0.0
220
0.0
230
-1.0
  0
SOLID
  5
311CC
  8
HATCH
  6
CONTINUOUS
 10
9.7353191491659867
 20
27.6485718937268
 30
0.0
 11
9.7368772353113275
 21
27.647088960419119
 31
0.0
 12
9.8113076115285676
 22
27.647088960419119
 32
0.0
 13
9.8113076115285676
 23
27.647088960419119
 33
0.0
  0
SOLID
  5
311CD
  8
HATCH
  6
CONTINUOUS
 10
-9.7353191491659867
 20
27.6485718937268
 30
0.0
 11
-9.8127190169258398
 21
27.6485718937268
 31
0.0
 12
-9.8113076115285676
 22
27.647088960419119
 32
0.0
 13
-9.8113076115285676
 23
27.647088960419119
 33
0.0
210
0.0
220
0.0
230
-1.0
  0
SOLID
  5
311CE
  8
HATCH
  6
CONTINUOUS
 10
9.8173963860166449
 20
27.6485718937268
 30
0.0
 11
9.8189544721620035
 21
27.647088960419119
 31
0.0
 12
9.8894259291126421
 22
27.647088960419119
 32
0.0
 13
9.8894259291126421
 23
27.647088960419119
 33
0.0
  0
SOLID
  5
311CF
  8
HATCH
  6
CONTINUOUS
 10
-9.8173963860166449
 20
27.6485718937268
 30
0.0
 11
-9.8908373345099125
 21
27.6485718937268
 31
0.0
 12
-9.8894259291126421
 22
27.647088960419119
 32
0.0
 13
-9.8894259291126421
 23
27.647088960419119
 33
0.0
210
0.0
220
0.0
230
-1.0
  0
SOLID
  5
311D0
  8
HATCH
  6
CONTINUOUS
 10
9.8994736228671982
 20
27.6485718937268
 30
0.0
 11
9.9010317090125408
 21
27.647088960419119
 31
0.0
 12
9.9675442466966633
 22
27.647088960419119
 32
0.0
 13
9.9675442466966633
 23
27.647088960419119
 33
0.0
  0
SOLID
  5
311D1
  8
HATCH
  6
CONTINUOUS
 10
-9.8994736228671982
 20
27.6485718937268
 30
0.0
 11
-9.9689556520939302
 21
27.6485718937268
 31
0.0
 12
-9.9675442466966633
 22
27.647088960419119
 32
0.0
 13
-9.9675442466966633
 23
27.647088960419119
 33
0.0
210
0.0
220
0.0
230
-1.0
  0
SOLID
  5
311D2
  8
HATCH
  6
CONTINUOUS
 10
9.9815508597178901
 20
27.6485718937268
 30
0.0
 11
9.9831089458632505
 21
27.647088960419119
 31
0.0
 12
10.04566256428067
 22
27.647088960419119
 32
0.0
 13
10.04566256428067
 23
27.647088960419119
 33
0.0
  0
SOLID
  5
311D3
  8
HATCH
  6
CONTINUOUS
 10
-9.9815508597178901
 20
27.6485718937268
 30
0.0
 11
-10.04707396967795
 21
27.6485718937268
 31
0.0
 12
-10.04566256428067
 22
27.647088960419119
 32
0.0
 13
-10.04566256428067
 23
27.647088960419119
 33
0.0
210
0.0
220
0.0
230
-1.0
  0
SOLID
  5
311D4
  8
HATCH
  6
CONTINUOUS
 10
-10.063628096568561
 20
27.6485718937268
 30
0.0
 11
-10.125192287261861
 21
27.6485718937268
 31
0.0
 12
-10.065186182713919
 22
27.647088960419119
 32
0.0
 13
-10.065186182713919
 23
27.647088960419119
 33
0.0
210
0.0
220
0.0
230
-1.0
  0
SOLID
  5
311D5
  8
HATCH
  6
CONTINUOUS
 10
8.4474421800113397
 20
27.647088960419119
 30
0.0
 11
8.4474421800113397
 21
27.64695363686371
 31
0.0
 12
9.7330604975951225
 22
27.64695363686371
 32
0.0
 13
9.7330604975951225
 23
27.64695363686371
 33
0.0
  0
SOLID
  5
311D6
  8
HATCH
  6
CONTINUOUS
 10
-8.4474421800113397
 20
27.647088960419119
 30
0.0
 11
-9.7331892939445623
 21
27.647088960419119
 31
0.0
 12
-9.7330604975951225
 22
27.64695363686371
 32
0.0
 13
-9.7330604975951225
 23
27.64695363686371
 33
0.0
210
0.0
220
0.0
230
-1.0
  0
SOLID
  5
311D7
  8
HATCH
  6
CONTINUOUS
 10
9.7368772353113275
 20
27.647088960419119
 30
0.0
 11
9.7370194168617346
 21
27.64695363686371
 31
0.0
 12
9.8111788151791277
 22
27.64695363686371
 32
0.0
 13
9.8111788151791277
 23
27.64695363686371
 33
0.0
  0
SOLID
  5
311D8
  8
HATCH
  6
CONTINUOUS
 10
-9.7368772353113275
 20
27.647088960419119
 30
0.0
 11
-9.8113076115285676
 21
27.647088960419119
 31
0.0
 12
-9.8111788151791277
 22
27.64695363686371
 32
0.0
 13
-9.8111788151791277
 23
27.64695363686371
 33
0.0
210
0.0
220
0.0
230
-1.0
  0
SOLID
  5
311D9
  8
HATCH
  6
CONTINUOUS
 10
9.8189544721620035
 20
27.647088960419119
 30
0.0
 11
9.8190966537124122
 21
27.64695363686371
 31
0.0
 12
9.8892971327632022
 22
27.64695363686371
 32
0.0
 13
9.8892971327632022
 23
27.64695363686371
 33
0.0
  0
SOLID
  5
311DA
  8
HATCH
  6
CONTINUOUS
 10
-9.8189544721620035
 20
27.647088960419119
 30
0.0
 11
-9.8894259291126421
 21
27.647088960419119
 31
0.0
 12
-9.8892971327632022
 22
27.64695363686371
 32
0.0
 13
-9.8892971327632022
 23
27.64695363686371
 33
0.0
210
0.0
220
0.0
230
-1.0
  0
SOLID
  5
311DB
  8
HATCH
  6
CONTINUOUS
 10
9.9010317090125408
 20
27.647088960419119
 30
0.0
 11
9.9011738905629443
 21
27.64695363686371
 31
0.0
 12
9.9674154503472234
 22
27.64695363686371
 32
0.0
 13
9.9674154503472234
 23
27.64695363686371
 33
0.0
  0
SOLID
  5
311DC
  8
HATCH
  6
CONTINUOUS
 10
-9.9010317090125408
 20
27.647088960419119
 30
0.0
 11
-9.9675442466966633
 21
27.647088960419119
 31
0.0
 12
-9.9674154503472234
 22
27.64695363686371
 32
0.0
 13
-9.9674154503472234
 23
27.64695363686371
 33
0.0
210
0.0
220
0.0
230
-1.0
  0
SOLID
  5
311DD
  8
HATCH
  6
CONTINUOUS
 10
9.9831089458632505
 20
27.647088960419119
 30
0.0
 11
9.9832511274136557
 21
27.64695363686371
 31
0.0
 12
10.04553376793123
 22
27.64695363686371
 32
0.0
 13
10.04553376793123
 23
27.64695363686371
 33
0.0
  0
SOLID
  5
311DE
  8
HATCH
  6
CONTINUOUS
 10
-9.9831089458632505
 20
27.647088960419119
 30
0.0
 11
-10.04566256428067
 21
27.647088960419119
 31
0.0
 12
-10.04553376793123
 22
27.64695363686371
 32
0.0
 13
-10.04553376793123
 23
27.64695363686371
 33
0.0
210
0.0
220
0.0
230
-1.0
  0
SOLID
  5
311DF
  8
HATCH
  6
CONTINUOUS
 10
8.4474421800113397
 20
27.64695363686371
 30
0.0
 11
8.4474421800113397
 21
27.6465948504657
 31
0.0
 12
9.6546006993416622
 22
27.6465948504657
 32
0.0
 13
9.6546006993416622
 23
27.6465948504657
 33
0.0
  0
SOLID
  5
311E0
  8
HATCH
  6
CONTINUOUS
 10
-8.4474421800113397
 20
27.64695363686371
 30
0.0
 11
-9.6549421800110906
 21
27.64695363686371
 31
0.0
 12
-9.6546006993416622
 22
27.6465948504657
 32
0.0
 13
-9.6546006993416622
 23
27.6465948504657
 33
0.0
210
0.0
220
0.0
230
-1.0
  0
SOLID
  5
311E1
  8
HATCH
  6
CONTINUOUS
 10
9.6549421800110906
 20
27.64695363686371
 30
0.0
 11
9.6553191491660648
 21
27.6465948504657
 31
0.0
 12
9.7327190169256994
 22
27.6465948504657
 32
0.0
 13
9.7327190169256994
 23
27.6465948504657
 33
0.0
  0
SOLID
  5
311E2
  8
HATCH
  6
CONTINUOUS
 10
-9.6549421800110906
 20
27.64695363686371
 30
0.0
 11
-9.7330604975951225
 21
27.64695363686371
 31
0.0
 12
-9.7327190169256994
 22
27.6465948504657
 32
0.0
 13
-9.7327190169256994
 23
27.6465948504657
 33
0.0
210
0.0
220
0.0
230
-1.0
  0
SOLID
  5
311E3
  8
HATCH
  6
CONTINUOUS
 10
9.7370194168617346
 20
27.64695363686371
 30
0.0
 11
9.7373963860167034
 21
27.6465948504657
 31
0.0
 12
9.8108373345097046
 22
27.6465948504657
 32
0.0
 13
9.8108373345097046
 23
27.6465948504657
 33
0.0
  0
SOLID
  5
311E4
  8
HATCH
  6
CONTINUOUS
 10
-9.7370194168617346
 20
27.64695363686371
 30
0.0
 11
-9.8111788151791277
 21
27.64695363686371
 31
0.0
 12
-9.8108373345097046
 22
27.6465948504657
 32
0.0
 13
-9.8108373345097046
 23
27.6465948504657
 33
0.0
210
0.0
220
0.0
230
-1.0
  0
SOLID
  5
311E5
  8
HATCH
  6
CONTINUOUS
 10
9.8190966537124122
 20
27.64695363686371
 30
0.0
 11
9.8194736228673865
 21
27.6465948504657
 31
0.0
 12
9.8889556520937791
 22
27.6465948504657
 32
0.0
 13
9.8889556520937791
 23
27.6465948504657
 33
0.0
  0
SOLID
  5
311E6
  8
HATCH
  6
CONTINUOUS
 10
-9.8190966537124122
 20
27.64695363686371
 30
0.0
 11
-9.8892971327632022
 21
27.64695363686371
 31
0.0
 12
-9.8889556520937791
 22
27.6465948504657
 32
0.0
 13
-9.8889556520937791
 23
27.6465948504657
 33
0.0
210
0.0
220
0.0
230
-1.0
  0
SOLID
  5
311E7
  8
HATCH
  6
CONTINUOUS
 10
9.9011738905629443
 20
27.64695363686371
 30
0.0
 11
9.9015508597179114
 21
27.6465948504657
 31
0.0
 12
9.9670739696778003
 22
27.6465948504657
 32
0.0
 13
9.9670739696778003
 23
27.6465948504657
 33
0.0
  0
SOLID
  5
311E8
  8
HATCH
  6
CONTINUOUS
 10
-9.9011738905629443
 20
27.64695363686371
 30
0.0
 11
-9.9674154503472234
 21
27.64695363686371
 31
0.0
 12
-9.9670739696778003
 22
27.6465948504657
 32
0.0
 13
-9.9670739696778003
 23
27.6465948504657
 33
0.0
210
0.0
220
0.0
230
-1.0
  0
SOLID
  5
311E9
  8
HATCH
  6
CONTINUOUS
 10
9.9832511274136557
 20
27.64695363686371
 30
0.0
 11
9.9836280965686317
 21
27.6465948504657
 31
0.0
 12
10.045192287261809
 22
27.6465948504657
 32
0.0
 13
10.045192287261809
 23
27.6465948504657
 33
0.0
  0
SOLID
  5
311EA
  8
HATCH
  6
CONTINUOUS
 10
-9.9832511274136557
 20
27.64695363686371
 30
0.0
 11
-10.04553376793123
 21
27.64695363686371
 31
0.0
 12
-10.045192287261809
 22
27.6465948504657
 32
0.0
 13
-10.045192287261809
 23
27.6465948504657
 33
0.0
210
0.0
220
0.0
230
-1.0
  0
SOLID
  5
311EB
  8
HATCH
  6
CONTINUOUS
 10
8.4474421800113397
 20
27.6465948504657
 30
0.0
 11
8.4474421800113397
 21
27.64511191715814
 31
0.0
 12
9.6531892939444877
 22
27.64511191715814
 32
0.0
 13
9.6531892939444877
 23
27.64511191715814
 33
0.0
  0
SOLID
  5
311EC
  8
HATCH
  6
CONTINUOUS
 10
-8.4474421800113397
 20
27.6465948504657
 30
0.0
 11
-9.6546006993416622
 21
27.6465948504657
 31
0.0
 12
-9.6531892939444877
 22
27.64511191715814
 32
0.0
 13
-9.6531892939444877
 23
27.64511191715814
 33
0.0
210
0.0
220
0.0
230
-1.0
  0
SOLID
  5
311ED
  8
HATCH
  6
CONTINUOUS
 10
9.6553191491660648
 20
27.6465948504657
 30
0.0
 11
9.6568772353112955
 21
27.64511191715814
 31
0.0
 12
9.7313076115285462
 22
27.64511191715814
 32
0.0
 13
9.7313076115285462
 23
27.64511191715814
 33
0.0
  0
SOLID
  5
311EE
  8
HATCH
  6
CONTINUOUS
 10
-9.6553191491660648
 20
27.6465948504657
 30
0.0
 11
-9.7327190169256994
 21
27.6465948504657
 31
0.0
 12
-9.7313076115285462
 22
27.64511191715814
 32
0.0
 13
-9.7313076115285462
 23
27.64511191715814
 33
0.0
210
0.0
220
0.0
230
-1.0
  0
SOLID
  5
311EF
  8
HATCH
  6
CONTINUOUS
 10
9.7373963860167034
 20
27.6465948504657
 30
0.0
 11
9.738954472161927
 21
27.64511191715814
 31
0.0
 12
9.8094259291125407
 22
27.64511191715814
 32
0.0
 13
9.8094259291125407
 23
27.64511191715814
 33
0.0
  0
SOLID
  5
311F0
  8
HATCH
  6
CONTINUOUS
 10
-9.7373963860167034
 20
27.6465948504657
 30
0.0
 11
-9.8108373345097046
 21
27.6465948504657
 31
0.0
 12
-9.8094259291125407
 22
27.64511191715814
 32
0.0
 13
-9.8094259291125407
 23
27.64511191715814
 33
0.0
210
0.0
220
0.0
230
-1.0
  0
SOLID
  5
311F1
  8
HATCH
  6
CONTINUOUS
 10
9.8194736228673865
 20
27.6465948504657
 30
0.0
 11
9.8210317090126278
 21
27.64511191715814
 31
0.0
 12
9.8875442466966152
 22
27.64511191715814
 32
0.0
 13
9.8875442466966152
 23
27.64511191715814
 33
0.0
  0
SOLID
  5
311F2
  8
HATCH
  6
CONTINUOUS
 10
-9.8194736228673865
 20
27.6465948504657
 30
0.0
 11
-9.8889556520937791
 21
27.6465948504657
 31
0.0
 12
-9.8875442466966152
 22
27.64511191715814
 32
0.0
 13
-9.8875442466966152
 23
27.64511191715814
 33
0.0
210
0.0
220
0.0
230
-1.0
  0
SOLID
  5
311F3
  8
HATCH
  6
CONTINUOUS
 10
9.9015508597179114
 20
27.6465948504657
 30
0.0
 11
9.9031089458631367
 21
27.64511191715814
 31
0.0
 12
9.9656625642806365
 22
27.64511191715814
 32
0.0
 13
9.9656625642806365
 23
27.64511191715814
 33
0.0
  0
SOLID
  5
311F4
  8
HATCH
  6
CONTINUOUS
 10
-9.9015508597179114
 20
27.6465948504657
 30
0.0
 11
-9.9670739696778003
 21
27.6465948504657
 31
0.0
 12
-9.9656625642806365
 22
27.64511191715814
 32
0.0
 13
-9.9656625642806365
 23
27.64511191715814
 33
0.0
210
0.0
220
0.0
230
-1.0
  0
SOLID
  5
311F5
  8
HATCH
  6
CONTINUOUS
 10
-9.9836280965686317
 20
27.6465948504657
 30
0.0
 11
-10.045192287261809
 21
27.6465948504657
 31
0.0
 12
-9.9851861827138695
 22
27.64511191715814
 32
0.0
 13
-9.9851861827138695
 23
27.64511191715814
 33
0.0
210
0.0
220
0.0
230
-1.0
  0
SOLID
  5
311F6
  8
HATCH
  6
CONTINUOUS
 10
8.4474421800113397
 20
27.64511191715814
 30
0.0
 11
8.4474421800113397
 21
27.644976593602731
 31
0.0
 12
9.6530604975950531
 22
27.644976593602731
 32
0.0
 13
9.6530604975950531
 23
27.644976593602731
 33
0.0
  0
SOLID
  5
311F7
  8
HATCH
  6
CONTINUOUS
 10
-8.4474421800113397
 20
27.64511191715814
 30
0.0
 11
-9.6531892939444877
 21
27.64511191715814
 31
0.0
 12
-9.6530604975950531
 22
27.644976593602731
 32
0.0
 13
-9.6530604975950531
 23
27.644976593602731
 33
0.0
210
0.0
220
0.0
230
-1.0
  0
SOLID
  5
311F8
  8
HATCH
  6
CONTINUOUS
 10
9.6568772353112955
 20
27.64511191715814
 30
0.0
 11
9.6570194168616936
 21
27.644976593602731
 31
0.0
 12
9.7311788151791152
 22
27.644976593602731
 32
0.0
 13
9.7311788151791152
 23
27.644976593602731
 33
0.0
  0
SOLID
  5
311F9
  8
HATCH
  6
CONTINUOUS
 10
-9.6568772353112955
 20
27.64511191715814
 30
0.0
 11
-9.7313076115285462
 21
27.64511191715814
 31
0.0
 12
-9.7311788151791152
 22
27.644976593602731
 32
0.0
 13
-9.7311788151791152
 23
27.644976593602731
 33
0.0
210
0.0
220
0.0
230
-1.0
  0
SOLID
  5
311FA
  8
HATCH
  6
CONTINUOUS
 10
9.738954472161927
 20
27.64511191715814
 30
0.0
 11
9.7390966537123234
 21
27.644976593602731
 31
0.0
 12
9.8092971327631062
 22
27.644976593602731
 32
0.0
 13
9.8092971327631062
 23
27.644976593602731
 33
0.0
  0
SOLID
  5
311FB
  8
HATCH
  6
CONTINUOUS
 10
-9.738954472161927
 20
27.64511191715814
 30
0.0
 11
-9.8094259291125407
 21
27.64511191715814
 31
0.0
 12
-9.8092971327631062
 22
27.644976593602731
 32
0.0
 13
-9.8092971327631062
 23
27.644976593602731
 33
0.0
210
0.0
220
0.0
230
-1.0
  0
SOLID
  5
311FC
  8
HATCH
  6
CONTINUOUS
 10
9.8210317090126278
 20
27.64511191715814
 30
0.0
 11
9.8211738905630241
 21
27.644976593602731
 31
0.0
 12
9.8874154503471825
 22
27.644976593602731
 32
0.0
 13
9.8874154503471825
 23
27.644976593602731
 33
0.0
  0
SOLID
  5
311FD
  8
HATCH
  6
CONTINUOUS
 10
-9.8210317090126278
 20
27.64511191715814
 30
0.0
 11
-9.8875442466966152
 21
27.64511191715814
 31
0.0
 12
-9.8874154503471825
 22
27.644976593602731
 32
0.0
 13
-9.8874154503471825
 23
27.644976593602731
 33
0.0
210
0.0
220
0.0
230
-1.0
  0
SOLID
  5
311FE
  8
HATCH
  6
CONTINUOUS
 10
9.9031089458631367
 20
27.64511191715814
 30
0.0
 11
9.9032511274135366
 21
27.644976593602731
 31
0.0
 12
9.9655337679312037
 22
27.644976593602731
 32
0.0
 13
9.9655337679312037
 23
27.644976593602731
 33
0.0
  0
SOLID
  5
311FF
  8
HATCH
  6
CONTINUOUS
 10
-9.9031089458631367
 20
27.64511191715814
 30
0.0
 11
-9.9656625642806365
 21
27.64511191715814
 31
0.0
 12
-9.9655337679312037
 22
27.644976593602731
 32
0.0
 13
-9.9655337679312037
 23
27.644976593602731
 33
0.0
210
0.0
220
0.0
230
-1.0
  0
SOLID
  5
31200
  8
HATCH
  6
CONTINUOUS
 10
8.4474421800113397
 20
27.644976593602731
 30
0.0
 11
8.4474421800113397
 21
27.644617807204721
 31
0.0
 12
9.5746006993416302
 22
27.644617807204721
 32
0.0
 13
9.5746006993416302
 23
27.644617807204721
 33
0.0
  0
SOLID
  5
31201
  8
HATCH
  6
CONTINUOUS
 10
-8.4474421800113397
 20
27.644976593602731
 30
0.0
 11
-9.5749421800110568
 21
27.644976593602731
 31
0.0
 12
-9.5746006993416302
 22
27.644617807204721
 32
0.0
 13
-9.5746006993416302
 23
27.644617807204721
 33
0.0
210
0.0
220
0.0
230
-1.0
  0
SOLID
  5
31202
  8
HATCH
  6
CONTINUOUS
 10
9.5749421800110568
 20
27.644976593602731
 30
0.0
 11
9.5753191491660292
 21
27.644617807204721
 31
0.0
 12
9.6527190169256194
 22
27.644617807204721
 32
0.0
 13
9.6527190169256194
 23
27.644617807204721
 33
0.0
  0
SOLID
  5
31203
  8
HATCH
  6
CONTINUOUS
 10
-9.5749421800110568
 20
27.644976593602731
 30
0.0
 11
-9.6530604975950531
 21
27.644976593602731
 31
0.0
 12
-9.6527190169256194
 22
27.644617807204721
 32
0.0
 13
-9.6527190169256194
 23
27.644617807204721
 33
0.0
210
0.0
220
0.0
230
-1.0
  0
SOLID
  5
31204
  8
HATCH
  6
CONTINUOUS
 10
9.6570194168616936
 20
27.644976593602731
 30
0.0
 11
9.6573963860166696
 21
27.644617807204721
 31
0.0
 12
9.7308373345096904
 22
27.644617807204721
 32
0.0
 13
9.7308373345096904
 23
27.644617807204721
 33
0.0
  0
SOLID
  5
31205
  8
HATCH
  6
CONTINUOUS
 10
-9.6570194168616936
 20
27.644976593602731
 30
0.0
 11
-9.7311788151791152
 21
27.644976593602731
 31
0.0
 12
-9.7308373345096904
 22
27.644617807204721
 32
0.0
 13
-9.7308373345096904
 23
27.644617807204721
 33
0.0
210
0.0
220
0.0
230
-1.0
  0
SOLID
  5
31206
  8
HATCH
  6
CONTINUOUS
 10
9.7390966537123234
 20
27.644976593602731
 30
0.0
 11
9.7394736228672993
 21
27.644617807204721
 31
0.0
 12
9.8089556520936796
 22
27.644617807204721
 32
0.0
 13
9.8089556520936796
 23
27.644617807204721
 33
0.0
  0
SOLID
  5
31207
  8
HATCH
  6
CONTINUOUS
 10
-9.7390966537123234
 20
27.644976593602731
 30
0.0
 11
-9.8092971327631062
 21
27.644976593602731
 31
0.0
 12
-9.8089556520936796
 22
27.644617807204721
 32
0.0
 13
-9.8089556520936796
 23
27.644617807204721
 33
0.0
210
0.0
220
0.0
230
-1.0
  0
SOLID
  5
31208
  8
HATCH
  6
CONTINUOUS
 10
9.8211738905630241
 20
27.644976593602731
 30
0.0
 11
9.8215508597180037
 21
27.644617807204721
 31
0.0
 12
9.8870739696777576
 22
27.644617807204721
 32
0.0
 13
9.8870739696777576
 23
27.644617807204721
 33
0.0
  0
SOLID
  5
31209
  8
HATCH
  6
CONTINUOUS
 10
-9.8211738905630241
 20
27.644976593602731
 30
0.0
 11
-9.8874154503471825
 21
27.644976593602731
 31
0.0
 12
-9.8870739696777576
 22
27.644617807204721
 32
0.0
 13
-9.8870739696777576
 23
27.644617807204721
 33
0.0
210
0.0
220
0.0
230
-1.0
  0
SOLID
  5
3120A
  8
HATCH
  6
CONTINUOUS
 10
9.9032511274135366
 20
27.644976593602731
 30
0.0
 11
9.9036280965685091
 21
27.644617807204721
 31
0.0
 12
9.9651922872617753
 22
27.644617807204721
 32
0.0
 13
9.9651922872617753
 23
27.644617807204721
 33
0.0
  0
SOLID
  5
3120B
  8
HATCH
  6
CONTINUOUS
 10
-9.9032511274135366
 20
27.644976593602731
 30
0.0
 11
-9.9655337679312037
 21
27.644976593602731
 31
0.0
 12
-9.9651922872617753
 22
27.644617807204721
 32
0.0
 13
-9.9651922872617753
 23
27.644617807204721
 33
0.0
210
0.0
220
0.0
230
-1.0
  0
SOLID
  5
3120C
  8
HATCH
  6
CONTINUOUS
 10
8.4474421800113397
 20
27.644617807204721
 30
0.0
 11
8.4474421800113397
 21
27.643134873897171
 31
0.0
 12
9.5731892939444876
 22
27.643134873897171
 32
0.0
 13
9.5731892939444876
 23
27.643134873897171
 33
0.0
  0
SOLID
  5
3120D
  8
HATCH
  6
CONTINUOUS
 10
-8.4474421800113397
 20
27.644617807204721
 30
0.0
 11
-9.5746006993416302
 21
27.644617807204721
 31
0.0
 12
-9.5731892939444876
 22
27.643134873897171
 32
0.0
 13
-9.5731892939444876
 23
27.643134873897171
 33
0.0
210
0.0
220
0.0
230
-1.0
  0
SOLID
  5
3120E
  8
HATCH
  6
CONTINUOUS
 10
9.5753191491660292
 20
27.644617807204721
 30
0.0
 11
9.5768772353112475
 21
27.643134873897171
 31
0.0
 12
9.6513076115284502
 22
27.643134873897171
 32
0.0
 13
9.6513076115284502
 23
27.643134873897171
 33
0.0
  0
SOLID
  5
3120F
  8
HATCH
  6
CONTINUOUS
 10
-9.5753191491660292
 20
27.644617807204721
 30
0.0
 11
-9.6527190169256194
 21
27.644617807204721
 31
0.0
 12
-9.6513076115284502
 22
27.643134873897171
 32
0.0
 13
-9.6513076115284502
 23
27.643134873897171
 33
0.0
210
0.0
220
0.0
230
-1.0
  0
SOLID
  5
31210
  8
HATCH
  6
CONTINUOUS
 10
9.6573963860166696
 20
27.644617807204721
 30
0.0
 11
9.6589544721618878
 21
27.643134873897171
 31
0.0
 12
9.729425929112546
 22
27.643134873897171
 32
0.0
 13
9.729425929112546
 23
27.643134873897171
 33
0.0
  0
SOLID
  5
31211
  8
HATCH
  6
CONTINUOUS
 10
-9.6573963860166696
 20
27.644617807204721
 30
0.0
 11
-9.7308373345096904
 21
27.644617807204721
 31
0.0
 12
-9.729425929112546
 22
27.643134873897171
 32
0.0
 13
-9.729425929112546
 23
27.643134873897171
 33
0.0
210
0.0
220
0.0
230
-1.0
  0
SOLID
  5
31212
  8
HATCH
  6
CONTINUOUS
 10
9.7394736228672993
 20
27.644617807204721
 30
0.0
 11
9.7410317090125105
 21
27.643134873897171
 31
0.0
 12
9.8075442466965281
 22
27.643134873897171
 32
0.0
 13
9.8075442466965281
 23
27.643134873897171
 33
0.0
  0
SOLID
  5
31213
  8
HATCH
  6
CONTINUOUS
 10
-9.7394736228672993
 20
27.644617807204721
 30
0.0
 11
-9.8089556520936796
 21
27.644617807204721
 31
0.0
 12
-9.8075442466965281
 22
27.643134873897171
 32
0.0
 13
-9.8075442466965281
 23
27.643134873897171
 33
0.0
210
0.0
220
0.0
230
-1.0
  0
SOLID
  5
31214
  8
HATCH
  6
CONTINUOUS
 10
9.8215508597180037
 20
27.644617807204721
 30
0.0
 11
9.8231089458632344
 21
27.643134873897171
 31
0.0
 12
9.8856625642806044
 22
27.643134873897171
 32
0.0
 13
9.8856625642806044
 23
27.643134873897171
 33
0.0
  0
SOLID
  5
31215
  8
HATCH
  6
CONTINUOUS
 10
-9.8215508597180037
 20
27.644617807204721
 30
0.0
 11
-9.8870739696777576
 21
27.644617807204721
 31
0.0
 12
-9.8856625642806044
 22
27.643134873897171
 32
0.0
 13
-9.8856625642806044
 23
27.643134873897171
 33
0.0
210
0.0
220
0.0
230
-1.0
  0
SOLID
  5
31216
  8
HATCH
  6
CONTINUOUS
 10
-9.9036280965685091
 20
27.644617807204721
 30
0.0
 11
-9.9651922872617753
 21
27.644617807204721
 31
0.0
 12
-9.9051861827137202
 22
27.643134873897171
 32
0.0
 13
-9.9051861827137202
 23
27.643134873897171
 33
0.0
210
0.0
220
0.0
230
-1.0
  0
SOLID
  5
31217
  8
HATCH
  6
CONTINUOUS
 10
8.4474421800113397
 20
27.643134873897171
 30
0.0
 11
8.4474421800113397
 21
27.642640763943739
 31
0.0
 12
9.5727190169256193
 22
27.642640763943739
 32
0.0
 13
9.5727190169256193
 23
27.642640763943739
 33
0.0
  0
SOLID
  5
31218
  8
HATCH
  6
CONTINUOUS
 10
-8.4474421800113397
 20
27.643134873897171
 30
0.0
 11
-9.5731892939444876
 21
27.643134873897171
 31
0.0
 12
-9.5727190169256193
 22
27.642640763943739
 32
0.0
 13
-9.5727190169256193
 23
27.642640763943739
 33
0.0
210
0.0
220
0.0
230
-1.0
  0
SOLID
  5
31219
  8
HATCH
  6
CONTINUOUS
 10
9.5768772353112475
 20
27.643134873897171
 30
0.0
 11
9.5773963860166322
 21
27.642640763943739
 31
0.0
 12
9.6508373345095784
 22
27.642640763943739
 32
0.0
 13
9.6508373345095784
 23
27.642640763943739
 33
0.0
  0
SOLID
  5
3121A
  8
HATCH
  6
CONTINUOUS
 10
-9.5768772353112475
 20
27.643134873897171
 30
0.0
 11
-9.6513076115284502
 21
27.643134873897171
 31
0.0
 12
-9.6508373345095784
 22
27.642640763943739
 32
0.0
 13
-9.6508373345095784
 23
27.642640763943739
 33
0.0
210
0.0
220
0.0
230
-1.0
  0
SOLID
  5
3121B
  8
HATCH
  6
CONTINUOUS
 10
9.6589544721618878
 20
27.643134873897171
 30
0.0
 11
9.6594736228672726
 21
27.642640763943739
 31
0.0
 12
9.7289556520936795
 22
27.642640763943739
 32
0.0
 13
9.7289556520936795
 23
27.642640763943739
 33
0.0
  0
SOLID
  5
3121C
  8
HATCH
  6
CONTINUOUS
 10
-9.6589544721618878
 20
27.643134873897171
 30
0.0
 11
-9.729425929112546
 21
27.643134873897171
 31
0.0
 12
-9.7289556520936795
 22
27.642640763943739
 32
0.0
 13
-9.7289556520936795
 23
27.642640763943739
 33
0.0
210
0.0
220
0.0
230
-1.0
  0
SOLID
  5
3121D
  8
HATCH
  6
CONTINUOUS
 10
9.7410317090125105
 20
27.643134873897171
 30
0.0
 11
9.7415508597178917
 21
27.642640763943739
 31
0.0
 12
9.8070739696776581
 22
27.642640763943739
 32
0.0
 13
9.8070739696776581
 23
27.642640763943739
 33
0.0
  0
SOLID
  5
3121E
  8
HATCH
  6
CONTINUOUS
 10
-9.7410317090125105
 20
27.643134873897171
 30
0.0
 11
-9.8075442466965281
 21
27.643134873897171
 31
0.0
 12
-9.8070739696776581
 22
27.642640763943739
 32
0.0
 13
-9.8070739696776581
 23
27.642640763943739
 33
0.0
210
0.0
220
0.0
230
-1.0
  0
SOLID
  5
3121F
  8
HATCH
  6
CONTINUOUS
 10
9.8231089458632344
 20
27.643134873897171
 30
0.0
 11
9.8236280965686245
 21
27.642640763943739
 31
0.0
 12
9.8851922872617344
 22
27.642640763943739
 32
0.0
 13
9.8851922872617344
 23
27.642640763943739
 33
0.0
  0
SOLID
  5
31220
  8
HATCH
  6
CONTINUOUS
 10
-9.8231089458632344
 20
27.643134873897171
 30
0.0
 11
-9.8856625642806044
 21
27.643134873897171
 31
0.0
 12
-9.8851922872617344
 22
27.642640763943739
 32
0.0
 13
-9.8851922872617344
 23
27.642640763943739
 33
0.0
210
0.0
220
0.0
230
-1.0
  0
SOLID
  5
31221
  8
HATCH
  6
CONTINUOUS
 10
8.4474421800113397
 20
27.642640763943739
 30
0.0
 11
8.4474421800113397
 21
27.641157830636249
 31
0.0
 12
9.5713076115285265
 22
27.641157830636249
 32
0.0
 13
9.5713076115285265
 23
27.641157830636249
 33
0.0
  0
SOLID
  5
31222
  8
HATCH
  6
CONTINUOUS
 10
-8.4474421800113397
 20
27.642640763943739
 30
0.0
 11
-9.5727190169256193
 21
27.642640763943739
 31
0.0
 12
-9.5713076115285265
 22
27.641157830636249
 32
0.0
 13
-9.5713076115285265
 23
27.641157830636249
 33
0.0
210
0.0
220
0.0
230
-1.0
  0
SOLID
  5
31223
  8
HATCH
  6
CONTINUOUS
 10
9.5773963860166322
 20
27.642640763943739
 30
0.0
 11
9.5789544721617954
 21
27.641157830636249
 31
0.0
 12
9.6494259291124607
 22
27.641157830636249
 32
0.0
 13
9.6494259291124607
 23
27.641157830636249
 33
0.0
  0
SOLID
  5
31224
  8
HATCH
  6
CONTINUOUS
 10
-9.5773963860166322
 20
27.642640763943739
 30
0.0
 11
-9.6508373345095784
 21
27.642640763943739
 31
0.0
 12
-9.6494259291124607
 22
27.641157830636249
 32
0.0
 13
-9.6494259291124607
 23
27.641157830636249
 33
0.0
210
0.0
220
0.0
230
-1.0
  0
SOLID
  5
31225
  8
HATCH
  6
CONTINUOUS
 10
9.6594736228672726
 20
27.642640763943739
 30
0.0
 11
9.6610317090124358
 21
27.641157830636249
 31
0.0
 12
9.7275442466965831
 22
27.641157830636249
 32
0.0
 13
9.7275442466965831
 23
27.641157830636249
 33
0.0
  0
SOLID
  5
31226
  8
HATCH
  6
CONTINUOUS
 10
-9.6594736228672726
 20
27.642640763943739
 30
0.0
 11
-9.7289556520936795
 21
27.642640763943739
 31
0.0
 12
-9.7275442466965831
 22
27.641157830636249
 32
0.0
 13
-9.7275442466965831
 23
27.641157830636249
 33
0.0
210
0.0
220
0.0
230
-1.0
  0
SOLID
  5
31227
  8
HATCH
  6
CONTINUOUS
 10
9.7415508597178917
 20
27.642640763943739
 30
0.0
 11
9.7431089458630495
 21
27.641157830636249
 31
0.0
 12
9.8056625642805528
 22
27.641157830636249
 32
0.0
 13
9.8056625642805528
 23
27.641157830636249
 33
0.0
  0
SOLID
  5
31228
  8
HATCH
  6
CONTINUOUS
 10
-9.7415508597178917
 20
27.642640763943739
 30
0.0
 11
-9.8070739696776581
 21
27.642640763943739
 31
0.0
 12
-9.8056625642805528
 22
27.641157830636249
 32
0.0
 13
-9.8056625642805528
 23
27.641157830636249
 33
0.0
210
0.0
220
0.0
230
-1.0
  0
SOLID
  5
31229
  8
HATCH
  6
CONTINUOUS
 10
-9.8236280965686245
 20
27.642640763943739
 30
0.0
 11
-9.8851922872617344
 21
27.642640763943739
 31
0.0
 12
-9.8251861827137983
 22
27.641157830636249
 32
0.0
 13
-9.8251861827137983
 23
27.641157830636249
 33
0.0
210
0.0
220
0.0
230
-1.0
  0
SOLID
  5
3122A
  8
HATCH
  6
CONTINUOUS
 10
8.4474421800113397
 20
27.641157830636249
 30
0.0
 11
8.4474421800113397
 21
27.64066372068282
 31
0.0
 12
9.5708373345096671
 22
27.64066372068282
 32
0.0
 13
9.5708373345096671
 23
27.64066372068282
 33
0.0
  0
SOLID
  5
3122B
  8
HATCH
  6
CONTINUOUS
 10
-8.4474421800113397
 20
27.641157830636249
 30
0.0
 11
-9.5713076115285265
 21
27.641157830636249
 31
0.0
 12
-9.5708373345096671
 22
27.64066372068282
 32
0.0
 13
-9.5708373345096671
 23
27.64066372068282
 33
0.0
210
0.0
220
0.0
230
-1.0
  0
SOLID
  5
3122C
  8
HATCH
  6
CONTINUOUS
 10
9.5789544721617954
 20
27.641157830636249
 30
0.0
 11
9.5794736228671766
 21
27.64066372068282
 31
0.0
 12
9.6489556520935924
 22
27.64066372068282
 32
0.0
 13
9.6489556520935924
 23
27.64066372068282
 33
0.0
  0
SOLID
  5
3122D
  8
HATCH
  6
CONTINUOUS
 10
-9.5789544721617954
 20
27.641157830636249
 30
0.0
 11
-9.6494259291124607
 21
27.641157830636249
 31
0.0
 12
-9.6489556520935924
 22
27.64066372068282
 32
0.0
 13
-9.6489556520935924
 23
27.64066372068282
 33
0.0
210
0.0
220
0.0
230
-1.0
  0
SOLID
  5
3122E
  8
HATCH
  6
CONTINUOUS
 10
9.6610317090124358
 20
27.641157830636249
 30
0.0
 11
9.6615508597178117
 21
27.64066372068282
 31
0.0
 12
9.7270739696777255
 22
27.64066372068282
 32
0.0
 13
9.7270739696777255
 23
27.64066372068282
 33
0.0
  0
SOLID
  5
3122F
  8
HATCH
  6
CONTINUOUS
 10
-9.6610317090124358
 20
27.641157830636249
 30
0.0
 11
-9.7275442466965831
 21
27.641157830636249
 31
0.0
 12
-9.7270739696777255
 22
27.64066372068282
 32
0.0
 13
-9.7270739696777255
 23
27.64066372068282
 33
0.0
210
0.0
220
0.0
230
-1.0
  0
SOLID
  5
31230
  8
HATCH
  6
CONTINUOUS
 10
9.7431089458630495
 20
27.641157830636249
 30
0.0
 11
9.7436280965684201
 21
27.64066372068282
 31
0.0
 12
9.8051922872616935
 22
27.64066372068282
 32
0.0
 13
9.8051922872616935
 23
27.64066372068282
 33
0.0
  0
SOLID
  5
31231
  8
HATCH
  6
CONTINUOUS
 10
-9.7431089458630495
 20
27.641157830636249
 30
0.0
 11
-9.8056625642805528
 21
27.641157830636249
 31
0.0
 12
-9.8051922872616935
 22
27.64066372068282
 32
0.0
 13
-9.8051922872616935
 23
27.64066372068282
 33
0.0
210
0.0
220
0.0
230
-1.0
  0
SOLID
  5
31232
  8
HATCH
  6
CONTINUOUS
 10
8.4474421800113397
 20
27.64066372068282
 30
0.0
 11
8.4474421800113397
 21
27.63918078737527
 31
0.0
 12
9.5694259291125139
 22
27.63918078737527
 32
0.0
 13
9.5694259291125139
 23
27.63918078737527
 33
0.0
  0
SOLID
  5
31233
  8
HATCH
  6
CONTINUOUS
 10
-8.4474421800113397
 20
27.64066372068282
 30
0.0
 11
-9.5708373345096671
 21
27.64066372068282
 31
0.0
 12
-9.5694259291125139
 22
27.63918078737527
 32
0.0
 13
-9.5694259291125139
 23
27.63918078737527
 33
0.0
210
0.0
220
0.0
230
-1.0
  0
SOLID
  5
31234
  8
HATCH
  6
CONTINUOUS
 10
9.5794736228671766
 20
27.64066372068282
 30
0.0
 11
9.5810317090124038
 21
27.63918078737527
 31
0.0
 12
9.6475442466964143
 22
27.63918078737527
 32
0.0
 13
9.6475442466964143
 23
27.63918078737527
 33
0.0
  0
SOLID
  5
31235
  8
HATCH
  6
CONTINUOUS
 10
-9.5794736228671766
 20
27.64066372068282
 30
0.0
 11
-9.6489556520935924
 21
27.64066372068282
 31
0.0
 12
-9.6475442466964143
 22
27.63918078737527
 32
0.0
 13
-9.6475442466964143
 23
27.63918078737527
 33
0.0
210
0.0
220
0.0
230
-1.0
  0
SOLID
  5
31236
  8
HATCH
  6
CONTINUOUS
 10
9.6615508597178117
 20
27.64066372068282
 30
0.0
 11
9.6631089458630424
 21
27.63918078737527
 31
0.0
 12
9.7256625642805687
 22
27.63918078737527
 32
0.0
 13
9.7256625642805687
 23
27.63918078737527
 33
0.0
  0
SOLID
  5
31237
  8
HATCH
  6
CONTINUOUS
 10
-9.6615508597178117
 20
27.64066372068282
 30
0.0
 11
-9.7270739696777255
 21
27.64066372068282
 31
0.0
 12
-9.7256625642805687
 22
27.63918078737527
 32
0.0
 13
-9.7256625642805687
 23
27.63918078737527
 33
0.0
210
0.0
220
0.0
230
-1.0
  0
SOLID
  5
31238
  8
HATCH
  6
CONTINUOUS
 10
-9.7436280965684201
 20
27.64066372068282
 30
0.0
 11
-9.8051922872616935
 21
27.64066372068282
 31
0.0
 12
-9.7451861827136455
 22
27.63918078737527
 32
0.0
 13
-9.7451861827136455
 23
27.63918078737527
 33
0.0
210
0.0
220
0.0
230
-1.0
  0
SOLID
  5
31239
  8
HATCH
  6
CONTINUOUS
 10
8.4474421800113397
 20
27.63918078737527
 30
0.0
 11
8.4474421800113397
 21
27.638686677421909
 31
0.0
 12
9.5689556520937114
 22
27.638686677421909
 32
0.0
 13
9.5689556520937114
 23
27.638686677421909
 33
0.0
  0
SOLID
  5
3123A
  8
HATCH
  6
CONTINUOUS
 10
-8.4474421800113397
 20
27.63918078737527
 30
0.0
 11
-9.5694259291125139
 21
27.63918078737527
 31
0.0
 12
-9.5689556520937114
 22
27.638686677421909
 32
0.0
 13
-9.5689556520937114
 23
27.638686677421909
 33
0.0
210
0.0
220
0.0
230
-1.0
  0
SOLID
  5
3123B
  8
HATCH
  6
CONTINUOUS
 10
9.5810317090124038
 20
27.63918078737527
 30
0.0
 11
9.5815508597177157
 21
27.638686677421909
 31
0.0
 12
9.6470739696775993
 22
27.638686677421909
 32
0.0
 13
9.6470739696775993
 23
27.638686677421909
 33
0.0
  0
SOLID
  5
3123C
  8
HATCH
  6
CONTINUOUS
 10
-9.5810317090124038
 20
27.63918078737527
 30
0.0
 11
-9.6475442466964143
 21
27.63918078737527
 31
0.0
 12
-9.6470739696775993
 22
27.638686677421909
 32
0.0
 13
-9.6470739696775993
 23
27.638686677421909
 33
0.0
210
0.0
220
0.0
230
-1.0
  0
SOLID
  5
3123D
  8
HATCH
  6
CONTINUOUS
 10
9.6631089458630424
 20
27.63918078737527
 30
0.0
 11
9.6636280965683561
 21
27.638686677421909
 31
0.0
 12
9.7251922872617662
 22
27.638686677421909
 32
0.0
 13
9.7251922872617662
 23
27.638686677421909
 33
0.0
  0
SOLID
  5
3123E
  8
HATCH
  6
CONTINUOUS
 10
-9.6631089458630424
 20
27.63918078737527
 30
0.0
 11
-9.7256625642805687
 21
27.63918078737527
 31
0.0
 12
-9.7251922872617662
 22
27.638686677421909
 32
0.0
 13
-9.7251922872617662
 23
27.638686677421909
 33
0.0
210
0.0
220
0.0
230
-1.0
  0
SOLID
  5
3123F
  8
HATCH
  6
CONTINUOUS
 10
8.4474421800113397
 20
27.638686677421909
 30
0.0
 11
8.4474421800113397
 21
27.63720374411411
 31
0.0
 12
9.5675442466963396
 22
27.63720374411411
 32
0.0
 13
9.5675442466963396
 23
27.63720374411411
 33
0.0
  0
SOLID
  5
31240
  8
HATCH
  6
CONTINUOUS
 10
-8.4474421800113397
 20
27.638686677421909
 30
0.0
 11
-9.5689556520937114
 21
27.638686677421909
 31
0.0
 12
-9.5675442466963396
 22
27.63720374411411
 32
0.0
 13
-9.5675442466963396
 23
27.63720374411411
 33
0.0
210
0.0
220
0.0
230
-1.0
  0
SOLID
  5
31241
  8
HATCH
  6
CONTINUOUS
 10
9.5815508597177157
 20
27.638686677421909
 30
0.0
 11
9.5831089458631862
 21
27.63720374411411
 31
0.0
 12
9.6456625642802081
 22
27.63720374411411
 32
0.0
 13
9.6456625642802081
 23
27.63720374411411
 33
0.0
  0
SOLID
  5
31242
  8
HATCH
  6
CONTINUOUS
 10
-9.5815508597177157
 20
27.638686677421909
 30
0.0
 11
-9.6470739696775993
 21
27.638686677421909
 31
0.0
 12
-9.6456625642802081
 22
27.63720374411411
 32
0.0
 13
-9.6456625642802081
 23
27.63720374411411
 33
0.0
210
0.0
220
0.0
230
-1.0
  0
SOLID
  5
31243
  8
HATCH
  6
CONTINUOUS
 10
-9.6636280965683561
 20
27.638686677421909
 30
0.0
 11
-9.7251922872617662
 21
27.638686677421909
 31
0.0
 12
-9.6651861827138248
 22
27.63720374411411
 32
0.0
 13
-9.6651861827138248
 23
27.63720374411411
 33
0.0
210
0.0
220
0.0
230
-1.0
  0
SOLID
  5
31244
  8
HATCH
  6
CONTINUOUS
 10
8.4474421800113397
 20
27.63720374411411
 30
0.0
 11
8.4474421800113397
 21
27.636709634160979
 31
0.0
 12
9.5670739696777574
 22
27.636709634160979
 32
0.0
 13
9.5670739696777574
 23
27.636709634160979
 33
0.0
  0
SOLID
  5
31245
  8
HATCH
  6
CONTINUOUS
 10
-8.4474421800113397
 20
27.63720374411411
 30
0.0
 11
-9.5675442466963396
 21
27.63720374411411
 31
0.0
 12
-9.5670739696777574
 22
27.636709634160979
 32
0.0
 13
-9.5670739696777574
 23
27.636709634160979
 33
0.0
210
0.0
220
0.0
230
-1.0
  0
SOLID
  5
31246
  8
HATCH
  6
CONTINUOUS
 10
9.5831089458631862
 20
27.63720374411411
 30
0.0
 11
9.5836280965682583
 21
27.636709634160979
 31
0.0
 12
9.6451922872616151
 22
27.636709634160979
 32
0.0
 13
9.6451922872616151
 23
27.636709634160979
 33
0.0
  0
SOLID
  5
31247
  8
HATCH
  6
CONTINUOUS
 10
-9.5831089458631862
 20
27.63720374411411
 30
0.0
 11
-9.6456625642802081
 21
27.63720374411411
 31
0.0
 12
-9.6451922872616151
 22
27.636709634160979
 32
0.0
 13
-9.6451922872616151
 23
27.636709634160979
 33
0.0
210
0.0
220
0.0
230
-1.0
  0
SOLID
  5
31248
  8
HATCH
  6
CONTINUOUS
 10
8.4474421800113397
 20
27.636709634160979
 30
0.0
 11
8.4474421800113397
 21
27.635226700853131
 31
0.0
 12
9.565662564280327
 22
27.635226700853131
 32
0.0
 13
9.565662564280327
 23
27.635226700853131
 33
0.0
  0
SOLID
  5
31249
  8
HATCH
  6
CONTINUOUS
 10
-8.4474421800113397
 20
27.636709634160979
 30
0.0
 11
-9.5670739696777574
 21
27.636709634160979
 31
0.0
 12
-9.565662564280327
 22
27.635226700853131
 32
0.0
 13
-9.565662564280327
 23
27.635226700853131
 33
0.0
210
0.0
220
0.0
230
-1.0
  0
SOLID
  5
3124A
  8
HATCH
  6
CONTINUOUS
 10
-9.5836280965682583
 20
27.636709634160979
 30
0.0
 11
-9.6451922872616151
 21
27.636709634160979
 31
0.0
 12
-9.5851861827137927
 22
27.635226700853131
 32
0.0
 13
-9.5851861827137927
 23
27.635226700853131
 33
0.0
210
0.0
220
0.0
230
-1.0
  0
SOLID
  5
3124B
  8
HATCH
  6
CONTINUOUS
 10
8.4474421800113397
 20
27.635226700853131
 30
0.0
 11
8.4474421800113397
 21
27.634732590899951
 31
0.0
 12
9.5651922872616861
 22
27.634732590899951
 32
0.0
 13
9.5651922872616861
 23
27.634732590899951
 33
0.0
  0
SOLID
  5
3124C
  8
HATCH
  6
CONTINUOUS
 10
-8.4474421800113397
 20
27.635226700853131
 30
0.0
 11
-9.565662564280327
 21
27.635226700853131
 31
0.0
 12
-9.5651922872616861
 22
27.634732590899951
 32
0.0
 13
-9.5651922872616861
 23
27.634732590899951
 33
0.0
210
0.0
220
0.0
230
-1.0
  0
SOLID
  5
3124D
  8
HATCH
  6
CONTINUOUS
 10
8.4474421800113397
 20
27.634732590899951
 30
0.0
 11
8.4474421800113397
 21
27.630295625669412
 31
0.0
 12
9.3856528581298182
 22
27.630295625669412
 32
0.0
 13
9.3856528581298182
 23
27.630295625669412
 33
0.0
  0
SOLID
  5
3124E
  8
HATCH
  6
CONTINUOUS
 10
-8.4474421800113397
 20
27.634732590899951
 30
0.0
 11
-9.5651922872616861
 21
27.634732590899951
 31
0.0
 12
-9.3856528581298182
 22
27.630295625669412
 32
0.0
 13
-9.3856528581298182
 23
27.630295625669412
 33
0.0
210
0.0
220
0.0
230
-1.0
  0
SOLID
  5
3124F
  8
HATCH
  6
CONTINUOUS
 10
8.4474421800113397
 20
27.630295625669412
 30
0.0
 11
8.4474421800113397
 21
27.587795625669401
 31
0.0
 12
9.3431528581299172
 22
27.587795625669401
 32
0.0
 13
9.3431528581299172
 23
27.587795625669401
 33
0.0
  0
SOLID
  5
31250
  8
HATCH
  6
CONTINUOUS
 10
-8.4474421800113397
 20
27.630295625669412
 30
0.0
 11
-9.3856528581298182
 21
27.630295625669412
 31
0.0
 12
-9.3431528581299172
 22
27.587795625669401
 32
0.0
 13
-9.3431528581299172
 23
27.587795625669401
 33
0.0
210
0.0
220
0.0
230
-1.0
  0
SOLID
  5
31251
  8
HATCH
  6
CONTINUOUS
 10
8.4474421800113397
 20
27.587795625669401
 30
0.0
 11
8.4474421800113397
 21
27.587795625669401
 31
0.0
 12
9.3431528581299172
 22
27.587795625669401
 32
0.0
 13
9.3431528581299172
 23
27.587795625669401
 33
0.0
  0
LINE
  5
31252
  8
HATCH
  6
CONTINUOUS
 10
9.1974421800113415
 20
28.40029562566945
 30
0.0
 11
9.2599421800113362
 21
28.40029562566945
 31
0.0
  0
LINE
  5
31253
  8
HATCH
  6
CONTINUOUS
 10
9.1974421800113415
 20
28.40029562566945
 30
0.0
 11
9.1974421800112314
 21
27.68029562566943
 31
0.0
  0
LINE
  5
31254
  8
HATCH
  6
CONTINUOUS
 10
9.2599421800113362
 20
28.40029562566945
 30
0.0
 11
9.2599421800112314
 21
27.68029562566943
 31
0.0
  0
LINE
  5
31255
  8
HATCH
  6
CONTINUOUS
 10
9.3649421800112442
 20
27.68029562566943
 30
0.0
 11
10.194942180011401
 21
27.68029562566943
 31
0.0
  0
LINE
  5
31256
  8
HATCH
  6
CONTINUOUS
 10
9.1974421800112314
 20
27.68029562566943
 30
0.0
 11
9.1974421800112296
 21
27.676032448685909
 31
0.0
  0
LINE
  5
31257
  8
HATCH
  6
CONTINUOUS
 10
9.2599421800112314
 20
27.68029562566943
 30
0.0
 11
9.2599421800112314
 21
27.676032448685909
 31
0.0
  0
LINE
  5
31258
  8
HATCH
  6
CONTINUOUS
 10
9.3649421800112442
 20
27.68029562566943
 30
0.0
 11
9.3606790030277303
 21
27.676032448685909
 31
0.0
  0
LINE
  5
31259
  8
HATCH
  6
CONTINUOUS
 10
10.194942180011401
 20
27.68029562566943
 30
0.0
 11
10.205416941656059
 21
27.676032448685909
 31
0.0
  0
LINE
  5
3125A
  8
HATCH
  6
CONTINUOUS
 10
9.1974421800112296
 20
27.676032448685909
 30
0.0
 11
9.1974421800112296
 21
27.665666208134429
 31
0.0
  0
LINE
  5
3125B
  8
HATCH
  6
CONTINUOUS
 10
9.2599421800112314
 20
27.676032448685909
 30
0.0
 11
9.2599421800112296
 21
27.665666208134429
 31
0.0
  0
LINE
  5
3125C
  8
HATCH
  6
CONTINUOUS
 10
9.3606790030277303
 20
27.676032448685909
 30
0.0
 11
9.3503127624762321
 21
27.665666208134429
 31
0.0
  0
LINE
  5
3125D
  8
HATCH
  6
CONTINUOUS
 10
10.205416941656059
 20
27.676032448685909
 30
0.0
 11
10.20993760160054
 21
27.665666208134429
 31
0.0
  0
LINE
  5
3125E
  8
HATCH
  6
CONTINUOUS
 10
9.1974421800112296
 20
27.665666208134429
 30
0.0
 11
9.1974421800112296
 21
27.65881589642964
 31
0.0
  0
LINE
  5
3125F
  8
HATCH
  6
CONTINUOUS
 10
9.2599421800112296
 20
27.665666208134429
 30
0.0
 11
9.2599421800112296
 21
27.65881589642964
 31
0.0
  0
LINE
  5
31260
  8
HATCH
  6
CONTINUOUS
 10
9.3503127624762321
 20
27.665666208134429
 30
0.0
 11
9.3434624507714563
 21
27.65881589642964
 31
0.0
  0
LINE
  5
31261
  8
HATCH
  6
CONTINUOUS
 10
10.20993760160054
 20
27.665666208134429
 30
0.0
 11
10.20734492746867
 21
27.65881589642964
 31
0.0
  0
LINE
  5
31262
  8
HATCH
  6
CONTINUOUS
 10
9.1974421800112296
 20
27.65881589642964
 30
0.0
 11
9.1974421800112296
 21
27.656838853168551
 31
0.0
  0
LINE
  5
31263
  8
HATCH
  6
CONTINUOUS
 10
9.2599421800112296
 20
27.65881589642964
 30
0.0
 11
9.2599421800112296
 21
27.656838853168551
 31
0.0
  0
LINE
  5
31264
  8
HATCH
  6
CONTINUOUS
 10
9.3434624507714563
 20
27.65881589642964
 30
0.0
 11
9.3414854075103673
 21
27.656838853168551
 31
0.0
  0
LINE
  5
31265
  8
HATCH
  6
CONTINUOUS
 10
10.20734492746867
 20
27.65881589642964
 30
0.0
 11
10.20659666532506
 21
27.656838853168551
 31
0.0
  0
LINE
  5
31266
  8
HATCH
  6
CONTINUOUS
 10
9.1974421800112296
 20
27.656838853168551
 30
0.0
 11
9.1974421800112278
 21
27.65508931976489
 31
0.0
  0
LINE
  5
31267
  8
HATCH
  6
CONTINUOUS
 10
9.2599421800112296
 20
27.656838853168551
 30
0.0
 11
9.2599421800112296
 21
27.65508931976489
 31
0.0
  0
LINE
  5
31268
  8
HATCH
  6
CONTINUOUS
 10
9.3414854075103673
 20
27.656838853168551
 30
0.0
 11
9.339735874106708
 21
27.65508931976489
 31
0.0
  0
LINE
  5
31269
  8
HATCH
  6
CONTINUOUS
 10
10.13306049759521
 20
27.656838853168551
 30
0.0
 11
10.13139535130991
 21
27.65508931976489
 31
0.0
  0
LINE
  5
3126A
  8
HATCH
  6
CONTINUOUS
 10
10.137019416862071
 20
27.656838853168551
 30
0.0
 11
10.138857613996739
 21
27.65508931976489
 31
0.0
  0
LINE
  5
3126B
  8
HATCH
  6
CONTINUOUS
 10
10.20659666532506
 20
27.656838853168551
 30
0.0
 11
10.20593451005476
 21
27.65508931976489
 31
0.0
  0
LINE
  5
3126C
  8
HATCH
  6
CONTINUOUS
 10
9.1974421800112278
 20
27.65508931976489
 30
0.0
 11
9.1974421800112278
 21
27.654861809907569
 31
0.0
  0
LINE
  5
3126D
  8
HATCH
  6
CONTINUOUS
 10
9.2599421800112296
 20
27.65508931976489
 30
0.0
 11
9.2599421800112296
 21
27.654861809907569
 31
0.0
  0
LINE
  5
3126E
  8
HATCH
  6
CONTINUOUS
 10
9.339735874106708
 20
27.65508931976489
 30
0.0
 11
9.3395083642493848
 21
27.654861809907569
 31
0.0
  0
LINE
  5
3126F
  8
HATCH
  6
CONTINUOUS
 10
10.05327703372599
 20
27.65508931976489
 30
0.0
 11
10.05306049759527
 21
27.654861809907569
 31
0.0
  0
LINE
  5
31270
  8
HATCH
  6
CONTINUOUS
 10
10.056780377145961
 20
27.65508931976489
 30
0.0
 11
10.05701941686192
 21
27.654861809907569
 31
0.0
  0
LINE
  5
31271
  8
HATCH
  6
CONTINUOUS
 10
10.13139535130991
 20
27.65508931976489
 30
0.0
 11
10.13117881517918
 21
27.654861809907569
 31
0.0
  0
LINE
  5
31272
  8
HATCH
  6
CONTINUOUS
 10
10.138857613996739
 20
27.65508931976489
 30
0.0
 11
10.13909665371269
 21
27.654861809907569
 31
0.0
  0
LINE
  5
31273
  8
HATCH
  6
CONTINUOUS
 10
10.20593451005476
 20
27.65508931976489
 30
0.0
 11
10.205446111017469
 21
27.654861809907569
 31
0.0
  0
LINE
  5
31274
  8
HATCH
  6
CONTINUOUS
 10
9.1974421800112278
 20
27.654861809907569
 30
0.0
 11
9.1974421800112278
 21
27.65288476664659
 31
0.0
  0
LINE
  5
31275
  8
HATCH
  6
CONTINUOUS
 10
9.2599421800112296
 20
27.654861809907569
 30
0.0
 11
9.2599421800112296
 21
27.65288476664659
 31
0.0
  0
LINE
  5
31276
  8
HATCH
  6
CONTINUOUS
 10
9.3395083642493848
 20
27.654861809907569
 30
0.0
 11
9.3375313209884077
 21
27.65288476664659
 31
0.0
  0
LINE
  5
31277
  8
HATCH
  6
CONTINUOUS
 10
10.05306049759527
 20
27.654861809907569
 30
0.0
 11
10.05117881517925
 21
27.65288476664659
 31
0.0
  0
LINE
  5
31278
  8
HATCH
  6
CONTINUOUS
 10
10.05701941686192
 20
27.654861809907569
 30
0.0
 11
10.05909665371253
 21
27.65288476664659
 31
0.0
  0
LINE
  5
31279
  8
HATCH
  6
CONTINUOUS
 10
10.13117881517918
 20
27.654861809907569
 30
0.0
 11
10.12929713276316
 21
27.65288476664659
 31
0.0
  0
LINE
  5
3127A
  8
HATCH
  6
CONTINUOUS
 10
10.13909665371269
 20
27.654861809907569
 30
0.0
 11
10.1411738905633
 21
27.65288476664659
 31
0.0
  0
LINE
  5
3127B
  8
HATCH
  6
CONTINUOUS
 10
10.205446111017469
 20
27.654861809907569
 30
0.0
 11
10.20120196073451
 21
27.65288476664659
 31
0.0
  0
LINE
  5
3127C
  8
HATCH
  6
CONTINUOUS
 10
9.1974421800112278
 20
27.65288476664659
 30
0.0
 11
9.1974421800112278
 21
27.650907723385671
 31
0.0
  0
LINE
  5
3127D
  8
HATCH
  6
CONTINUOUS
 10
9.2599421800112296
 20
27.65288476664659
 30
0.0
 11
9.2599421800112296
 21
27.650907723385671
 31
0.0
  0
LINE
  5
3127E
  8
HATCH
  6
CONTINUOUS
 10
9.3375313209884077
 20
27.65288476664659
 30
0.0
 11
9.3355542777274856
 21
27.650907723385671
 31
0.0
  0
LINE
  5
3127F
  8
HATCH
  6
CONTINUOUS
 10
9.9730604975952382
 20
27.65288476664659
 30
0.0
 11
9.9711788151792664
 21
27.650907723385671
 31
0.0
  0
LINE
  5
31280
  8
HATCH
  6
CONTINUOUS
 10
9.9770194168618662
 20
27.65288476664659
 30
0.0
 11
9.9790966537124284
 21
27.650907723385671
 31
0.0
  0
LINE
  5
31281
  8
HATCH
  6
CONTINUOUS
 10
10.05117881517925
 20
27.65288476664659
 30
0.0
 11
10.049297132763281
 21
27.650907723385671
 31
0.0
  0
LINE
  5
31282
  8
HATCH
  6
CONTINUOUS
 10
10.05909665371253
 20
27.65288476664659
 30
0.0
 11
10.06117389056309
 21
27.650907723385671
 31
0.0
  0
LINE
  5
31283
  8
HATCH
  6
CONTINUOUS
 10
10.12929713276316
 20
27.65288476664659
 30
0.0
 11
10.12741545034719
 21
27.650907723385671
 31
0.0
  0
LINE
  5
31284
  8
HATCH
  6
CONTINUOUS
 10
10.1411738905633
 20
27.65288476664659
 30
0.0
 11
10.14325112741386
 21
27.650907723385671
 31
0.0
  0
LINE
  5
31285
  8
HATCH
  6
CONTINUOUS
 10
10.20120196073451
 20
27.65288476664659
 30
0.0
 11
10.196957810451661
 21
27.650907723385671
 31
0.0
  0
LINE
  5
31286
  8
HATCH
  6
CONTINUOUS
 10
9.1974421800112278
 20
27.650907723385671
 30
0.0
 11
9.1974421800112278
 21
27.6503139365179
 31
0.0
  0
LINE
  5
31287
  8
HATCH
  6
CONTINUOUS
 10
9.2599421800112296
 20
27.650907723385671
 30
0.0
 11
9.2599421800112296
 21
27.6503139365179
 31
0.0
  0
LINE
  5
31288
  8
HATCH
  6
CONTINUOUS
 10
9.3355542777274856
 20
27.650907723385671
 30
0.0
 11
9.3349604908597197
 21
27.6503139365179
 31
0.0
  0
LINE
  5
31289
  8
HATCH
  6
CONTINUOUS
 10
9.8930604975952452
 20
27.650907723385671
 30
0.0
 11
9.892495351485401
 21
27.6503139365179
 31
0.0
  0
LINE
  5
3128A
  8
HATCH
  6
CONTINUOUS
 10
9.897019416861756
 20
27.650907723385671
 30
0.0
 11
9.8976432959581118
 21
27.6503139365179
 31
0.0
  0
LINE
  5
3128B
  8
HATCH
  6
CONTINUOUS
 10
9.9711788151792664
 20
27.650907723385671
 30
0.0
 11
9.970613669069424
 21
27.6503139365179
 31
0.0
  0
LINE
  5
3128C
  8
HATCH
  6
CONTINUOUS
 10
9.9790966537124284
 20
27.650907723385671
 30
0.0
 11
9.9797205328087912
 21
27.6503139365179
 31
0.0
  0
LINE
  5
3128D
  8
HATCH
  6
CONTINUOUS
 10
10.049297132763281
 20
27.650907723385671
 30
0.0
 11
10.04873198665342
 21
27.6503139365179
 31
0.0
  0
LINE
  5
3128E
  8
HATCH
  6
CONTINUOUS
 10
10.06117389056309
 20
27.650907723385671
 30
0.0
 11
10.061797769659449
 21
27.6503139365179
 31
0.0
  0
LINE
  5
3128F
  8
HATCH
  6
CONTINUOUS
 10
10.12741545034719
 20
27.650907723385671
 30
0.0
 11
10.12685030423734
 21
27.6503139365179
 31
0.0
  0
LINE
  5
31290
  8
HATCH
  6
CONTINUOUS
 10
10.14325112741386
 20
27.650907723385671
 30
0.0
 11
10.143875006510219
 21
27.6503139365179
 31
0.0
  0
LINE
  5
31291
  8
HATCH
  6
CONTINUOUS
 10
10.196957810451661
 20
27.650907723385671
 30
0.0
 11
10.195683118717509
 21
27.6503139365179
 31
0.0
  0
LINE
  5
31292
  8
HATCH
  6
CONTINUOUS
 10
9.1974421800112278
 20
27.6503139365179
 30
0.0
 11
9.1974421800112278
 21
27.65029562566945
 31
0.0
  0
LINE
  5
31293
  8
HATCH
  6
CONTINUOUS
 10
9.2599421800112296
 20
27.6503139365179
 30
0.0
 11
9.2599421800112296
 21
27.65029562566945
 31
0.0
  0
LINE
  5
31294
  8
HATCH
  6
CONTINUOUS
 10
9.3349604908597197
 20
27.6503139365179
 30
0.0
 11
9.3349421800112662
 21
27.65029562566945
 31
0.0
  0
LINE
  5
31295
  8
HATCH
  6
CONTINUOUS
 10
9.8143770339013301
 20
27.6503139365179
 30
0.0
 11
9.8143596062596394
 21
27.65029562566945
 31
0.0
  0
LINE
  5
31296
  8
HATCH
  6
CONTINUOUS
 10
9.8155660591075389
 20
27.6503139365179
 30
0.0
 11
9.815585297922345
 21
27.65029562566945
 31
0.0
  0
LINE
  5
31297
  8
HATCH
  6
CONTINUOUS
 10
9.892495351485401
 20
27.6503139365179
 30
0.0
 11
9.8924779238437122
 21
27.65029562566945
 31
0.0
  0
LINE
  5
31298
  8
HATCH
  6
CONTINUOUS
 10
9.8976432959581118
 20
27.6503139365179
 30
0.0
 11
9.8976625347729197
 21
27.65029562566945
 31
0.0
  0
LINE
  5
31299
  8
HATCH
  6
CONTINUOUS
 10
9.970613669069424
 20
27.6503139365179
 30
0.0
 11
9.9705962414277352
 21
27.65029562566945
 31
0.0
  0
LINE
  5
3129A
  8
HATCH
  6
CONTINUOUS
 10
9.9797205328087912
 20
27.6503139365179
 30
0.0
 11
9.9797397716235992
 21
27.65029562566945
 31
0.0
  0
LINE
  5
3129B
  8
HATCH
  6
CONTINUOUS
 10
10.04873198665342
 20
27.6503139365179
 30
0.0
 11
10.048714559011749
 21
27.65029562566945
 31
0.0
  0
LINE
  5
3129C
  8
HATCH
  6
CONTINUOUS
 10
10.061797769659449
 20
27.6503139365179
 30
0.0
 11
10.061817008474261
 21
27.65029562566945
 31
0.0
  0
LINE
  5
3129D
  8
HATCH
  6
CONTINUOUS
 10
10.12685030423734
 20
27.6503139365179
 30
0.0
 11
10.12683287659566
 21
27.65029562566945
 31
0.0
  0
LINE
  5
3129E
  8
HATCH
  6
CONTINUOUS
 10
10.143875006510219
 20
27.6503139365179
 30
0.0
 11
10.14389424532502
 21
27.65029562566945
 31
0.0
  0
LINE
  5
3129F
  8
HATCH
  6
CONTINUOUS
 10
10.195683118717509
 20
27.6503139365179
 30
0.0
 11
10.194942180011241
 21
27.65029562566945
 31
0.0
  0
LINE
  5
312A0
  8
HATCH
  6
CONTINUOUS
 10
8.4474421800113397
 20
27.65029562566945
 30
0.0
 11
9.1974421800112278
 21
27.65029562566945
 31
0.0
  0
LINE
  5
312A1
  8
HATCH
  6
CONTINUOUS
 10
9.2599421800112296
 20
27.65029562566945
 30
0.0
 11
9.3349421800112662
 21
27.65029562566945
 31
0.0
  0
LINE
  5
312A2
  8
HATCH
  6
CONTINUOUS
 10
8.4474421800113397
 20
27.65029562566945
 30
0.0
 11
8.4474421800113397
 21
27.649066003680101
 31
0.0
  0
LINE
  5
312A3
  8
HATCH
  6
CONTINUOUS
 10
9.8143596062596394
 20
27.65029562566945
 30
0.0
 11
9.8131892939445926
 21
27.649066003680101
 31
0.0
  0
LINE
  5
312A4
  8
HATCH
  6
CONTINUOUS
 10
9.815585297922345
 20
27.65029562566945
 30
0.0
 11
9.8168772353113862
 21
27.649066003680101
 31
0.0
  0
LINE
  5
312A5
  8
HATCH
  6
CONTINUOUS
 10
9.8924779238437122
 20
27.65029562566945
 30
0.0
 11
9.8913076115286636
 21
27.649066003680101
 31
0.0
  0
LINE
  5
312A6
  8
HATCH
  6
CONTINUOUS
 10
9.8976625347729197
 20
27.65029562566945
 30
0.0
 11
9.8989544721619431
 21
27.649066003680101
 31
0.0
  0
LINE
  5
312A7
  8
HATCH
  6
CONTINUOUS
 10
9.9705962414277352
 20
27.65029562566945
 30
0.0
 11
9.9694259291126848
 21
27.649066003680101
 31
0.0
  0
LINE
  5
312A8
  8
HATCH
  6
CONTINUOUS
 10
9.9797397716235992
 20
27.65029562566945
 30
0.0
 11
9.9810317090126368
 21
27.649066003680101
 31
0.0
  0
LINE
  5
312A9
  8
HATCH
  6
CONTINUOUS
 10
10.048714559011749
 20
27.65029562566945
 30
0.0
 11
10.047544246696701
 21
27.649066003680101
 31
0.0
  0
LINE
  5
312AA
  8
HATCH
  6
CONTINUOUS
 10
10.061817008474261
 20
27.65029562566945
 30
0.0
 11
10.0631089458633
 21
27.649066003680101
 31
0.0
  0
LINE
  5
312AB
  8
HATCH
  6
CONTINUOUS
 10
10.12683287659566
 20
27.65029562566945
 30
0.0
 11
10.12566256428061
 21
27.649066003680101
 31
0.0
  0
LINE
  5
312AC
  8
HATCH
  6
CONTINUOUS
 10
10.194942180011241
 20
27.65029562566945
 30
0.0
 11
10.14518618271406
 21
27.649066003680101
 31
0.0
  0
LINE
  5
312AD
  8
HATCH
  6
CONTINUOUS
 10
10.14518618271406
 20
27.649066003680101
 30
0.0
 11
10.14389424532502
 21
27.65029562566945
 31
0.0
  0
LINE
  5
312AE
  8
HATCH
  6
CONTINUOUS
 10
8.4474421800113397
 20
27.649066003680101
 30
0.0
 11
8.4474421800113397
 21
27.648930680124689
 31
0.0
  0
LINE
  5
312AF
  8
HATCH
  6
CONTINUOUS
 10
9.8131892939445926
 20
27.649066003680101
 30
0.0
 11
9.8130604975951528
 21
27.648930680124689
 31
0.0
  0
LINE
  5
312B0
  8
HATCH
  6
CONTINUOUS
 10
9.8168772353113862
 20
27.649066003680101
 30
0.0
 11
9.8170194168617861
 21
27.648930680124689
 31
0.0
  0
LINE
  5
312B1
  8
HATCH
  6
CONTINUOUS
 10
9.8913076115286636
 20
27.649066003680101
 30
0.0
 11
9.891178815179229
 21
27.648930680124689
 31
0.0
  0
LINE
  5
312B2
  8
HATCH
  6
CONTINUOUS
 10
9.8989544721619431
 20
27.649066003680101
 30
0.0
 11
9.8990966537123448
 21
27.648930680124689
 31
0.0
  0
LINE
  5
312B3
  8
HATCH
  6
CONTINUOUS
 10
9.9694259291126848
 20
27.649066003680101
 30
0.0
 11
9.9692971327632485
 21
27.648930680124689
 31
0.0
  0
LINE
  5
312B4
  8
HATCH
  6
CONTINUOUS
 10
9.9810317090126368
 20
27.649066003680101
 30
0.0
 11
9.9811738905630385
 21
27.648930680124689
 31
0.0
  0
LINE
  5
312B5
  8
HATCH
  6
CONTINUOUS
 10
10.047544246696701
 20
27.649066003680101
 30
0.0
 11
10.047415450347261
 21
27.648930680124689
 31
0.0
  0
LINE
  5
312B6
  8
HATCH
  6
CONTINUOUS
 10
10.0631089458633
 20
27.649066003680101
 30
0.0
 11
10.063251127413711
 21
27.648930680124689
 31
0.0
  0
LINE
  5
312B7
  8
HATCH
  6
CONTINUOUS
 10
10.12566256428061
 20
27.649066003680101
 30
0.0
 11
10.12553376793117
 21
27.648930680124689
 31
0.0
  0
LINE
  5
312B8
  8
HATCH
  6
CONTINUOUS
 10
8.4474421800113397
 20
27.648930680124689
 30
0.0
 11
8.4474421800113397
 21
27.6485718937268
 31
0.0
  0
LINE
  5
312B9
  8
HATCH
  6
CONTINUOUS
 10
9.8130604975951528
 20
27.648930680124689
 30
0.0
 11
9.8127190169258398
 21
27.6485718937268
 31
0.0
  0
LINE
  5
312BA
  8
HATCH
  6
CONTINUOUS
 10
9.8170194168617861
 20
27.648930680124689
 30
0.0
 11
9.8173963860166449
 21
27.6485718937268
 31
0.0
  0
LINE
  5
312BB
  8
HATCH
  6
CONTINUOUS
 10
9.891178815179229
 20
27.648930680124689
 30
0.0
 11
9.8908373345099125
 21
27.6485718937268
 31
0.0
  0
LINE
  5
312BC
  8
HATCH
  6
CONTINUOUS
 10
9.8990966537123448
 20
27.648930680124689
 30
0.0
 11
9.8994736228671982
 21
27.6485718937268
 31
0.0
  0
LINE
  5
312BD
  8
HATCH
  6
CONTINUOUS
 10
9.9692971327632485
 20
27.648930680124689
 30
0.0
 11
9.9689556520939302
 21
27.6485718937268
 31
0.0
  0
LINE
  5
312BE
  8
HATCH
  6
CONTINUOUS
 10
9.9811738905630385
 20
27.648930680124689
 30
0.0
 11
9.9815508597178901
 21
27.6485718937268
 31
0.0
  0
LINE
  5
312BF
  8
HATCH
  6
CONTINUOUS
 10
10.047415450347261
 20
27.648930680124689
 30
0.0
 11
10.04707396967795
 21
27.6485718937268
 31
0.0
  0
LINE
  5
312C0
  8
HATCH
  6
CONTINUOUS
 10
10.063251127413711
 20
27.648930680124689
 30
0.0
 11
10.063628096568561
 21
27.6485718937268
 31
0.0
  0
LINE
  5
312C1
  8
HATCH
  6
CONTINUOUS
 10
10.12553376793117
 20
27.648930680124689
 30
0.0
 11
10.125192287261861
 21
27.6485718937268
 31
0.0
  0
LINE
  5
312C2
  8
HATCH
  6
CONTINUOUS
 10
8.4474421800113397
 20
27.6485718937268
 30
0.0
 11
8.4474421800113397
 21
27.647088960419119
 31
0.0
  0
LINE
  5
312C3
  8
HATCH
  6
CONTINUOUS
 10
9.7346006993418221
 20
27.6485718937268
 30
0.0
 11
9.7331892939445623
 21
27.647088960419119
 31
0.0
  0
LINE
  5
312C4
  8
HATCH
  6
CONTINUOUS
 10
9.7353191491659867
 20
27.6485718937268
 30
0.0
 11
9.7368772353113275
 21
27.647088960419119
 31
0.0
  0
LINE
  5
312C5
  8
HATCH
  6
CONTINUOUS
 10
9.8127190169258398
 20
27.6485718937268
 30
0.0
 11
9.8113076115285676
 21
27.647088960419119
 31
0.0
  0
LINE
  5
312C6
  8
HATCH
  6
CONTINUOUS
 10
9.8173963860166449
 20
27.6485718937268
 30
0.0
 11
9.8189544721620035
 21
27.647088960419119
 31
0.0
  0
LINE
  5
312C7
  8
HATCH
  6
CONTINUOUS
 10
9.8908373345099125
 20
27.6485718937268
 30
0.0
 11
9.8894259291126421
 21
27.647088960419119
 31
0.0
  0
LINE
  5
312C8
  8
HATCH
  6
CONTINUOUS
 10
9.8994736228671982
 20
27.6485718937268
 30
0.0
 11
9.9010317090125408
 21
27.647088960419119
 31
0.0
  0
LINE
  5
312C9
  8
HATCH
  6
CONTINUOUS
 10
9.9689556520939302
 20
27.6485718937268
 30
0.0
 11
9.9675442466966633
 21
27.647088960419119
 31
0.0
  0
LINE
  5
312CA
  8
HATCH
  6
CONTINUOUS
 10
9.9815508597178901
 20
27.6485718937268
 30
0.0
 11
9.9831089458632505
 21
27.647088960419119
 31
0.0
  0
LINE
  5
312CB
  8
HATCH
  6
CONTINUOUS
 10
10.04707396967795
 20
27.6485718937268
 30
0.0
 11
10.04566256428067
 21
27.647088960419119
 31
0.0
  0
LINE
  5
312CC
  8
HATCH
  6
CONTINUOUS
 10
10.125192287261861
 20
27.6485718937268
 30
0.0
 11
10.065186182713919
 21
27.647088960419119
 31
0.0
  0
LINE
  5
312CD
  8
HATCH
  6
CONTINUOUS
 10
10.065186182713919
 20
27.647088960419119
 30
0.0
 11
10.063628096568561
 21
27.6485718937268
 31
0.0
  0
LINE
  5
312CE
  8
HATCH
  6
CONTINUOUS
 10
8.4474421800113397
 20
27.647088960419119
 30
0.0
 11
8.4474421800113397
 21
27.64695363686371
 31
0.0
  0
LINE
  5
312CF
  8
HATCH
  6
CONTINUOUS
 10
9.7331892939445623
 20
27.647088960419119
 30
0.0
 11
9.7330604975951225
 21
27.64695363686371
 31
0.0
  0
LINE
  5
312D0
  8
HATCH
  6
CONTINUOUS
 10
9.7368772353113275
 20
27.647088960419119
 30
0.0
 11
9.7370194168617346
 21
27.64695363686371
 31
0.0
  0
LINE
  5
312D1
  8
HATCH
  6
CONTINUOUS
 10
9.8113076115285676
 20
27.647088960419119
 30
0.0
 11
9.8111788151791277
 21
27.64695363686371
 31
0.0
  0
LINE
  5
312D2
  8
HATCH
  6
CONTINUOUS
 10
9.8189544721620035
 20
27.647088960419119
 30
0.0
 11
9.8190966537124122
 21
27.64695363686371
 31
0.0
  0
LINE
  5
312D3
  8
HATCH
  6
CONTINUOUS
 10
9.8894259291126421
 20
27.647088960419119
 30
0.0
 11
9.8892971327632022
 21
27.64695363686371
 31
0.0
  0
LINE
  5
312D4
  8
HATCH
  6
CONTINUOUS
 10
9.9010317090125408
 20
27.647088960419119
 30
0.0
 11
9.9011738905629443
 21
27.64695363686371
 31
0.0
  0
LINE
  5
312D5
  8
HATCH
  6
CONTINUOUS
 10
9.9675442466966633
 20
27.647088960419119
 30
0.0
 11
9.9674154503472234
 21
27.64695363686371
 31
0.0
  0
LINE
  5
312D6
  8
HATCH
  6
CONTINUOUS
 10
9.9831089458632505
 20
27.647088960419119
 30
0.0
 11
9.9832511274136557
 21
27.64695363686371
 31
0.0
  0
LINE
  5
312D7
  8
HATCH
  6
CONTINUOUS
 10
10.04566256428067
 20
27.647088960419119
 30
0.0
 11
10.04553376793123
 21
27.64695363686371
 31
0.0
  0
LINE
  5
312D8
  8
HATCH
  6
CONTINUOUS
 10
8.4474421800113397
 20
27.64695363686371
 30
0.0
 11
8.4474421800113397
 21
27.6465948504657
 31
0.0
  0
LINE
  5
312D9
  8
HATCH
  6
CONTINUOUS
 10
9.7330604975951225
 20
27.64695363686371
 30
0.0
 11
9.7327190169256994
 21
27.6465948504657
 31
0.0
  0
LINE
  5
312DA
  8
HATCH
  6
CONTINUOUS
 10
9.7370194168617346
 20
27.64695363686371
 30
0.0
 11
9.7373963860167034
 21
27.6465948504657
 31
0.0
  0
LINE
  5
312DB
  8
HATCH
  6
CONTINUOUS
 10
9.8111788151791277
 20
27.64695363686371
 30
0.0
 11
9.8108373345097046
 21
27.6465948504657
 31
0.0
  0
LINE
  5
312DC
  8
HATCH
  6
CONTINUOUS
 10
9.8190966537124122
 20
27.64695363686371
 30
0.0
 11
9.8194736228673865
 21
27.6465948504657
 31
0.0
  0
LINE
  5
312DD
  8
HATCH
  6
CONTINUOUS
 10
9.8892971327632022
 20
27.64695363686371
 30
0.0
 11
9.8889556520937791
 21
27.6465948504657
 31
0.0
  0
LINE
  5
312DE
  8
HATCH
  6
CONTINUOUS
 10
9.9011738905629443
 20
27.64695363686371
 30
0.0
 11
9.9015508597179114
 21
27.6465948504657
 31
0.0
  0
LINE
  5
312DF
  8
HATCH
  6
CONTINUOUS
 10
9.9674154503472234
 20
27.64695363686371
 30
0.0
 11
9.9670739696778003
 21
27.6465948504657
 31
0.0
  0
LINE
  5
312E0
  8
HATCH
  6
CONTINUOUS
 10
9.9832511274136557
 20
27.64695363686371
 30
0.0
 11
9.9836280965686317
 21
27.6465948504657
 31
0.0
  0
LINE
  5
312E1
  8
HATCH
  6
CONTINUOUS
 10
10.04553376793123
 20
27.64695363686371
 30
0.0
 11
10.045192287261809
 21
27.6465948504657
 31
0.0
  0
LINE
  5
312E2
  8
HATCH
  6
CONTINUOUS
 10
8.4474421800113397
 20
27.6465948504657
 30
0.0
 11
8.4474421800113397
 21
27.64511191715814
 31
0.0
  0
LINE
  5
312E3
  8
HATCH
  6
CONTINUOUS
 10
9.6546006993416622
 20
27.6465948504657
 30
0.0
 11
9.6531892939444877
 21
27.64511191715814
 31
0.0
  0
LINE
  5
312E4
  8
HATCH
  6
CONTINUOUS
 10
9.6553191491660648
 20
27.6465948504657
 30
0.0
 11
9.6568772353112955
 21
27.64511191715814
 31
0.0
  0
LINE
  5
312E5
  8
HATCH
  6
CONTINUOUS
 10
9.7327190169256994
 20
27.6465948504657
 30
0.0
 11
9.7313076115285462
 21
27.64511191715814
 31
0.0
  0
LINE
  5
312E6
  8
HATCH
  6
CONTINUOUS
 10
9.7373963860167034
 20
27.6465948504657
 30
0.0
 11
9.738954472161927
 21
27.64511191715814
 31
0.0
  0
LINE
  5
312E7
  8
HATCH
  6
CONTINUOUS
 10
9.8108373345097046
 20
27.6465948504657
 30
0.0
 11
9.8094259291125407
 21
27.64511191715814
 31
0.0
  0
LINE
  5
312E8
  8
HATCH
  6
CONTINUOUS
 10
9.8194736228673865
 20
27.6465948504657
 30
0.0
 11
9.8210317090126278
 21
27.64511191715814
 31
0.0
  0
LINE
  5
312E9
  8
HATCH
  6
CONTINUOUS
 10
9.8889556520937791
 20
27.6465948504657
 30
0.0
 11
9.8875442466966152
 21
27.64511191715814
 31
0.0
  0
LINE
  5
312EA
  8
HATCH
  6
CONTINUOUS
 10
9.9015508597179114
 20
27.6465948504657
 30
0.0
 11
9.9031089458631367
 21
27.64511191715814
 31
0.0
  0
LINE
  5
312EB
  8
HATCH
  6
CONTINUOUS
 10
9.9670739696778003
 20
27.6465948504657
 30
0.0
 11
9.9656625642806365
 21
27.64511191715814
 31
0.0
  0
LINE
  5
312EC
  8
HATCH
  6
CONTINUOUS
 10
10.045192287261809
 20
27.6465948504657
 30
0.0
 11
9.9851861827138695
 21
27.64511191715814
 31
0.0
  0
LINE
  5
312ED
  8
HATCH
  6
CONTINUOUS
 10
9.9851861827138695
 20
27.64511191715814
 30
0.0
 11
9.9836280965686317
 21
27.6465948504657
 31
0.0
  0
LINE
  5
312EE
  8
HATCH
  6
CONTINUOUS
 10
8.4474421800113397
 20
27.64511191715814
 30
0.0
 11
8.4474421800113397
 21
27.644976593602731
 31
0.0
  0
LINE
  5
312EF
  8
HATCH
  6
CONTINUOUS
 10
9.6531892939444877
 20
27.64511191715814
 30
0.0
 11
9.6530604975950531
 21
27.644976593602731
 31
0.0
  0
LINE
  5
312F0
  8
HATCH
  6
CONTINUOUS
 10
9.6568772353112955
 20
27.64511191715814
 30
0.0
 11
9.6570194168616936
 21
27.644976593602731
 31
0.0
  0
LINE
  5
312F1
  8
HATCH
  6
CONTINUOUS
 10
9.7313076115285462
 20
27.64511191715814
 30
0.0
 11
9.7311788151791152
 21
27.644976593602731
 31
0.0
  0
LINE
  5
312F2
  8
HATCH
  6
CONTINUOUS
 10
9.738954472161927
 20
27.64511191715814
 30
0.0
 11
9.7390966537123234
 21
27.644976593602731
 31
0.0
  0
LINE
  5
312F3
  8
HATCH
  6
CONTINUOUS
 10
9.8094259291125407
 20
27.64511191715814
 30
0.0
 11
9.8092971327631062
 21
27.644976593602731
 31
0.0
  0
LINE
  5
312F4
  8
HATCH
  6
CONTINUOUS
 10
9.8210317090126278
 20
27.64511191715814
 30
0.0
 11
9.8211738905630241
 21
27.644976593602731
 31
0.0
  0
LINE
  5
312F5
  8
HATCH
  6
CONTINUOUS
 10
9.8875442466966152
 20
27.64511191715814
 30
0.0
 11
9.8874154503471825
 21
27.644976593602731
 31
0.0
  0
LINE
  5
312F6
  8
HATCH
  6
CONTINUOUS
 10
9.9031089458631367
 20
27.64511191715814
 30
0.0
 11
9.9032511274135366
 21
27.644976593602731
 31
0.0
  0
LINE
  5
312F7
  8
HATCH
  6
CONTINUOUS
 10
9.9656625642806365
 20
27.64511191715814
 30
0.0
 11
9.9655337679312037
 21
27.644976593602731
 31
0.0
  0
LINE
  5
312F8
  8
HATCH
  6
CONTINUOUS
 10
8.4474421800113397
 20
27.644976593602731
 30
0.0
 11
8.4474421800113397
 21
27.644617807204721
 31
0.0
  0
LINE
  5
312F9
  8
HATCH
  6
CONTINUOUS
 10
9.6530604975950531
 20
27.644976593602731
 30
0.0
 11
9.6527190169256194
 21
27.644617807204721
 31
0.0
  0
LINE
  5
312FA
  8
HATCH
  6
CONTINUOUS
 10
9.6570194168616936
 20
27.644976593602731
 30
0.0
 11
9.6573963860166696
 21
27.644617807204721
 31
0.0
  0
LINE
  5
312FB
  8
HATCH
  6
CONTINUOUS
 10
9.7311788151791152
 20
27.644976593602731
 30
0.0
 11
9.7308373345096904
 21
27.644617807204721
 31
0.0
  0
LINE
  5
312FC
  8
HATCH
  6
CONTINUOUS
 10
9.7390966537123234
 20
27.644976593602731
 30
0.0
 11
9.7394736228672993
 21
27.644617807204721
 31
0.0
  0
LINE
  5
312FD
  8
HATCH
  6
CONTINUOUS
 10
9.8092971327631062
 20
27.644976593602731
 30
0.0
 11
9.8089556520936796
 21
27.644617807204721
 31
0.0
  0
LINE
  5
312FE
  8
HATCH
  6
CONTINUOUS
 10
9.8211738905630241
 20
27.644976593602731
 30
0.0
 11
9.8215508597180037
 21
27.644617807204721
 31
0.0
  0
LINE
  5
312FF
  8
HATCH
  6
CONTINUOUS
 10
9.8874154503471825
 20
27.644976593602731
 30
0.0
 11
9.8870739696777576
 21
27.644617807204721
 31
0.0
  0
LINE
  5
31300
  8
HATCH
  6
CONTINUOUS
 10
9.9032511274135366
 20
27.644976593602731
 30
0.0
 11
9.9036280965685091
 21
27.644617807204721
 31
0.0
  0
LINE
  5
31301
  8
HATCH
  6
CONTINUOUS
 10
9.9655337679312037
 20
27.644976593602731
 30
0.0
 11
9.9651922872617753
 21
27.644617807204721
 31
0.0
  0
LINE
  5
31302
  8
HATCH
  6
CONTINUOUS
 10
8.4474421800113397
 20
27.644617807204721
 30
0.0
 11
8.4474421800113397
 21
27.643134873897171
 31
0.0
  0
LINE
  5
31303
  8
HATCH
  6
CONTINUOUS
 10
9.5746006993416302
 20
27.644617807204721
 30
0.0
 11
9.5731892939444876
 21
27.643134873897171
 31
0.0
  0
LINE
  5
31304
  8
HATCH
  6
CONTINUOUS
 10
9.5753191491660292
 20
27.644617807204721
 30
0.0
 11
9.5768772353112475
 21
27.643134873897171
 31
0.0
  0
LINE
  5
31305
  8
HATCH
  6
CONTINUOUS
 10
9.6527190169256194
 20
27.644617807204721
 30
0.0
 11
9.6513076115284502
 21
27.643134873897171
 31
0.0
  0
LINE
  5
31306
  8
HATCH
  6
CONTINUOUS
 10
9.6573963860166696
 20
27.644617807204721
 30
0.0
 11
9.6589544721618878
 21
27.643134873897171
 31
0.0
  0
LINE
  5
31307
  8
HATCH
  6
CONTINUOUS
 10
9.7308373345096904
 20
27.644617807204721
 30
0.0
 11
9.729425929112546
 21
27.643134873897171
 31
0.0
  0
LINE
  5
31308
  8
HATCH
  6
CONTINUOUS
 10
9.7394736228672993
 20
27.644617807204721
 30
0.0
 11
9.7410317090125105
 21
27.643134873897171
 31
0.0
  0
LINE
  5
31309
  8
HATCH
  6
CONTINUOUS
 10
9.8089556520936796
 20
27.644617807204721
 30
0.0
 11
9.8075442466965281
 21
27.643134873897171
 31
0.0
  0
LINE
  5
3130A
  8
HATCH
  6
CONTINUOUS
 10
9.8215508597180037
 20
27.644617807204721
 30
0.0
 11
9.8231089458632344
 21
27.643134873897171
 31
0.0
  0
LINE
  5
3130B
  8
HATCH
  6
CONTINUOUS
 10
9.8870739696777576
 20
27.644617807204721
 30
0.0
 11
9.8856625642806044
 21
27.643134873897171
 31
0.0
  0
LINE
  5
3130C
  8
HATCH
  6
CONTINUOUS
 10
9.9651922872617753
 20
27.644617807204721
 30
0.0
 11
9.9051861827137202
 21
27.643134873897171
 31
0.0
  0
LINE
  5
3130D
  8
HATCH
  6
CONTINUOUS
 10
9.9051861827137202
 20
27.643134873897171
 30
0.0
 11
9.9036280965685091
 21
27.644617807204721
 31
0.0
  0
LINE
  5
3130E
  8
HATCH
  6
CONTINUOUS
 10
8.4474421800113397
 20
27.643134873897171
 30
0.0
 11
8.4474421800113397
 21
27.642640763943739
 31
0.0
  0
LINE
  5
3130F
  8
HATCH
  6
CONTINUOUS
 10
9.5731892939444876
 20
27.643134873897171
 30
0.0
 11
9.5727190169256193
 21
27.642640763943739
 31
0.0
  0
LINE
  5
31310
  8
HATCH
  6
CONTINUOUS
 10
9.5768772353112475
 20
27.643134873897171
 30
0.0
 11
9.5773963860166322
 21
27.642640763943739
 31
0.0
  0
LINE
  5
31311
  8
HATCH
  6
CONTINUOUS
 10
9.6513076115284502
 20
27.643134873897171
 30
0.0
 11
9.6508373345095784
 21
27.642640763943739
 31
0.0
  0
LINE
  5
31312
  8
HATCH
  6
CONTINUOUS
 10
9.6589544721618878
 20
27.643134873897171
 30
0.0
 11
9.6594736228672726
 21
27.642640763943739
 31
0.0
  0
LINE
  5
31313
  8
HATCH
  6
CONTINUOUS
 10
9.729425929112546
 20
27.643134873897171
 30
0.0
 11
9.7289556520936795
 21
27.642640763943739
 31
0.0
  0
LINE
  5
31314
  8
HATCH
  6
CONTINUOUS
 10
9.7410317090125105
 20
27.643134873897171
 30
0.0
 11
9.7415508597178917
 21
27.642640763943739
 31
0.0
  0
LINE
  5
31315
  8
HATCH
  6
CONTINUOUS
 10
9.8075442466965281
 20
27.643134873897171
 30
0.0
 11
9.8070739696776581
 21
27.642640763943739
 31
0.0
  0
LINE
  5
31316
  8
HATCH
  6
CONTINUOUS
 10
9.8231089458632344
 20
27.643134873897171
 30
0.0
 11
9.8236280965686245
 21
27.642640763943739
 31
0.0
  0
LINE
  5
31317
  8
HATCH
  6
CONTINUOUS
 10
9.8856625642806044
 20
27.643134873897171
 30
0.0
 11
9.8851922872617344
 21
27.642640763943739
 31
0.0
  0
LINE
  5
31318
  8
HATCH
  6
CONTINUOUS
 10
8.4474421800113397
 20
27.642640763943739
 30
0.0
 11
8.4474421800113397
 21
27.641157830636249
 31
0.0
  0
LINE
  5
31319
  8
HATCH
  6
CONTINUOUS
 10
9.5727190169256193
 20
27.642640763943739
 30
0.0
 11
9.5713076115285265
 21
27.641157830636249
 31
0.0
  0
LINE
  5
3131A
  8
HATCH
  6
CONTINUOUS
 10
9.5773963860166322
 20
27.642640763943739
 30
0.0
 11
9.5789544721617954
 21
27.641157830636249
 31
0.0
  0
LINE
  5
3131B
  8
HATCH
  6
CONTINUOUS
 10
9.6508373345095784
 20
27.642640763943739
 30
0.0
 11
9.6494259291124607
 21
27.641157830636249
 31
0.0
  0
LINE
  5
3131C
  8
HATCH
  6
CONTINUOUS
 10
9.6594736228672726
 20
27.642640763943739
 30
0.0
 11
9.6610317090124358
 21
27.641157830636249
 31
0.0
  0
LINE
  5
3131D
  8
HATCH
  6
CONTINUOUS
 10
9.7289556520936795
 20
27.642640763943739
 30
0.0
 11
9.7275442466965831
 21
27.641157830636249
 31
0.0
  0
LINE
  5
3131E
  8
HATCH
  6
CONTINUOUS
 10
9.7415508597178917
 20
27.642640763943739
 30
0.0
 11
9.7431089458630495
 21
27.641157830636249
 31
0.0
  0
LINE
  5
3131F
  8
HATCH
  6
CONTINUOUS
 10
9.8070739696776581
 20
27.642640763943739
 30
0.0
 11
9.8056625642805528
 21
27.641157830636249
 31
0.0
  0
LINE
  5
31320
  8
HATCH
  6
CONTINUOUS
 10
9.8851922872617344
 20
27.642640763943739
 30
0.0
 11
9.8251861827137983
 21
27.641157830636249
 31
0.0
  0
LINE
  5
31321
  8
HATCH
  6
CONTINUOUS
 10
9.8251861827137983
 20
27.641157830636249
 30
0.0
 11
9.8236280965686245
 21
27.642640763943739
 31
0.0
  0
LINE
  5
31322
  8
HATCH
  6
CONTINUOUS
 10
8.4474421800113397
 20
27.641157830636249
 30
0.0
 11
8.4474421800113397
 21
27.64066372068282
 31
0.0
  0
LINE
  5
31323
  8
HATCH
  6
CONTINUOUS
 10
9.5713076115285265
 20
27.641157830636249
 30
0.0
 11
9.5708373345096671
 21
27.64066372068282
 31
0.0
  0
LINE
  5
31324
  8
HATCH
  6
CONTINUOUS
 10
9.5789544721617954
 20
27.641157830636249
 30
0.0
 11
9.5794736228671766
 21
27.64066372068282
 31
0.0
  0
LINE
  5
31325
  8
HATCH
  6
CONTINUOUS
 10
9.6494259291124607
 20
27.641157830636249
 30
0.0
 11
9.6489556520935924
 21
27.64066372068282
 31
0.0
  0
LINE
  5
31326
  8
HATCH
  6
CONTINUOUS
 10
9.6610317090124358
 20
27.641157830636249
 30
0.0
 11
9.6615508597178117
 21
27.64066372068282
 31
0.0
  0
LINE
  5
31327
  8
HATCH
  6
CONTINUOUS
 10
9.7275442466965831
 20
27.641157830636249
 30
0.0
 11
9.7270739696777255
 21
27.64066372068282
 31
0.0
  0
LINE
  5
31328
  8
HATCH
  6
CONTINUOUS
 10
9.7431089458630495
 20
27.641157830636249
 30
0.0
 11
9.7436280965684201
 21
27.64066372068282
 31
0.0
  0
LINE
  5
31329
  8
HATCH
  6
CONTINUOUS
 10
9.8056625642805528
 20
27.641157830636249
 30
0.0
 11
9.8051922872616935
 21
27.64066372068282
 31
0.0
  0
LINE
  5
3132A
  8
HATCH
  6
CONTINUOUS
 10
8.4474421800113397
 20
27.64066372068282
 30
0.0
 11
8.4474421800113397
 21
27.63918078737527
 31
0.0
  0
LINE
  5
3132B
  8
HATCH
  6
CONTINUOUS
 10
9.5708373345096671
 20
27.64066372068282
 30
0.0
 11
9.5694259291125139
 21
27.63918078737527
 31
0.0
  0
LINE
  5
3132C
  8
HATCH
  6
CONTINUOUS
 10
9.5794736228671766
 20
27.64066372068282
 30
0.0
 11
9.5810317090124038
 21
27.63918078737527
 31
0.0
  0
LINE
  5
3132D
  8
HATCH
  6
CONTINUOUS
 10
9.6489556520935924
 20
27.64066372068282
 30
0.0
 11
9.6475442466964143
 21
27.63918078737527
 31
0.0
  0
LINE
  5
3132E
  8
HATCH
  6
CONTINUOUS
 10
9.6615508597178117
 20
27.64066372068282
 30
0.0
 11
9.6631089458630424
 21
27.63918078737527
 31
0.0
  0
LINE
  5
3132F
  8
HATCH
  6
CONTINUOUS
 10
9.7270739696777255
 20
27.64066372068282
 30
0.0
 11
9.7256625642805687
 21
27.63918078737527
 31
0.0
  0
LINE
  5
31330
  8
HATCH
  6
CONTINUOUS
 10
9.8051922872616935
 20
27.64066372068282
 30
0.0
 11
9.7451861827136455
 21
27.63918078737527
 31
0.0
  0
LINE
  5
31331
  8
HATCH
  6
CONTINUOUS
 10
9.7451861827136455
 20
27.63918078737527
 30
0.0
 11
9.7436280965684201
 21
27.64066372068282
 31
0.0
  0
LINE
  5
31332
  8
HATCH
  6
CONTINUOUS
 10
8.4474421800113397
 20
27.63918078737527
 30
0.0
 11
8.4474421800113397
 21
27.638686677421909
 31
0.0
  0
LINE
  5
31333
  8
HATCH
  6
CONTINUOUS
 10
9.5694259291125139
 20
27.63918078737527
 30
0.0
 11
9.5689556520937114
 21
27.638686677421909
 31
0.0
  0
LINE
  5
31334
  8
HATCH
  6
CONTINUOUS
 10
9.5810317090124038
 20
27.63918078737527
 30
0.0
 11
9.5815508597177157
 21
27.638686677421909
 31
0.0
  0
LINE
  5
31335
  8
HATCH
  6
CONTINUOUS
 10
9.6475442466964143
 20
27.63918078737527
 30
0.0
 11
9.6470739696775993
 21
27.638686677421909
 31
0.0
  0
LINE
  5
31336
  8
HATCH
  6
CONTINUOUS
 10
9.6631089458630424
 20
27.63918078737527
 30
0.0
 11
9.6636280965683561
 21
27.638686677421909
 31
0.0
  0
LINE
  5
31337
  8
HATCH
  6
CONTINUOUS
 10
9.7256625642805687
 20
27.63918078737527
 30
0.0
 11
9.7251922872617662
 21
27.638686677421909
 31
0.0
  0
LINE
  5
31338
  8
HATCH
  6
CONTINUOUS
 10
8.4474421800113397
 20
27.638686677421909
 30
0.0
 11
8.4474421800113397
 21
27.63720374411411
 31
0.0
  0
LINE
  5
31339
  8
HATCH
  6
CONTINUOUS
 10
9.5689556520937114
 20
27.638686677421909
 30
0.0
 11
9.5675442466963396
 21
27.63720374411411
 31
0.0
  0
LINE
  5
3133A
  8
HATCH
  6
CONTINUOUS
 10
9.5815508597177157
 20
27.638686677421909
 30
0.0
 11
9.5831089458631862
 21
27.63720374411411
 31
0.0
  0
LINE
  5
3133B
  8
HATCH
  6
CONTINUOUS
 10
9.6470739696775993
 20
27.638686677421909
 30
0.0
 11
9.6456625642802081
 21
27.63720374411411
 31
0.0
  0
LINE
  5
3133C
  8
HATCH
  6
CONTINUOUS
 10
9.7251922872617662
 20
27.638686677421909
 30
0.0
 11
9.6651861827138248
 21
27.63720374411411
 31
0.0
  0
LINE
  5
3133D
  8
HATCH
  6
CONTINUOUS
 10
9.6651861827138248
 20
27.63720374411411
 30
0.0
 11
9.6636280965683561
 21
27.638686677421909
 31
0.0
  0
LINE
  5
3133E
  8
HATCH
  6
CONTINUOUS
 10
8.4474421800113397
 20
27.63720374411411
 30
0.0
 11
8.4474421800113397
 21
27.636709634160979
 31
0.0
  0
LINE
  5
3133F
  8
HATCH
  6
CONTINUOUS
 10
9.5675442466963396
 20
27.63720374411411
 30
0.0
 11
9.5670739696777574
 21
27.636709634160979
 31
0.0
  0
LINE
  5
31340
  8
HATCH
  6
CONTINUOUS
 10
9.5831089458631862
 20
27.63720374411411
 30
0.0
 11
9.5836280965682583
 21
27.636709634160979
 31
0.0
  0
LINE
  5
31341
  8
HATCH
  6
CONTINUOUS
 10
9.6456625642802081
 20
27.63720374411411
 30
0.0
 11
9.6451922872616151
 21
27.636709634160979
 31
0.0
  0
LINE
  5
31342
  8
HATCH
  6
CONTINUOUS
 10
8.4474421800113397
 20
27.636709634160979
 30
0.0
 11
8.4474421800113397
 21
27.635226700853131
 31
0.0
  0
LINE
  5
31343
  8
HATCH
  6
CONTINUOUS
 10
9.5670739696777574
 20
27.636709634160979
 30
0.0
 11
9.565662564280327
 21
27.635226700853131
 31
0.0
  0
LINE
  5
31344
  8
HATCH
  6
CONTINUOUS
 10
9.6451922872616151
 20
27.636709634160979
 30
0.0
 11
9.5851861827137927
 21
27.635226700853131
 31
0.0
  0
LINE
  5
31345
  8
HATCH
  6
CONTINUOUS
 10
9.5851861827137927
 20
27.635226700853131
 30
0.0
 11
9.5836280965682583
 21
27.636709634160979
 31
0.0
  0
LINE
  5
31346
  8
HATCH
  6
CONTINUOUS
 10
8.4474421800113397
 20
27.635226700853131
 30
0.0
 11
8.4474421800113397
 21
27.634732590899951
 31
0.0
  0
LINE
  5
31347
  8
HATCH
  6
CONTINUOUS
 10
9.565662564280327
 20
27.635226700853131
 30
0.0
 11
9.5651922872616861
 21
27.634732590899951
 31
0.0
  0
LINE
  5
31348
  8
HATCH
  6
CONTINUOUS
 10
8.4474421800113397
 20
27.634732590899951
 30
0.0
 11
8.4474421800113397
 21
27.630295625669412
 31
0.0
  0
LINE
  5
31349
  8
HATCH
  6
CONTINUOUS
 10
9.5651922872616861
 20
27.634732590899951
 30
0.0
 11
9.3856528581298182
 21
27.630295625669412
 31
0.0
  0
LINE
  5
3134A
  8
HATCH
  6
CONTINUOUS
 10
8.4474421800113397
 20
27.630295625669412
 30
0.0
 11
8.4474421800113397
 21
27.587795625669401
 31
0.0
  0
LINE
  5
3134B
  8
HATCH
  6
CONTINUOUS
 10
9.3856528581298182
 20
27.630295625669412
 30
0.0
 11
9.3431528581299172
 21
27.587795625669401
 31
0.0
  0
LINE
  5
3134C
  8
HATCH
  6
CONTINUOUS
 10
8.4474421800113397
 20
27.587795625669401
 30
0.0
 11
9.3431528581299172
 21
27.587795625669401
 31
0.0
  0
ENDBLK
  5
3134E
  8
0
  0
BLOCK
  8
0
  2
*U42
 70
     1
 10
0.0
 20
0.0
 30
0.0
  3
*U42
  1

  0
SOLID
  5
31350
  8
HATCH
  6
CONTINUOUS
 10
5.3024421800112567
 20
28.354295625669291
 30
0.0
 11
5.3024421800112567
 21
28.354295625669291
 31
0.0
 12
5.3484421800112489
 22
28.354295625669291
 32
0.0
 13
5.3484421800112489
 23
28.354295625669291
 33
0.0
  0
SOLID
  5
31351
  8
HATCH
  6
CONTINUOUS
 10
5.3024421800112567
 20
28.354295625669291
 30
0.0
 11
5.3024421800112567
 21
27.650295625669461
 31
0.0
 12
5.3484421800112347
 22
27.650295625669461
 32
0.0
 13
5.3484421800112347
 23
27.650295625669461
 33
0.0
  0
SOLID
  5
31352
  8
HATCH
  6
CONTINUOUS
 10
-5.3024421800112567
 20
28.354295625669291
 30
0.0
 11
-5.3484421800112489
 21
28.354295625669291
 31
0.0
 12
-5.3484421800112347
 22
27.650295625669461
 32
0.0
 13
-5.3484421800112347
 23
27.650295625669461
 33
0.0
210
0.0
220
0.0
230
-1.0
  0
SOLID
  5
31353
  8
HATCH
  6
CONTINUOUS
 10
5.3484421800112347
 20
27.650295625669461
 30
0.0
 11
5.3484421800112347
 21
27.650295625669461
 31
0.0
 12
6.0524421800112442
 22
27.650295625669461
 32
0.0
 13
6.0524421800112442
 23
27.650295625669461
 33
0.0
  0
SOLID
  5
31354
  8
HATCH
  6
CONTINUOUS
 10
5.3024421800112567
 20
27.650295625669461
 30
0.0
 11
5.3024421800112567
 21
27.604295625669401
 31
0.0
 12
6.0524421800112567
 22
27.604295625669401
 32
0.0
 13
6.0524421800112567
 23
27.604295625669401
 33
0.0
  0
SOLID
  5
31355
  8
HATCH
  6
CONTINUOUS
 10
-5.3024421800112567
 20
27.650295625669461
 30
0.0
 11
-6.0524421800112442
 21
27.650295625669461
 31
0.0
 12
-6.0524421800112567
 22
27.604295625669401
 32
0.0
 13
-6.0524421800112567
 23
27.604295625669401
 33
0.0
210
0.0
220
0.0
230
-1.0
  0
SOLID
  5
31356
  8
HATCH
  6
CONTINUOUS
 10
5.3024421800112567
 20
27.604295625669401
 30
0.0
 11
5.3024421800112567
 21
27.604295625669401
 31
0.0
 12
6.0524421800112567
 22
27.604295625669401
 32
0.0
 13
6.0524421800112567
 23
27.604295625669401
 33
0.0
  0
LINE
  5
31357
  8
HATCH
  6
CONTINUOUS
 10
5.3024421800112567
 20
28.354295625669291
 30
0.0
 11
5.3484421800112489
 21
28.354295625669291
 31
0.0
  0
LINE
  5
31358
  8
HATCH
  6
CONTINUOUS
 10
5.3024421800112567
 20
28.354295625669291
 30
0.0
 11
5.3024421800112567
 21
27.650295625669461
 31
0.0
  0
LINE
  5
31359
  8
HATCH
  6
CONTINUOUS
 10
5.3484421800112489
 20
28.354295625669291
 30
0.0
 11
5.3484421800112347
 21
27.650295625669461
 31
0.0
  0
LINE
  5
3135A
  8
HATCH
  6
CONTINUOUS
 10
5.3484421800112347
 20
27.650295625669461
 30
0.0
 11
6.0524421800112442
 21
27.650295625669461
 31
0.0
  0
LINE
  5
3135B
  8
HATCH
  6
CONTINUOUS
 10
5.3024421800112567
 20
27.650295625669461
 30
0.0
 11
5.3024421800112567
 21
27.604295625669401
 31
0.0
  0
LINE
  5
3135C
  8
HATCH
  6
CONTINUOUS
 10
6.0524421800112442
 20
27.650295625669461
 30
0.0
 11
6.0524421800112567
 21
27.604295625669401
 31
0.0
  0
LINE
  5
3135D
  8
HATCH
  6
CONTINUOUS
 10
5.3024421800112567
 20
27.604295625669401
 30
0.0
 11
6.0524421800112567
 21
27.604295625669401
 31
0.0
  0
ENDBLK
  5
3135F
  8
0
  0
BLOCK
  8
0
  2
*X43
 70
     1
 10
0.0
 20
0.0
 30
0.0
  3
*X43
  1

  0
LINE
  5
31361
  8
0
 62
     0
 10
4.6814226403034027
 20
25.894626075899829
 30
0.0
 11
4.8024421800112602
 21
26.015645615607681
 31
0.0
  0
LINE
  5
31362
  8
0
 62
     0
 10
4.5046459450067697
 20
25.894626075899829
 30
0.0
 11
4.8024421800112602
 21
26.19242231090432
 31
0.0
  0
LINE
  5
31363
  8
0
 62
     0
 10
4.4382637120598609
 20
26.005020538249561
 30
0.0
 11
4.8024421800112611
 21
26.369199006200962
 31
0.0
  0
LINE
  5
31364
  8
0
 62
     0
 10
4.4382637120598609
 20
26.181797233546199
 30
0.0
 11
4.8024421800112602
 21
26.545975701497611
 31
0.0
  0
LINE
  5
31365
  8
0
 62
     0
 10
4.4382637120598627
 20
26.358573928842841
 30
0.0
 11
4.8024421800112549
 21
26.722752396794231
 31
0.0
  0
LINE
  5
31366
  8
0
 62
     0
 10
4.4382637120598609
 20
26.535350624139468
 30
0.0
 11
4.8024421800112602
 21
26.899529092090869
 31
0.0
  0
LINE
  5
31367
  8
0
 62
     0
 10
4.4382637120598627
 20
26.71212731943611
 30
0.0
 11
4.8024421800112567
 21
27.076305787387511
 31
0.0
  0
LINE
  5
31368
  8
0
 62
     0
 10
4.4382637120598609
 20
26.888904014732748
 30
0.0
 11
4.8024421800112611
 21
27.253082482684139
 31
0.0
  0
LINE
  5
31369
  8
0
 62
     0
 10
4.4382637120598609
 20
27.06568071002938
 30
0.0
 11
4.8024421800112611
 21
27.429859177980781
 31
0.0
  0
LINE
  5
3136A
  8
0
 62
     0
 10
4.4382637120598627
 20
27.242457405326022
 30
0.0
 11
4.8024421800112567
 21
27.606635873277408
 31
0.0
  0
LINE
  5
3136B
  8
0
 62
     0
 10
4.4382637120598609
 20
27.419234100622649
 30
0.0
 11
4.8024421800112602
 21
27.783412568574061
 31
0.0
  0
LINE
  5
3136C
  8
0
 62
     0
 10
4.4382637120598609
 20
27.596010795919291
 30
0.0
 11
4.8024421800112549
 21
27.960189263870689
 31
0.0
  0
LINE
  5
3136D
  8
0
 62
     0
 10
4.4382637120598627
 20
27.772787491215929
 30
0.0
 11
4.8024421800112567
 21
28.13696595916732
 31
0.0
  0
LINE
  5
3136E
  8
0
 62
     0
 10
4.43826371205986
 20
27.949564186512571
 30
0.0
 11
4.8024421800112611
 21
28.313742654463969
 31
0.0
  0
LINE
  5
3136F
  8
0
 62
     0
 10
4.4382637120598627
 20
28.12634088180921
 30
0.0
 11
4.8024421800112567
 21
28.4905193497606
 31
0.0
  0
LINE
  5
31370
  8
0
 62
     0
 10
4.4382637120598609
 20
28.303117577105841
 30
0.0
 11
4.8024421800112602
 21
28.667296045057238
 31
0.0
  0
LINE
  5
31371
  8
0
 62
     0
 10
4.4382637120598609
 20
28.479894272402479
 30
0.0
 11
4.8024421800112549
 21
28.84407274035388
 31
0.0
  0
LINE
  5
31372
  8
0
 62
     0
 10
4.4382637120598627
 20
28.65667096769911
 30
0.0
 11
4.8024421800112567
 21
29.020849435650501
 31
0.0
  0
LINE
  5
31373
  8
0
 62
     0
 10
4.43826371205986
 20
28.833447662995749
 30
0.0
 11
4.8024421800112611
 21
29.19762613094715
 31
0.0
  0
LINE
  5
31374
  8
0
 62
     0
 10
4.43826371205986
 20
29.01022435829239
 30
0.0
 11
4.8024421800112567
 21
29.374402826243792
 31
0.0
  0
LINE
  5
31375
  8
0
 62
     0
 10
4.4382637120598609
 20
29.187001053589029
 30
0.0
 11
4.8024421800112602
 21
29.551179521540409
 31
0.0
  0
LINE
  5
31376
  8
0
 62
     0
 10
4.4382637120598609
 20
29.36377774888566
 30
0.0
 11
4.8024421800112602
 21
29.727956216837061
 31
0.0
  0
LINE
  5
31377
  8
0
 62
     0
 10
4.4382637120598627
 20
29.540554444182298
 30
0.0
 11
4.8024421800112567
 21
29.904732912133689
 31
0.0
  0
LINE
  5
31378
  8
0
 62
     0
 10
4.43826371205986
 20
29.71733113947894
 30
0.0
 11
4.8024421800112611
 21
30.081509607430341
 31
0.0
  0
LINE
  5
31379
  8
0
 62
     0
 10
4.43826371205986
 20
29.894107834775571
 30
0.0
 11
4.8024421800112567
 21
30.258286302726969
 31
0.0
  0
LINE
  5
3137A
  8
0
 62
     0
 10
4.4382637120598609
 20
30.07088453007221
 30
0.0
 11
4.8024421800112602
 21
30.4350629980236
 31
0.0
  0
LINE
  5
3137B
  8
0
 62
     0
 10
4.4382637120598609
 20
30.247661225368851
 30
0.0
 11
4.8024421800112602
 21
30.611839693320238
 31
0.0
  0
LINE
  5
3137C
  8
0
 62
     0
 10
4.4382637120598627
 20
30.424437920665479
 30
0.0
 11
4.8024421800112567
 21
30.78861638861687
 31
0.0
  0
LINE
  5
3137D
  8
0
 62
     0
 10
4.43826371205986
 20
30.601214615962121
 30
0.0
 11
4.8024421800112611
 21
30.965393083913519
 31
0.0
  0
LINE
  5
3137E
  8
0
 62
     0
 10
4.4382637120598609
 20
30.777991311258749
 30
0.0
 11
4.8024421800112602
 21
31.14216977921016
 31
0.0
  0
LINE
  5
3137F
  8
0
 62
     0
 10
4.4382637120598609
 20
30.954768006555391
 30
0.0
 11
4.8024421800112602
 21
31.318946474506792
 31
0.0
  0
LINE
  5
31380
  8
0
 62
     0
 10
4.4382637120598609
 20
31.131544701852029
 30
0.0
 11
4.8024421800112602
 21
31.49572316980343
 31
0.0
  0
LINE
  5
31381
  8
0
 62
     0
 10
4.4382637120598627
 20
31.308321397148671
 30
0.0
 11
4.8024421800112611
 21
31.672499865100061
 31
0.0
  0
LINE
  5
31382
  8
0
 62
     0
 10
4.43826371205986
 20
31.485098092445309
 30
0.0
 11
4.8024421800112611
 21
31.84927656039671
 31
0.0
  0
LINE
  5
31383
  8
0
 62
     0
 10
4.4382637120598609
 20
31.66187478774194
 30
0.0
 11
4.8024421800112602
 21
32.026053255693341
 31
0.0
  0
LINE
  5
31384
  8
0
 62
     0
 10
4.4382637120598609
 20
31.838651483038579
 30
0.0
 11
4.8024421800112602
 21
32.202829950989972
 31
0.0
  0
LINE
  5
31385
  8
0
 62
     0
 10
4.4382637120598609
 20
32.01542817833522
 30
0.0
 11
4.802442180011262
 21
32.379606646286611
 31
0.0
  0
LINE
  5
31386
  8
0
 62
     0
 10
4.4382637120598627
 20
32.192204873631852
 30
0.0
 11
4.8024421800112567
 21
32.556383341583228
 31
0.0
  0
LINE
  5
31387
  8
0
 62
     0
 10
4.43826371205986
 20
32.36898156892849
 30
0.0
 11
4.8024421800112611
 21
32.733160036879902
 31
0.0
  0
LINE
  5
31388
  8
0
 62
     0
 10
4.4382637120598654
 20
32.545758264225128
 30
0.0
 11
4.8024421800112602
 21
32.909936732176533
 31
0.0
  0
LINE
  5
31389
  8
0
 62
     0
 10
4.4382637120598654
 20
32.722534959521781
 30
0.0
 11
4.8024421800112602
 21
33.086713427473157
 31
0.0
  0
LINE
  5
3138A
  8
0
 62
     0
 10
4.4382637120598609
 20
32.899311654818398
 30
0.0
 11
4.802442180011262
 21
33.263490122769802
 31
0.0
  0
LINE
  5
3138B
  8
0
 62
     0
 10
4.4382637120598627
 20
33.076088350115043
 30
0.0
 11
4.8024421800112567
 21
33.440266818066434
 31
0.0
  0
LINE
  5
3138C
  8
0
 62
     0
 10
4.43826371205986
 20
33.252865045411681
 30
0.0
 11
4.8024421800112611
 21
33.617043513363072
 31
0.0
  0
LINE
  5
3138D
  8
0
 62
     0
 10
4.4382637120598654
 20
33.42964174070832
 30
0.0
 11
4.8024421800112602
 21
33.79382020865971
 31
0.0
  0
LINE
  5
3138E
  8
0
 62
     0
 10
4.4382637120598654
 20
33.606418436004951
 30
0.0
 11
4.6731530042783911
 21
33.84130772822347
 31
0.0
  0
LINE
  5
3138F
  8
0
 62
     0
 10
4.4382637120598609
 20
33.783195131301582
 30
0.0
 11
4.4963763089817519
 21
33.84130772822347
 31
0.0
  0
ENDBLK
  5
31391
  8
0
  0
BLOCK
  8
0
  2
*U44
 70
     1
 10
0.0
 20
0.0
 30
0.0
  3
*U44
  1

  0
SOLID
  5
31393
  8
DIM
 10
9.6028552383687078
 20
33.326721643796333
 30
0.0
 11
9.3991661005884186
 21
33.175901067410237
 31
0.0
 12
9.5429302331742853
 22
33.38463052219069
 32
0.0
 13
9.5429302331742853
 23
33.38463052219069
 33
0.0
  0
POLYLINE
  5
31394
  8
DIM
 66
     1
 10
0.0
 20
0.0
 30
0.0
  0
VERTEX
  5
31605
  8
DIM
 10
9.5728927357714966
 20
33.355676082993511
 30
0.0
  0
VERTEX
  5
31606
  8
DIM
 10
9.8954345672350232
 20
33.689447370951221
 30
0.0
  0
VERTEX
  5
31607
  8
DIM
 10
10.14543456723502
 20
33.689447370951221
 30
0.0
  0
SEQEND
  5
31608
  8
DIM
  0
ENDBLK
  5
3139A
  8
0
  0
BLOCK
  8
0
  2
*U45
 70
     1
 10
0.0
 20
0.0
 30
0.0
  3
*U45
  1

  0
TEXT
  5
3139C
  8
DIM
 10
10.29746730939055
 20
33.560184069450528
 30
0.0
 40
0.25
  1
HANGER WIRE
  7
STD
  0
TEXT
  5
3139D
  8
DIM
 10
10.304288591791639
 20
33.139083569223153
 30
0.0
 40
0.25
  1
(BY OTHERS)
  7
STD
  0
ENDBLK
  5
3139F
  8
0
  0
BLOCK
  8
0
  2
*U46
 70
     1
 10
0.0
 20
0.0
 30
0.0
  3
*U46
  1

  0
SOLID
  5
313A1
  8
DIM
 10
9.6058955751816768
 20
30.65025948528611
 30
0.0
 11
9.3964421800112454
 21
30.507552140125849
 31
0.0
 12
9.5482903067421034
 22
30.710476405603
 32
0.0
 13
9.5482903067421034
 23
30.710476405603
 33
0.0
  0
POLYLINE
  5
313A2
  8
DIM
 66
     1
 10
0.0
 20
0.0
 30
0.0
  0
VERTEX
  5
31609
  8
DIM
 10
9.5770929409618901
 20
30.680367945444559
 30
0.0
  0
VERTEX
  5
3160A
  8
DIM
 10
10.23289187553789
 20
31.307724400571029
 30
0.0
  0
VERTEX
  5
3160B
  8
DIM
 10
10.48289187553789
 20
31.307724400571029
 30
0.0
  0
SEQEND
  5
3160C
  8
DIM
  0
ENDBLK
  5
313A8
  8
0
  0
BLOCK
  8
0
  2
*U47
 70
     1
 10
0.0
 20
0.0
 30
0.0
  3
*U47
  1

  0
TEXT
  5
313AA
  8
DIM
 10
10.66340347171797
 20
31.182724400571029
 30
0.0
 40
0.25
  1
ALUMINUM
  7
STD
  0
TEXT
  5
313AB
  8
DIM
 10
10.63594781005358
 20
30.761623900343661
 30
0.0
 40
0.25
  1
POCKET
  7
STD
  0
TEXT
  5
313AC
  8
DIM
 10
10.645497605415111
 20
30.340693932176311
 30
0.0
 40
0.25
  1
CPA-4040
  7
STD
  0
ENDBLK
  5
313AE
  8
0
  0
BLOCK
  8
0
  2
*U48
 70
     1
 10
0.0
 20
0.0
 30
0.0
  3
*U48
  1

  0
SOLID
  5
313B0
  8
DIM
 10
9.5591735166224314
 20
28.253681233621869
 30
0.0
 11
9.4632884878030161
 21
28.01907055108714
 31
0.0
 12
9.4779005909993117
 22
28.27209742229115
 32
0.0
 13
9.4779005909993117
 23
28.27209742229115
 33
0.0
  0
POLYLINE
  5
313B1
  8
DIM
 66
     1
 10
0.0
 20
0.0
 30
0.0
  0
VERTEX
  5
3160D
  8
DIM
 10
9.5185370538108725
 20
28.262889327956511
 30
0.0
  0
VERTEX
  5
3160E
  8
DIM
 10
9.7992563634066521
 20
29.50173847201436
 30
0.0
  0
VERTEX
  5
3160F
  8
DIM
 10
10.04925636340665
 20
29.50173847201436
 30
0.0
  0
SEQEND
  5
31610
  8
DIM
  0
ENDBLK
  5
313B7
  8
0
  0
BLOCK
  8
0
  2
*U49
 70
     1
 10
0.0
 20
0.0
 30
0.0
  3
*U49
  1

  0
TEXT
  5
313B9
  8
DIM
 10
10.229767959586731
 20
29.372475170513681
 30
0.0
 40
0.25
  1
ALIGNMENT PIN
  7
STD
  0
TEXT
  5
313BA
  8
DIM
 10
10.203676554402559
 20
28.951374670286299
 30
0.0
 40
0.25
  1
LOCATION
  7
STD
  0
ENDBLK
  5
313BC
  8
0
  0
BLOCK
  8
0
  2
*U50
 70
     1
 10
0.0
 20
0.0
 30
0.0
  3
*U50
  1

  0
SOLID
  5
313BE
  8
DIM
 10
9.8464748921282261
 20
27.43460126309634
 30
0.0
 11
9.6951892349877955
 21
27.63794521076802
 31
0.0
 12
9.9042466774736102
 22
27.494658446367389
 32
0.0
 13
9.9042466774736102
 23
27.494658446367389
 33
0.0
  0
POLYLINE
  5
313BF
  8
DIM
 66
     1
 10
0.0
 20
0.0
 30
0.0
  0
VERTEX
  5
31611
  8
DIM
 10
9.8753607848009182
 20
27.46462985473185
 30
0.0
  0
VERTEX
  5
31612
  8
DIM
 10
10.26963591291352
 20
27.08535835334381
 30
0.0
  0
VERTEX
  5
31613
  8
DIM
 10
10.51963591291352
 20
27.08535835334381
 30
0.0
  0
SEQEND
  5
31614
  8
DIM
  0
ENDBLK
  5
313C5
  8
0
  0
BLOCK
  8
0
  2
*U51
 70
     1
 10
0.0
 20
0.0
 30
0.0
  3
*U51
  1

  0
TEXT
  5
313C7
  8
DIM
 10
10.68104791837054
 20
26.9559245197831
 30
0.0
 40
0.25
  1
GORDON
  7
STD
  0
TEXT
  5
313C8
  8
DIM
 10
10.672691847429199
 20
26.539257853116428
 30
0.0
 40
0.25
  1
DRYWLL TRIM
  7
STD
  0
TEXT
  5
313C9
  8
DIM
 10
10.685140687811201
 20
26.121567994089599
 30
0.0
 40
0.25
  1
905-PT-34
  7
STD
  0
ENDBLK
  5
313CB
  8
0
  0
BLOCK
  8
0
  2
*U52
 70
     1
 10
0.0
 20
0.0
 30
0.0
  3
*U52
  1

  0
SOLID
  5
313CD
  8
DIM
 10
5.6901977295967487
 20
27.351168370981458
 30
0.0
 11
5.6774421800112567
 21
27.604295625669469
 31
0.0
 12
5.771603566274722
 22
27.368987860289621
 32
0.0
 13
5.771603566274722
 23
27.368987860289621
 33
0.0
  0
POLYLINE
  5
313CE
  8
DIM
 66
     1
 10
0.0
 20
0.0
 30
0.0
  0
VERTEX
  5
31615
  8
DIM
 10
5.7309006479357372
 20
27.360078115635549
 30
0.0
  0
VERTEX
  5
31616
  8
DIM
 10
6.1146742469503881
 20
25.606862275246719
 30
0.0
  0
VERTEX
  5
31617
  8
DIM
 10
6.3646742469503881
 20
25.606862275246719
 30
0.0
  0
SEQEND
  5
31618
  8
DIM
  0
ENDBLK
  5
313D4
  8
0
  0
BLOCK
  8
0
  2
*U53
 70
     1
 10
0.0
 20
0.0
 30
0.0
  3
*U53
  1

  0
TEXT
  5
313D6
  8
DIM
 10
6.5260862524074152
 20
25.477428441686008
 30
0.0
 40
0.25
  1
GORDON
  7
STD
  0
TEXT
  5
313D7
  8
DIM
 10
6.5404109454497057
 20
25.056498473518658
 30
0.0
 40
0.25
  1
WALL ANGLE
  7
STD
  0
ENDBLK
  5
313D9
  8
0
  0
BLOCK
  8
0
  2
*U54
 70
     1
 10
0.0
 20
0.0
 30
0.0
  3
*U54
  1

  0
SOLID
  5
313DB
  8
DIM
 10
9.1199977347279262
 20
32.588378589420842
 30
0.0
 11
9.2074471361826902
 21
32.350494766313183
 31
0.0
 12
9.0475732192040805
 22
32.547158036348613
 32
0.0
 13
9.0475732192040805
 23
32.547158036348613
 33
0.0
  0
POLYLINE
  5
313DC
  8
DIM
 66
     1
 10
0.0
 20
0.0
 30
0.0
  0
VERTEX
  5
31619
  8
DIM
 10
9.0837854769660034
 20
32.567768312884731
 30
0.0
  0
VERTEX
  5
3161A
  8
DIM
 10
8.3730876825223284
 20
33.816464402824572
 30
0.0
  0
VERTEX
  5
3161B
  8
DIM
 10
8.1230876825223284
 20
33.816464402824572
 30
0.0
  0
SEQEND
  5
3161C
  8
DIM
  0
ENDBLK
  5
313E2
  8
0
  0
BLOCK
  8
0
  2
*U55
 70
     1
 10
0.0
 20
0.0
 30
0.0
  3
*U55
  1

  0
TEXT
  5
313E4
  8
DIM
 10
5.912050847597361
 20
33.6872011013239
 30
0.0
 40
0.25
  1
ALIGNMENT
  7
STD
  0
TEXT
  5
313E5
  8
DIM
 10
6.8554342036683042
 20
33.270534434657229
 30
0.0
 40
0.25
  1
PLATE
  7
STD
  0
TEXT
  5
313E6
  8
DIM
 10
6.1864369321812642
 20
32.849433934429847
 30
0.0
 40
0.25
  1
LOCATION
  7
STD
  0
ENDBLK
  5
313E8
  8
0
  0
BLOCK
  8
0
  2
*U56
 70
     1
 10
0.0
 20
0.0
 30
0.0
  3
*U56
  1

  0
SOLID
  5
313EA
  8
DIM
 10
4.5427609194186402
 20
32.668032078472059
 30
0.0
 11
4.66714479104205
 21
32.447204626394452
 31
0.0
 12
4.4778646577514971
 22
32.615754744319723
 32
0.0
 13
4.4778646577514971
 23
32.615754744319723
 33
0.0
  0
POLYLINE
  5
313EB
  8
DIM
 66
     1
 10
0.0
 20
0.0
 30
0.0
  0
VERTEX
  5
3161D
  8
DIM
 10
4.5103127885850682
 20
32.641893411395891
 30
0.0
  0
VERTEX
  5
3161E
  8
DIM
 10
4.2780990499061211
 20
32.930159899968231
 30
0.0
  0
VERTEX
  5
3161F
  8
DIM
 10
4.0280990499061211
 20
32.930159899968231
 30
0.0
  0
SEQEND
  5
31620
  8
DIM
  0
ENDBLK
  5
313F1
  8
0
  0
BLOCK
  8
0
  2
*U57
 70
     1
 10
0.0
 20
0.0
 30
0.0
  3
*U57
  1

  0
TEXT
  5
313F3
  8
DIM
 10
0.8324101003836107
 20
32.800896598467553
 30
0.0
 40
0.25
  1
FIELD FASTENER,
  7
STD
  0
TEXT
  5
313F4
  8
DIM
 10
0.8336038248038015
 20
32.37979609824017
 30
0.0
 40
0.25
  1
TYP (BY OTHERS)
  7
STD
  0
ENDBLK
  5
313F6
  8
0
  0
BLOCK
  8
0
  2
*U58
 70
     1
 10
0.0
 20
0.0
 30
0.0
  3
*U58
  1

  0
SOLID
  5
313F8
  8
DIM
 10
6.411924213945297
 20
27.397590162672589
 30
0.0
 11
6.3925319453144844
 21
27.650295625669461
 31
0.0
 12
6.4928345117480211
 22
27.417539301849981
 32
0.0
 13
6.4928345117480211
 23
27.417539301849981
 33
0.0
  0
POLYLINE
  5
313F9
  8
DIM
 66
     1
 10
0.0
 20
0.0
 30
0.0
  0
VERTEX
  5
31621
  8
DIM
 10
6.452379362846659
 20
27.407564732261282
 30
0.0
  0
VERTEX
  5
31622
  8
DIM
 10
6.5727064881380626
 20
26.91953848438656
 30
0.0
  0
VERTEX
  5
31623
  8
DIM
 10
6.8227064881380626
 20
26.91953848438656
 30
0.0
  0
SEQEND
  5
31624
  8
DIM
  0
ENDBLK
  5
313FF
  8
0
  0
BLOCK
  8
0
  2
*U59
 70
     1
 10
0.0
 20
0.0
 30
0.0
  3
*U59
  1

  0
TEXT
  5
31401
  8
DIM
 10
6.9771266791339688
 20
26.790275182885878
 30
0.0
 40
0.25
  1
LIGHT DIFFUSER
  7
STD
  0
TEXT
  5
31402
  8
DIM
 10
6.9815605126946787
 20
26.3691746826585
 30
0.0
 40
0.25
  1
(BY OTHERS)
  7
STD
  0
ENDBLK
  5
31404
  8
0
  0
BLOCK
  8
0
  2
*U60
 70
     1
 10
0.0
 20
0.0
 30
0.0
  3
*U60
  1

  0
SOLID
  5
31406
  8
DIM
 10
6.605513172161916
 20
30.974866891487299
 30
0.0
 11
6.8433246869270281
 21
31.062512738828939
 31
0.0
 12
6.6467935288546158
 22
30.902476446014379
 32
0.0
 13
6.6467935288546158
 23
30.902476446014379
 33
0.0
  0
POLYLINE
  5
31407
  8
DIM
 66
     1
 10
0.0
 20
0.0
 30
0.0
  0
VERTEX
  5
31625
  8
DIM
 10
6.6261533505082673
 20
30.938671668750839
 30
0.0
  0
VERTEX
  5
31626
  8
DIM
 10
3.4814958531954421
 20
29.145443538748442
 30
0.0
  0
VERTEX
  5
31627
  8
DIM
 10
3.2314958531954421
 20
29.145443538748442
 30
0.0
  0
SEQEND
  5
31628
  8
DIM
  0
ENDBLK
  5
3140D
  8
0
  0
BLOCK
  8
0
  2
*U61
 70
     1
 10
0.0
 20
0.0
 30
0.0
  3
*U61
  1

  0
TEXT
  5
3140F
  8
DIM
 10
0.4507114057193182
 20
29.01618023724776
 30
0.0
 40
0.25
  1
LIGHT FIXTURE
  7
STD
  0
TEXT
  5
31410
  8
DIM
 10
0.8132625653373258
 20
28.595079737020381
 30
0.0
 40
0.25
  1
(BY OTHERS)
  7
STD
  0
ENDBLK
  5
31412
  8
0
  0
BLOCK
  8
0
  2
*X62
 70
     1
 10
0.0
 20
0.0
 30
0.0
  3
*X62
  1

  0
LINE
  5
31414
  8
0
 62
     0
 10
9.5604968295236237
 20
27.687509360567951
 30
0.0
 11
9.5604968295236237
 21
27.687509360567951
 31
0.0
  0
LINE
  5
31415
  8
0
 62
     0
 10
9.5512808628135009
 20
27.69595423816315
 30
0.0
 11
9.5512808628135009
 21
27.69595423816315
 31
0.0
  0
LINE
  5
31416
  8
0
 62
     0
 10
9.5015146425788153
 20
27.74155657717721
 30
0.0
 11
9.5015146425788153
 21
27.74155657717721
 31
0.0
  0
LINE
  5
31417
  8
0
 62
     0
 10
9.4580152797070181
 20
27.781416399426529
 30
0.0
 11
9.4580152797070181
 21
27.781416399426529
 31
0.0
  0
LINE
  5
31418
  8
0
 62
     0
 10
9.4487993129968935
 20
27.789861277021728
 30
0.0
 11
9.4487993129968935
 21
27.789861277021728
 31
0.0
  0
LINE
  5
31419
  8
0
 62
     0
 10
9.3990330927622097
 20
27.835463616035781
 30
0.0
 11
9.3990330927622097
 21
27.835463616035781
 31
0.0
  0
LINE
  5
3141A
  8
0
 62
     0
 10
9.7543025226240339
 20
27.691533316565341
 30
0.0
 11
9.7543025226240339
 21
27.691533316565341
 31
0.0
  0
LINE
  5
3141B
  8
0
 62
     0
 10
9.7108031597522366
 20
27.731393138814671
 30
0.0
 11
9.7108031597522366
 21
27.731393138814671
 31
0.0
  0
LINE
  5
3141C
  8
0
 62
     0
 10
9.7015871930421103
 20
27.739838016409859
 30
0.0
 11
9.7015871930421103
 21
27.739838016409859
 31
0.0
  0
LINE
  5
3141D
  8
0
 62
     0
 10
9.6518209728074265
 20
27.785440355423919
 30
0.0
 11
9.6518209728074265
 21
27.785440355423919
 31
0.0
  0
LINE
  5
3141E
  8
0
 62
     0
 10
9.6083216099356292
 20
27.825300177673238
 30
0.0
 11
9.6083216099356292
 21
27.825300177673238
 31
0.0
  0
LINE
  5
3141F
  8
0
 62
     0
 10
9.5991056432255046
 20
27.833745055268441
 30
0.0
 11
9.5991056432255046
 21
27.833745055268441
 31
0.0
  0
LINE
  5
31420
  8
0
 62
     0
 10
9.9635910397974552
 20
27.681369878202801
 30
0.0
 11
9.9635910397974552
 21
27.681369878202801
 31
0.0
  0
LINE
  5
31421
  8
0
 62
     0
 10
9.9543750730873306
 20
27.689814755798
 30
0.0
 11
9.9543750730873306
 21
27.689814755798
 31
0.0
  0
LINE
  5
31422
  8
0
 62
     0
 10
9.9046088528526486
 20
27.73541709481205
 30
0.0
 11
9.9046088528526486
 21
27.73541709481205
 31
0.0
  0
LINE
  5
31423
  8
0
 62
     0
 10
9.8611094899808514
 20
27.775276917061369
 30
0.0
 11
9.8611094899808514
 21
27.775276917061369
 31
0.0
  0
LINE
  5
31424
  8
0
 62
     0
 10
9.8518935232707232
 20
27.783721794656572
 30
0.0
 11
9.8518935232707232
 21
27.783721794656572
 31
0.0
  0
LINE
  5
31425
  8
0
 62
     0
 10
9.8021273030360394
 20
27.829324133670621
 30
0.0
 11
9.8021273030360394
 21
27.829324133670621
 31
0.0
  0
LINE
  5
31426
  8
0
 62
     0
 10
10.157396732897871
 20
27.685393834200191
 30
0.0
 11
10.157396732897871
 21
27.685393834200191
 31
0.0
  0
LINE
  5
31427
  8
0
 62
     0
 10
10.11389737002607
 20
27.725253656449521
 30
0.0
 11
10.11389737002607
 21
27.725253656449521
 31
0.0
  0
LINE
  5
31428
  8
0
 62
     0
 10
10.104681403315951
 20
27.733698534044709
 30
0.0
 11
10.104681403315951
 21
27.733698534044709
 31
0.0
  0
LINE
  5
31429
  8
0
 62
     0
 10
10.05491518308126
 20
27.779300873058759
 30
0.0
 11
10.05491518308126
 21
27.779300873058759
 31
0.0
  0
LINE
  5
3142A
  8
0
 62
     0
 10
10.01141582020947
 20
27.819160695308081
 30
0.0
 11
10.01141582020947
 21
27.819160695308081
 31
0.0
  0
LINE
  5
3142B
  8
0
 62
     0
 10
10.00219985349934
 20
27.827605572903281
 30
0.0
 11
10.00219985349934
 21
27.827605572903281
 31
0.0
  0
LINE
  5
3142C
  8
0
 62
     0
 10
10.35746928336116
 20
27.683675273432851
 30
0.0
 11
10.35746928336116
 21
27.683675273432851
 31
0.0
  0
LINE
  5
3142D
  8
0
 62
     0
 10
10.30770306312648
 20
27.7292776124469
 30
0.0
 11
10.30770306312648
 21
27.7292776124469
 31
0.0
  0
LINE
  5
3142E
  8
0
 62
     0
 10
10.26420370025469
 20
27.769137434696219
 30
0.0
 11
10.26420370025469
 21
27.769137434696219
 31
0.0
  0
LINE
  5
3142F
  8
0
 62
     0
 10
10.25498773354456
 20
27.777582312291411
 30
0.0
 11
10.25498773354456
 21
27.777582312291411
 31
0.0
  0
LINE
  5
31430
  8
0
 62
     0
 10
10.20522151330988
 20
27.823184651305471
 30
0.0
 11
10.20522151330988
 21
27.823184651305471
 31
0.0
  0
LINE
  5
31431
  8
0
 62
     0
 10
10.161722150438081
 20
27.863044473554801
 30
0.0
 11
10.161722150438081
 21
27.863044473554801
 31
0.0
  0
LINE
  5
31432
  8
0
 62
     0
 10
10.51699158029991
 20
27.719114174084361
 30
0.0
 11
10.51699158029991
 21
27.719114174084361
 31
0.0
  0
LINE
  5
31433
  8
0
 62
     0
 10
10.50777561358978
 20
27.72755905167956
 30
0.0
 11
10.50777561358978
 21
27.72755905167956
 31
0.0
  0
LINE
  5
31434
  8
0
 62
     0
 10
10.4580093933551
 20
27.773161390693609
 30
0.0
 11
10.4580093933551
 21
27.773161390693609
 31
0.0
  0
LINE
  5
31435
  8
0
 62
     0
 10
10.414510030483299
 20
27.813021212942939
 30
0.0
 11
10.414510030483299
 21
27.813021212942939
 31
0.0
  0
LINE
  5
31436
  8
0
 62
     0
 10
10.405294063773161
 20
27.821466090538131
 30
0.0
 11
10.405294063773161
 21
27.821466090538131
 31
0.0
  0
LINE
  5
31437
  8
0
 62
     0
 10
10.355527843538489
 20
27.867068429552191
 30
0.0
 11
10.355527843538489
 21
27.867068429552191
 31
0.0
  0
LINE
  5
31438
  8
0
 62
     0
 10
10.710797273400321
 20
27.72313813008175
 30
0.0
 11
10.710797273400321
 21
27.72313813008175
 31
0.0
  0
LINE
  5
31439
  8
0
 62
     0
 10
10.66729791052852
 20
27.76299795233108
 30
0.0
 11
10.66729791052852
 21
27.76299795233108
 31
0.0
  0
LINE
  5
3143A
  8
0
 62
     0
 10
10.6580819438184
 20
27.771442829926269
 30
0.0
 11
10.6580819438184
 21
27.771442829926269
 31
0.0
  0
LINE
  5
3143B
  8
0
 62
     0
 10
10.60831572358371
 20
27.817045168940329
 30
0.0
 11
10.60831572358371
 21
27.817045168940329
 31
0.0
  0
LINE
  5
3143C
  8
0
 62
     0
 10
10.564816360711911
 20
27.856904991189651
 30
0.0
 11
10.564816360711911
 21
27.856904991189651
 31
0.0
  0
LINE
  5
3143D
  8
0
 62
     0
 10
10.55560039400179
 20
27.86534986878484
 30
0.0
 11
10.55560039400179
 21
27.86534986878484
 31
0.0
  0
LINE
  5
3143E
  8
0
 62
     0
 10
9.4087283783525795
 20
27.69028559312358
 30
0.0
 11
9.4087283783525795
 21
27.69028559312358
 31
0.0
  0
LINE
  5
3143F
  8
0
 62
     0
 10
9.3876435922072581
 20
27.703718083332252
 30
0.0
 11
9.3876435922072581
 21
27.703718083332252
 31
0.0
  0
LINE
  5
31440
  8
0
 62
     0
 10
9.5644354714401434
 20
27.690568545800431
 30
0.0
 11
9.5644354714401434
 21
27.690568545800431
 31
0.0
  0
LINE
  5
31441
  8
0
 62
     0
 10
9.5433506852948256
 20
27.7040010360091
 30
0.0
 11
9.5433506852948256
 21
27.7040010360091
 31
0.0
  0
LINE
  5
31442
  8
0
 62
     0
 10
9.4442521904118077
 20
27.767133739989848
 30
0.0
 11
9.4442521904118077
 21
27.767133739989848
 31
0.0
  0
LINE
  5
31443
  8
0
 62
     0
 10
9.3683469602886476
 20
27.81549070474107
 30
0.0
 11
9.3683469602886476
 21
27.81549070474107
 31
0.0
  0
LINE
  5
31444
  8
0
 62
     0
 10
9.7201425645277286
 20
27.690851498477269
 30
0.0
 11
9.7201425645277286
 21
27.690851498477269
 31
0.0
  0
LINE
  5
31445
  8
0
 62
     0
 10
9.6990577783824037
 20
27.70428398868594
 30
0.0
 11
9.6990577783824037
 21
27.70428398868594
 31
0.0
  0
LINE
  5
31446
  8
0
 62
     0
 10
9.5999592834993912
 20
27.767416692666689
 30
0.0
 11
9.5999592834993912
 21
27.767416692666689
 31
0.0
  0
LINE
  5
31447
  8
0
 62
     0
 10
9.5240540533762328
 20
27.81577365741791
 30
0.0
 11
9.5240540533762328
 21
27.81577365741791
 31
0.0
  0
LINE
  5
31448
  8
0
 62
     0
 10
9.5029692672309096
 20
27.829206147626572
 30
0.0
 11
9.5029692672309096
 21
27.829206147626572
 31
0.0
  0
LINE
  5
31449
  8
0
 62
     0
 10
9.8758496576152996
 20
27.69113445115412
 30
0.0
 11
9.8758496576152996
 21
27.69113445115412
 31
0.0
  0
LINE
  5
3144A
  8
0
 62
     0
 10
9.85476487146998
 20
27.704566941362788
 30
0.0
 11
9.85476487146998
 21
27.704566941362788
 31
0.0
  0
LINE
  5
3144B
  8
0
 62
     0
 10
9.755666376586964
 20
27.767699645343541
 30
0.0
 11
9.755666376586964
 21
27.767699645343541
 31
0.0
  0
LINE
  5
3144C
  8
0
 62
     0
 10
9.6797611464638056
 20
27.816056610094758
 30
0.0
 11
9.6797611464638056
 21
27.816056610094758
 31
0.0
  0
LINE
  5
3144D
  8
0
 62
     0
 10
9.6586763603184824
 20
27.82948910030343
 30
0.0
 11
9.6586763603184824
 21
27.82948910030343
 31
0.0
  0
LINE
  5
3144E
  8
0
 62
     0
 10
10.031556750702871
 20
27.691417403830961
 30
0.0
 11
10.031556750702871
 21
27.691417403830961
 31
0.0
  0
LINE
  5
3144F
  8
0
 62
     0
 10
10.01047196455754
 20
27.70484989403964
 30
0.0
 11
10.01047196455754
 21
27.70484989403964
 31
0.0
  0
LINE
  5
31450
  8
0
 62
     0
 10
9.9113734696745404
 20
27.767982598020389
 30
0.0
 11
9.9113734696745404
 21
27.767982598020389
 31
0.0
  0
LINE
  5
31451
  8
0
 62
     0
 10
9.8354682395513784
 20
27.816339562771599
 30
0.0
 11
9.8354682395513784
 21
27.816339562771599
 31
0.0
  0
LINE
  5
31452
  8
0
 62
     0
 10
9.814383453406057
 20
27.829772052980282
 30
0.0
 11
9.814383453406057
 21
27.829772052980282
 31
0.0
  0
LINE
  5
31453
  8
0
 62
     0
 10
10.187263843790451
 20
27.69170035650782
 30
0.0
 11
10.187263843790451
 21
27.69170035650782
 31
0.0
  0
LINE
  5
31454
  8
0
 62
     0
 10
10.166179057645129
 20
27.705132846716491
 30
0.0
 11
10.166179057645129
 21
27.705132846716491
 31
0.0
  0
LINE
  5
31455
  8
0
 62
     0
 10
10.06708056276211
 20
27.76826555069724
 30
0.0
 11
10.06708056276211
 21
27.76826555069724
 31
0.0
  0
LINE
  5
31456
  8
0
 62
     0
 10
9.9911753326389512
 20
27.816622515448461
 30
0.0
 11
9.9911753326389512
 21
27.816622515448461
 31
0.0
  0
LINE
  5
31457
  8
0
 62
     0
 10
9.9700905464936316
 20
27.83005500565713
 30
0.0
 11
9.9700905464936316
 21
27.83005500565713
 31
0.0
  0
LINE
  5
31458
  8
0
 62
     0
 10
10.34297093687802
 20
27.691983309184671
 30
0.0
 11
10.34297093687802
 21
27.691983309184671
 31
0.0
  0
LINE
  5
31459
  8
0
 62
     0
 10
10.3218861507327
 20
27.705415799393339
 30
0.0
 11
10.3218861507327
 21
27.705415799393339
 31
0.0
  0
LINE
  5
3145A
  8
0
 62
     0
 10
10.222787655849681
 20
27.768548503374092
 30
0.0
 11
10.222787655849681
 21
27.768548503374092
 31
0.0
  0
LINE
  5
3145B
  8
0
 62
     0
 10
10.14688242572652
 20
27.816905468125309
 30
0.0
 11
10.14688242572652
 21
27.816905468125309
 31
0.0
  0
LINE
  5
3145C
  8
0
 62
     0
 10
10.125797639581201
 20
27.830337958333981
 30
0.0
 11
10.125797639581201
 21
27.830337958333981
 31
0.0
  0
LINE
  5
3145D
  8
0
 62
     0
 10
10.4986780299656
 20
27.692266261861519
 30
0.0
 11
10.4986780299656
 21
27.692266261861519
 31
0.0
  0
LINE
  5
3145E
  8
0
 62
     0
 10
10.47759324382028
 20
27.70569875207018
 30
0.0
 11
10.47759324382028
 21
27.70569875207018
 31
0.0
  0
LINE
  5
3145F
  8
0
 62
     0
 10
10.378494748937261
 20
27.76883145605094
 30
0.0
 11
10.378494748937261
 21
27.76883145605094
 31
0.0
  0
LINE
  5
31460
  8
0
 62
     0
 10
10.3025895188141
 20
27.81718842080215
 30
0.0
 11
10.3025895188141
 21
27.81718842080215
 31
0.0
  0
LINE
  5
31461
  8
0
 62
     0
 10
10.281504732668781
 20
27.830620911010818
 30
0.0
 11
10.281504732668781
 21
27.830620911010818
 31
0.0
  0
LINE
  5
31462
  8
0
 62
     0
 10
10.65438512305316
 20
27.69254921453836
 30
0.0
 11
10.65438512305316
 21
27.69254921453836
 31
0.0
  0
LINE
  5
31463
  8
0
 62
     0
 10
10.63330033690784
 20
27.705981704747039
 30
0.0
 11
10.63330033690784
 21
27.705981704747039
 31
0.0
  0
LINE
  5
31464
  8
0
 62
     0
 10
10.53420184202483
 20
27.769114408727791
 30
0.0
 11
10.53420184202483
 21
27.769114408727791
 31
0.0
  0
LINE
  5
31465
  8
0
 62
     0
 10
10.45829661190167
 20
27.817471373478998
 30
0.0
 11
10.45829661190167
 21
27.817471373478998
 31
0.0
  0
LINE
  5
31466
  8
0
 62
     0
 10
10.43721182575635
 20
27.830903863687681
 30
0.0
 11
10.43721182575635
 21
27.830903863687681
 31
0.0
  0
LINE
  5
31467
  8
0
 62
     0
 10
10.68990893511241
 20
27.769397361404629
 30
0.0
 11
10.68990893511241
 21
27.769397361404629
 31
0.0
  0
LINE
  5
31468
  8
0
 62
     0
 10
10.614003704989241
 20
27.81775432615586
 30
0.0
 11
10.614003704989241
 21
27.81775432615586
 31
0.0
  0
LINE
  5
31469
  8
0
 62
     0
 10
10.59291891884393
 20
27.831186816364522
 30
0.0
 11
10.59291891884393
 21
27.831186816364522
 31
0.0
  0
LINE
  5
3146A
  8
0
 62
     0
 10
10.736096241483031
 20
27.693311883893799
 30
0.0
 11
10.736096241483031
 21
27.693311883893799
 31
0.0
  0
LINE
  5
3146B
  8
0
 62
     0
 10
10.6954470021667
 20
27.68796031001278
 30
0.0
 11
10.6954470021667
 21
27.68796031001278
 31
0.0
  0
LINE
  5
3146C
  8
0
 62
     0
 10
10.669421574555651
 20
27.684533997467
 30
0.0
 11
10.669421574555651
 21
27.684533997467
 31
0.0
  0
LINE
  5
3146D
  8
0
 62
     0
 10
10.68999643681493
 20
27.816700256561411
 30
0.0
 11
10.68999643681493
 21
27.816700256561411
 31
0.0
  0
LINE
  5
3146E
  8
0
 62
     0
 10
10.649347197498599
 20
27.811348682680389
 30
0.0
 11
10.649347197498599
 21
27.811348682680389
 31
0.0
  0
LINE
  5
3146F
  8
0
 62
     0
 10
10.623321769887539
 20
27.807922370134609
 30
0.0
 11
10.623321769887539
 21
27.807922370134609
 31
0.0
  0
LINE
  5
31470
  8
0
 62
     0
 10
10.55540779688344
 20
27.798981325967539
 30
0.0
 11
10.55540779688344
 21
27.798981325967539
 31
0.0
  0
LINE
  5
31471
  8
0
 62
     0
 10
10.514758557567101
 20
27.79362975208652
 30
0.0
 11
10.514758557567101
 21
27.79362975208652
 31
0.0
  0
LINE
  5
31472
  8
0
 62
     0
 10
10.48873312995604
 20
27.79020343954075
 30
0.0
 11
10.48873312995604
 21
27.79020343954075
 31
0.0
  0
LINE
  5
31473
  8
0
 62
     0
 10
10.420819156951939
 20
27.78126239537368
 30
0.0
 11
10.420819156951939
 21
27.78126239537368
 31
0.0
  0
LINE
  5
31474
  8
0
 62
     0
 10
10.380169917635611
 20
27.775910821492651
 30
0.0
 11
10.380169917635611
 21
27.775910821492651
 31
0.0
  0
LINE
  5
31475
  8
0
 62
     0
 10
10.354144490024551
 20
27.772484508946871
 30
0.0
 11
10.354144490024551
 21
27.772484508946871
 31
0.0
  0
LINE
  5
31476
  8
0
 62
     0
 10
10.28623051702044
 20
27.763543464779801
 30
0.0
 11
10.28623051702044
 21
27.763543464779801
 31
0.0
  0
LINE
  5
31477
  8
0
 62
     0
 10
10.245581277704121
 20
27.758191890898772
 30
0.0
 11
10.245581277704121
 21
27.758191890898772
 31
0.0
  0
LINE
  5
31478
  8
0
 62
     0
 10
10.219555850093061
 20
27.754765578352998
 30
0.0
 11
10.219555850093061
 21
27.754765578352998
 31
0.0
  0
LINE
  5
31479
  8
0
 62
     0
 10
10.15164187708895
 20
27.745824534185921
 30
0.0
 11
10.15164187708895
 21
27.745824534185921
 31
0.0
  0
LINE
  5
3147A
  8
0
 62
     0
 10
10.11099263777262
 20
27.740472960304899
 30
0.0
 11
10.11099263777262
 21
27.740472960304899
 31
0.0
  0
LINE
  5
3147B
  8
0
 62
     0
 10
10.08496721016156
 20
27.737046647759129
 30
0.0
 11
10.08496721016156
 21
27.737046647759129
 31
0.0
  0
LINE
  5
3147C
  8
0
 62
     0
 10
10.017053237157461
 20
27.728105603592049
 30
0.0
 11
10.017053237157461
 21
27.728105603592049
 31
0.0
  0
LINE
  5
3147D
  8
0
 62
     0
 10
9.9764039978411301
 20
27.72275402971103
 30
0.0
 11
9.9764039978411301
 21
27.72275402971103
 31
0.0
  0
LINE
  5
3147E
  8
0
 62
     0
 10
9.9503785702300664
 20
27.71932771716525
 30
0.0
 11
9.9503785702300664
 21
27.71932771716525
 31
0.0
  0
LINE
  5
3147F
  8
0
 62
     0
 10
9.8824645972259582
 20
27.71038667299818
 30
0.0
 11
9.8824645972259582
 21
27.71038667299818
 31
0.0
  0
LINE
  5
31480
  8
0
 62
     0
 10
9.8418153579096348
 20
27.705035099117161
 30
0.0
 11
9.8418153579096348
 21
27.705035099117161
 31
0.0
  0
LINE
  5
31481
  8
0
 62
     0
 10
9.8157899302985712
 20
27.701608786571381
 30
0.0
 11
9.8157899302985712
 21
27.701608786571381
 31
0.0
  0
LINE
  5
31482
  8
0
 62
     0
 10
9.7478759572944664
 20
27.692667742404311
 30
0.0
 11
9.7478759572944664
 21
27.692667742404311
 31
0.0
  0
LINE
  5
31483
  8
0
 62
     0
 10
9.7072267179781413
 20
27.687316168523289
 30
0.0
 11
9.7072267179781413
 21
27.687316168523289
 31
0.0
  0
LINE
  5
31484
  8
0
 62
     0
 10
9.6812012903670759
 20
27.683889855977512
 30
0.0
 11
9.6812012903670759
 21
27.683889855977512
 31
0.0
  0
LINE
  5
31485
  8
0
 62
     0
 10
10.06489283310451
 20
27.86386133297253
 30
0.0
 11
10.06489283310451
 21
27.86386133297253
 31
0.0
  0
LINE
  5
31486
  8
0
 62
     0
 10
10.03886740549345
 20
27.860435020426731
 30
0.0
 11
10.03886740549345
 21
27.860435020426731
 31
0.0
  0
LINE
  5
31487
  8
0
 62
     0
 10
9.9709534324893472
 20
27.851493976259668
 30
0.0
 11
9.9709534324893472
 21
27.851493976259668
 31
0.0
  0
LINE
  5
31488
  8
0
 62
     0
 10
9.9303041931730238
 20
27.84614240237865
 30
0.0
 11
9.9303041931730238
 21
27.84614240237865
 31
0.0
  0
LINE
  5
31489
  8
0
 62
     0
 10
9.9042787655619602
 20
27.842716089832869
 30
0.0
 11
9.9042787655619602
 21
27.842716089832869
 31
0.0
  0
LINE
  5
3148A
  8
0
 62
     0
 10
9.8363647925578537
 20
27.833775045665799
 30
0.0
 11
9.8363647925578537
 21
27.833775045665799
 31
0.0
  0
LINE
  5
3148B
  8
0
 62
     0
 10
9.7957155532415268
 20
27.828423471784781
 30
0.0
 11
9.7957155532415268
 21
27.828423471784781
 31
0.0
  0
LINE
  5
3148C
  8
0
 62
     0
 10
9.7696901256304631
 20
27.824997159239
 30
0.0
 11
9.7696901256304631
 21
27.824997159239
 31
0.0
  0
LINE
  5
3148D
  8
0
 62
     0
 10
9.7017761526263584
 20
27.81605611507192
 30
0.0
 11
9.7017761526263584
 21
27.81605611507192
 31
0.0
  0
LINE
  5
3148E
  8
0
 62
     0
 10
9.6611269133100315
 20
27.810704541190901
 30
0.0
 11
9.6611269133100315
 21
27.810704541190901
 31
0.0
  0
LINE
  5
3148F
  8
0
 62
     0
 10
9.6351014856989678
 20
27.807278228645131
 30
0.0
 11
9.6351014856989678
 21
27.807278228645131
 31
0.0
  0
LINE
  5
31490
  8
0
 62
     0
 10
9.5671875126948631
 20
27.798337184478051
 30
0.0
 11
9.5671875126948631
 21
27.798337184478051
 31
0.0
  0
LINE
  5
31491
  8
0
 62
     0
 10
9.5265382733785362
 20
27.792985610597029
 30
0.0
 11
9.5265382733785362
 21
27.792985610597029
 31
0.0
  0
LINE
  5
31492
  8
0
 62
     0
 10
9.5005128457674743
 20
27.789559298051248
 30
0.0
 11
9.5005128457674743
 21
27.789559298051248
 31
0.0
  0
LINE
  5
31493
  8
0
 62
     0
 10
9.4325988727633696
 20
27.780618253884182
 30
0.0
 11
9.4325988727633696
 21
27.780618253884182
 31
0.0
  0
LINE
  5
31494
  8
0
 62
     0
 10
9.3919496334470391
 20
27.77526668000316
 30
0.0
 11
9.3919496334470391
 21
27.77526668000316
 31
0.0
  0
LINE
  5
31495
  8
0
 62
     0
 10
9.3659242058359808
 20
27.771840367457379
 30
0.0
 11
9.3659242058359808
 21
27.771840367457379
 31
0.0
  0
LINE
  5
31496
  8
0
 62
     0
 10
10.71556670916242
 20
27.776430227694672
 30
0.0
 11
10.71556670916242
 21
27.776430227694672
 31
0.0
  0
LINE
  5
31497
  8
0
 62
     0
 10
10.65110675026377
 20
27.726968361587709
 30
0.0
 11
10.65110675026377
 21
27.726968361587709
 31
0.0
  0
LINE
  5
31498
  8
0
 62
     0
 10
10.647957082358291
 20
27.82330955003836
 30
0.0
 11
10.647957082358291
 21
27.82330955003836
 31
0.0
  0
LINE
  5
31499
  8
0
 62
     0
 10
10.580522048433521
 20
27.771564828572629
 30
0.0
 11
10.580522048433521
 21
27.771564828572629
 31
0.0
  0
LINE
  5
3149A
  8
0
 62
     0
 10
10.520227194571399
 20
27.725298959967962
 30
0.0
 11
10.520227194571399
 21
27.725298959967962
 31
0.0
  0
LINE
  5
3149B
  8
0
 62
     0
 10
10.57737238052805
 20
27.867906017023291
 30
0.0
 11
10.57737238052805
 21
27.867906017023291
 31
0.0
  0
LINE
  5
3149C
  8
0
 62
     0
 10
10.51707752666592
 20
27.821640148418631
 30
0.0
 11
10.51707752666592
 21
27.821640148418631
 31
0.0
  0
LINE
  5
3149D
  8
0
 62
     0
 10
10.45261756776725
 20
27.772178282311661
 30
0.0
 11
10.45261756776725
 21
27.772178282311661
 31
0.0
  0
LINE
  5
3149E
  8
0
 62
     0
 10
10.385182533842499
 20
27.720433560845919
 30
0.0
 11
10.385182533842499
 21
27.720433560845919
 31
0.0
  0
LINE
  5
3149F
  8
0
 62
     0
 10
10.38203286593702
 20
27.816774749296581
 30
0.0
 11
10.38203286593702
 21
27.816774749296581
 31
0.0
  0
LINE
  5
314A0
  8
0
 62
     0
 10
10.32173801207489
 20
27.77050888069191
 30
0.0
 11
10.32173801207489
 21
27.77050888069191
 31
0.0
  0
LINE
  5
314A1
  8
0
 62
     0
 10
10.25727805317622
 20
27.721047014584951
 30
0.0
 11
10.25727805317622
 21
27.721047014584951
 31
0.0
  0
LINE
  5
314A2
  8
0
 62
     0
 10
10.318588344169401
 20
27.866850069142568
 30
0.0
 11
10.318588344169401
 21
27.866850069142568
 31
0.0
  0
LINE
  5
314A3
  8
0
 62
     0
 10
10.254128385270739
 20
27.817388203035609
 30
0.0
 11
10.254128385270739
 21
27.817388203035609
 31
0.0
  0
LINE
  5
314A4
  8
0
 62
     0
 10
10.186693351345991
 20
27.765643481569871
 30
0.0
 11
10.186693351345991
 21
27.765643481569871
 31
0.0
  0
LINE
  5
314A5
  8
0
 62
     0
 10
10.12639849748385
 20
27.7193776129652
 30
0.0
 11
10.12639849748385
 21
27.7193776129652
 31
0.0
  0
LINE
  5
314A6
  8
0
 62
     0
 10
10.18354368344051
 20
27.86198467002054
 30
0.0
 11
10.18354368344051
 21
27.86198467002054
 31
0.0
  0
LINE
  5
314A7
  8
0
 62
     0
 10
10.123248829578371
 20
27.81571880141588
 30
0.0
 11
10.123248829578371
 21
27.81571880141588
 31
0.0
  0
LINE
  5
314A8
  8
0
 62
     0
 10
10.05878887067971
 20
27.76625693530891
 30
0.0
 11
10.05878887067971
 21
27.76625693530891
 31
0.0
  0
LINE
  5
314A9
  8
0
 62
     0
 10
9.991353836754957
 20
27.714512213843179
 30
0.0
 11
9.991353836754957
 21
27.714512213843179
 31
0.0
  0
LINE
  5
314AA
  8
0
 62
     0
 10
10.055639202774231
 20
27.862598123759572
 30
0.0
 11
10.055639202774231
 21
27.862598123759572
 31
0.0
  0
LINE
  5
314AB
  8
0
 62
     0
 10
9.9882041688494763
 20
27.81085340229383
 30
0.0
 11
9.9882041688494763
 21
27.81085340229383
 31
0.0
  0
LINE
  5
314AC
  8
0
 62
     0
 10
9.9279093149873443
 20
27.764587533689159
 30
0.0
 11
9.9279093149873443
 21
27.764587533689159
 31
0.0
  0
LINE
  5
314AD
  8
0
 62
     0
 10
9.8634493560886796
 20
27.7151256675822
 30
0.0
 11
9.8634493560886796
 21
27.7151256675822
 31
0.0
  0
LINE
  5
314AE
  8
0
 62
     0
 10
9.9247596470818635
 20
27.860928722139821
 30
0.0
 11
9.9247596470818635
 21
27.860928722139821
 31
0.0
  0
LINE
  5
314AF
  8
0
 62
     0
 10
9.8602996881832006
 20
27.811466856032862
 30
0.0
 11
9.8602996881832006
 21
27.811466856032862
 31
0.0
  0
LINE
  5
314B0
  8
0
 62
     0
 10
9.7928646542584463
 20
27.759722134567131
 30
0.0
 11
9.7928646542584463
 21
27.759722134567131
 31
0.0
  0
LINE
  5
314B1
  8
0
 62
     0
 10
9.7325698003963126
 20
27.713456265962471
 30
0.0
 11
9.7325698003963126
 21
27.713456265962471
 31
0.0
  0
LINE
  5
314B2
  8
0
 62
     0
 10
9.7897149863529638
 20
27.856063323017779
 30
0.0
 11
9.7897149863529638
 21
27.856063323017779
 31
0.0
  0
LINE
  5
314B3
  8
0
 62
     0
 10
9.7294201324908283
 20
27.809797454413118
 30
0.0
 11
9.7294201324908283
 21
27.809797454413118
 31
0.0
  0
LINE
  5
314B4
  8
0
 62
     0
 10
9.6649601735921635
 20
27.760335588306148
 30
0.0
 11
9.6649601735921635
 21
27.760335588306148
 31
0.0
  0
LINE
  5
314B5
  8
0
 62
     0
 10
9.5975251396674111
 20
27.70859086684041
 30
0.0
 11
9.5975251396674111
 21
27.70859086684041
 31
0.0
  0
LINE
  5
314B6
  8
0
 62
     0
 10
9.6618105056866863
 20
27.856676776756821
 30
0.0
 11
9.6618105056866863
 21
27.856676776756821
 31
0.0
  0
LINE
  5
314B7
  8
0
 62
     0
 10
9.5943754717619321
 20
27.804932055291079
 30
0.0
 11
9.5943754717619321
 21
27.804932055291079
 31
0.0
  0
LINE
  5
314B8
  8
0
 62
     0
 10
9.5340806178997983
 20
27.758666186686408
 30
0.0
 11
9.5340806178997983
 21
27.758666186686408
 31
0.0
  0
LINE
  5
314B9
  8
0
 62
     0
 10
9.4696206590011354
 20
27.709204320579449
 30
0.0
 11
9.4696206590011354
 21
27.709204320579449
 31
0.0
  0
LINE
  5
314BA
  8
0
 62
     0
 10
9.5309309499943176
 20
27.85500737513707
 30
0.0
 11
9.5309309499943176
 21
27.85500737513707
 31
0.0
  0
LINE
  5
314BB
  8
0
 62
     0
 10
9.466470991095651
 20
27.805545509030111
 30
0.0
 11
9.466470991095651
 21
27.805545509030111
 31
0.0
  0
LINE
  5
314BC
  8
0
 62
     0
 10
9.3990359571708968
 20
27.753800787564369
 30
0.0
 11
9.3990359571708968
 21
27.753800787564369
 31
0.0
  0
LINE
  5
314BD
  8
0
 62
     0
 10
9.395886289265416
 20
27.850141976015031
 30
0.0
 11
9.395886289265416
 21
27.850141976015031
 31
0.0
  0
ENDBLK
  5
314BF
  8
0
  0
ENDSEC
  0
SECTION
  2
ENTITIES
  0
ARC
  5
14AF2
  8
DETAIL
  6
CONTINUOUS
 10
6.2301605329827527
 20
27.677171805347751
 30
0.0
 40
0.3657470586759219
 50
355.78593772876849
 51
47.631919721737923
  0
ARC
  5
14AF3
  8
DETAIL
  6
CONTINUOUS
 10
6.579810117747857
 20
27.677171805347751
 30
0.0
 40
0.3657470586759219
 50
132.368080278262
 51
184.2140622712316
  0
ARC
  5
14AF4
  8
DETAIL
  6
CONTINUOUS
 10
5.8085819170190991
 20
27.677171805347751
 30
0.0
 40
0.3657470586759219
 50
355.78593772876849
 51
47.631919721737923
  0
ARC
  5
14AF5
  8
DETAIL
  6
CONTINUOUS
 10
6.1582315017842042
 20
27.677171805347751
 30
0.0
 40
0.3657470586759219
 50
132.368080278262
 51
184.2140622712316
  0
ARC
  5
14AF6
  8
DETAIL
  6
CONTINUOUS
 10
7.4229673496751651
 20
27.677171805347751
 30
0.0
 40
0.3657470586759219
 50
132.368080278262
 51
184.2140622712316
  0
ARC
  5
14AF7
  8
DETAIL
  6
CONTINUOUS
 10
7.07331776491006
 20
27.677171805347751
 30
0.0
 40
0.3657470586759219
 50
355.78593772876849
 51
47.631919721737923
  0
ARC
  5
14AF8
  8
DETAIL
  6
CONTINUOUS
 10
6.6517391489464082
 20
27.677171805347751
 30
0.0
 40
0.3657470586759219
 50
355.78593772876849
 51
47.631919721737923
  0
ARC
  5
14AF9
  8
DETAIL
  6
CONTINUOUS
 10
7.0013887337115106
 20
27.677171805347751
 30
0.0
 40
0.3657470586759219
 50
132.368080278262
 51
184.2140622712316
  0
ARC
  5
14AFA
  8
DETAIL
  6
CONTINUOUS
 10
7.8445459656388179
 20
27.677171805347751
 30
0.0
 40
0.3657470586759219
 50
132.368080278262
 51
184.2140622712316
  0
ARC
  5
14AFB
  8
DETAIL
  6
CONTINUOUS
 10
7.4948963808737128
 20
27.677171805347751
 30
0.0
 40
0.3657470586759219
 50
355.78593772876849
 51
47.631919721737923
  0
ARC
  5
14AFC
  8
DETAIL
  6
CONTINUOUS
 10
7.9164749968373691
 20
27.677171805347751
 30
0.0
 40
0.3657470586759219
 50
355.78593772876849
 51
47.631919721737923
  0
ARC
  5
14AFD
  8
DETAIL
  6
CONTINUOUS
 10
8.2661245816024724
 20
27.677171805347751
 30
0.0
 40
0.3657470586759219
 50
132.368080278262
 51
184.2140622712316
  0
ARC
  5
14AFE
  8
DETAIL
  6
CONTINUOUS
 10
8.6877031975661261
 20
27.677171805347751
 30
0.0
 40
0.3657470586759219
 50
132.368080278262
 51
184.2140622712316
  0
ARC
  5
14AFF
  8
DETAIL
  6
CONTINUOUS
 10
8.3380536128010245
 20
27.677171805347751
 30
0.0
 40
0.3657470586759219
 50
355.78593772876849
 51
47.631919721737923
  0
POLYLINE
  5
14B00
  8
DETAIL
  6
CONTINUOUS
 66
     1
 10
0.0
 20
0.0
 30
0.0
 70
     1
  0
VERTEX
  5
315F5
  8
DETAIL
  6
CONTINUOUS
 10
8.9051425572924963
 20
27.650295625669461
 30
0.0
  0
VERTEX
  5
315F6
  8
DETAIL
  6
CONTINUOUS
 10
5.5911425572927289
 20
27.650295625669461
 30
0.0
  0
VERTEX
  5
315F7
  8
DETAIL
  6
CONTINUOUS
 10
5.5911425572927289
 20
27.94739702756543
 30
0.0
  0
VERTEX
  5
315F8
  8
DETAIL
  6
CONTINUOUS
 10
8.9051425572924963
 20
27.94739702756543
 30
0.0
  0
SEQEND
  5
315F9
  8
DETAIL
  6
CONTINUOUS
  0
ARC
  5
14B01
  8
DETAIL
 10
9.2854134272821263
 20
32.819774933250052
 30
0.0
 40
0.2017438242122658
 50
303.39070088622231
 51
15.218108163762659
  0
ARC
  5
14B02
  8
DETAIL
 10
9.2854134272821263
 20
32.819774933250052
 30
0.0
 40
0.1475010526733604
 50
318.82758390796778
 51
15.218108163762659
  0
ARC
  5
14B03
  8
DETAIL
 10
9.2854134272821263
 20
32.819774933250052
 30
0.0
 40
0.1475010526733604
 50
164.78189183623709
 51
276.62948569095562
  0
ARC
  5
14B04
  8
DETAIL
 10
9.2854134272821263
 20
32.819774933250052
 30
0.0
 40
0.2017438242122658
 50
164.78189183623709
 51
274.84197203156708
  0
LINE
  5
14B05
  8
DETAIL
 10
9.4429500362218484
 20
33.718274739390367
 30
0.0
 11
9.4122218752392861
 21
33.762131125728487
 31
0.0
  0
LINE
  5
14B06
  8
DETAIL
 10
9.4122218752392861
 20
33.762131125728487
 30
0.0
 11
9.3123405990101862
 21
33.692148890725541
 31
0.0
  0
ARC
  5
14B07
  8
DETAIL
 10
9.2297296169840344
 20
33.630529958236806
 30
0.0
 40
0.0278262185440991
 50
58.639085443379159
 51
238.63908544337909
  0
LINE
  5
14B08
  8
DETAIL
 10
9.3578107332562901
 20
33.585055768900062
 30
0.0
 11
9.2152480947509918
 21
33.671942943512363
 31
0.0
  0
LINE
  5
14B09
  8
DETAIL
 10
9.3288476887902085
 20
33.472359857404491
 30
0.0
 11
9.2152480947509918
 21
33.541595022147931
 31
0.0
  0
LINE
  5
14B0A
  8
DETAIL
 10
9.3578107332562901
 20
33.519881808217853
 30
0.0
 11
9.2152480947509918
 21
33.606768982830133
 31
0.0
  0
ARC
  5
14B0B
  8
DETAIL
 10
9.2297296169840344
 20
33.56535599755459
 30
0.0
 40
0.0278262185440991
 50
58.639085443379159
 51
238.63908544337909
  0
ARC
  5
14B0C
  8
DETAIL
 10
9.3433292110232475
 20
33.626468754175548
 30
0.0
 40
0.0278262185440991
 50
238.63908544337909
 51
58.639085443379159
  0
ARC
  5
14B0D
  8
DETAIL
 10
9.3433292110232475
 20
33.496120832811179
 30
0.0
 40
0.0278262185440991
 50
238.63908544337909
 51
58.639085443379159
  0
ARC
  5
14B0E
  8
DETAIL
 10
9.3433292110232475
 20
33.561294793493389
 30
0.0
 40
0.0278262185440991
 50
238.63908544337909
 51
58.639085443379159
  0
LINE
  5
14B0F
  8
DETAIL
 10
9.3578107332562901
 20
33.650229729582051
 30
0.0
 11
9.2442111392170752
 21
33.71946489432564
 31
0.0
  0
ARC
  5
14B10
  8
DETAIL
 10
9.2297296169840344
 20
33.695703918918973
 30
0.0
 40
0.0278262185440991
 50
58.639085443379159
 51
238.63908544337909
  0
LINE
  5
14B11
  8
DETAIL
 10
9.4429500362218484
 20
33.718274739390367
 30
0.0
 11
9.3514053698193926
 21
33.654133585018748
 31
0.0
  0
LINE
  5
14B12
  8
DETAIL
 10
9.4277421464097149
 20
32.858493097608061
 30
0.0
 11
9.2476000246396968
 21
33.521877599611791
 31
0.0
  0
LINE
  5
14B13
  8
DETAIL
 10
9.1430847081545341
 20
32.858493097608061
 30
0.0
 11
9.2845071761726992
 21
33.38789431260453
 31
0.0
  0
LINE
  5
14B14
  8
DETAIL
 10
9.4800828182567081
 20
32.872731508152292
 30
0.0
 11
9.3182493829201292
 21
33.479070626668189
 31
0.0
  0
LINE
  5
14B15
  8
DETAIL
 10
9.0907440363077736
 20
32.872731508152292
 30
0.0
 11
9.2575264113495201
 21
33.485842038365298
 31
0.0
  0
LINE
  5
14B16
  8
DETAIL
 10
9.2587905990101156
 20
33.841307728223491
 30
0.0
 11
9.2587905990100996
 21
33.710579199713941
 31
0.0
  0
LINE
  5
14B17
  8
DETAIL
 10
9.3123405990102022
 20
33.841307728223491
 30
0.0
 11
9.3123405990101862
 21
33.677942260265453
 31
0.0
  0
LINE
  5
14B18
  8
0
  6
HIDDEN
 62
     1
 10
8.8150671800112583
 20
31.63190551263931
 30
0.0
 11
8.8150671800112583
 21
30.35065551263931
 31
0.0
  0
CIRCLE
  5
14B19
  8
0
  6
HIDDEN
 62
     1
 10
7.3024421800112451
 20
29.53995377586137
 30
0.0
 40
0.515625
  0
LINE
  5
14B1A
  8
0
  6
HIDDEN
 62
     1
 10
5.7868171800112442
 20
31.63190551263931
 30
0.0
 11
5.7868171800112442
 21
30.35065551263931
 31
0.0
  0
LINE
  5
14B1B
  8
0
  6
HIDDEN
 62
     1
 10
5.7868171800112442
 20
30.35065551263931
 30
0.0
 11
8.8150671800112583
 21
30.35065551263931
 31
0.0
  0
LINE
  5
14B1C
  8
0
  6
HIDDEN
 62
     1
 10
5.7868171800112442
 20
31.63190551263931
 30
0.0
 11
8.8150671800112583
 21
31.63190551263931
 31
0.0
  0
LINE
  5
14B1D
  8
DETAIL
  6
HIDDEN
 10
4.9594325690560499
 20
28.03745187566949
 30
0.0
 11
4.9014144576597012
 21
28.03745187566949
 31
0.0
  0
LINE
  5
14B1E
  8
DETAIL
  6
HIDDEN
 10
5.0297450690560499
 20
27.96713937566949
 30
0.0
 11
4.9717269576597012
 21
27.96713937566949
 31
0.0
  0
ARC
  5
14B1F
  8
DETAIL
  6
HIDDEN
 10
5.1716620676837444
 20
27.736340636778088
 30
0.0
 40
0.2310475575840813
 50
40.081943986097748
 51
90.323979325784208
  0
INSERT
  5
14B20
  8
HATCH
  6
CONTINUOUS
 62
     1
  2
*X39
 10
0.0
 20
0.0
 30
0.0
1001
ACAD
1000
HATCH
1002
{
1070
    19
1000
AR-CONC
1040
0.05
1040
1.570796326794895
1000
R14_HATCH_DATA
1000
14B20
1011
1.0
1021
0.0
1031
0.0
1021
0.0
1031
0.0
1011
0.0
1021
0.0
1031
0.0
1021
1.0
1031
0.0
1011
0.0
1021
0.0
1031
0.0
1021
0.0
1031
1.0
1040
0.0
1010
0.0
1020
0.0
1030
1.0
1000
AR-CONC
1070
     0
1070
     0
1071
        1
1071
        1
1071
       15
1070
     1
1040
5.0524421800112611
1040
25.894626075899829
1040
5.3024421800112567
1040
25.894626075899829
1070
     1
1040
5.3024421800112567
1040
25.894626075899829
1040
5.3024421800112567
1040
33.841307728223491
1070
     1
1040
5.3024421800112567
1040
33.841307728223491
1040
5.0524421800112602
1040
33.841307728223491
1070
     1
1040
5.0524421800112602
1040
33.841307728223491
1040
5.0211921800112567
1040
33.755449058865523
1070
     1
1040
5.0211921800112567
1040
33.755449058865523
1040
4.9899421800112567
1040
33.841307728223491
1070
     1
1040
4.9899421800112567
1040
33.841307728223491
1040
4.945352946035567
1040
33.841307728223491
1070
     1
1040
4.945352946035567
1040
33.841307728223491
1040
4.9078529460355602
1040
33.729566015529358
1070
     1
1040
4.9078529460355602
1040
33.729566015529358
1040
4.870352946035557
1040
33.84130772822347
1070
     1
1040
4.870352946035557
1040
33.84130772822347
1040
4.8024421800112567
1040
33.841307728223491
1070
     1
1040
4.8024421800112567
1040
33.841307728223491
1040
4.8024421800112567
1040
25.915750426463301
1070
     1
1040
4.8024421800112567
1040
25.915750426463301
1040
4.8328529460355583
1040
26.006367788593941
1070
     1
1040
4.8328529460355583
1040
26.006367788593941
1040
4.870352946035557
1040
25.894626075899829
1070
     1
1040
4.870352946035557
1040
25.894626075899829
1040
4.9899421800112567
1040
25.894626075899829
1070
     1
1040
4.9899421800112567
1040
25.894626075899829
1040
5.0211921800112567
1040
25.98048474525779
1070
     1
1040
5.0211921800112567
1040
25.98048474525779
1040
5.0524421800112611
1040
25.894626075899829
1071
        0
1070
     0
1070
     1
1040
1.570796326794895
1040
0.05
1070
     0
1070
    13
1040
2.4434609527920599
1040
-80.475321043906149
1040
12.83896355822168
1040
0.0313760674912976
1040
0.3586300913003768
1070
     2
1040
0.0375
1040
-0.4125
1040
1.48352986419518
1040
-80.475321043906149
1040
12.83896355822168
1040
-0.376096066850006
1040
-0.0693756668065
1070
     2
1040
0.03
1040
-0.33
1040
3.324003995032728
1040
-80.472706373906149
1040
12.868849398221681
1040
-0.3447197710304768
1040
0.2892546908570108
1070
     2
1040
0.031870095
1040
-0.350571056
1040
2.3768626791944598
1040
-80.575321043906143
1040
12.83896355822168
1040
0.0827595071645091
1040
0.5336205243128223
1070
     2
1040
0.05625
1040
-0.61875
1040
3.2574057214351271
1040
-80.568424390406165
1040
12.883431930721679
1040
-0.4870589354502208
1040
0.4673313527743518
1070
     2
1040
0.047805144
1040
-0.5258565000000001
1040
1.416931590597581
1040
-80.575321043906143
1040
12.83896355822168
1040
-0.4870593004626623
1040
0.4673309725668137
1070
     2
1040
0.045
1040
-0.4950000000000001
1040
1.9373154697137041
1040
-80.550321043906152
1040
12.888963558221681
1040
0.2013094453326695
1040
0.2984535260592309
1070
     2
1040
0.0375
1040
-0.4125
1040
0.9773843811168251
1040
-80.550321043906152
1040
12.888963558221681
1040
-0.3625750225234265
1040
0.1216576659607909
1070
     2
1040
0.03
1040
-0.33
1040
2.817858511954372
1040
-80.53354524090615
1040
12.913834674721681
1040
-0.1612652483549762
1040
0.420111314290745
1070
     2
1040
0.031870095
1040
-0.3505710559999999
1040
2.2252947962927689
1040
-80.475321043906149
1040
12.83896355822168
1040
-0.1664469269156558
1040
0.0060799276586453
1070
     6
1040
0.0
1040
-0.326
1040
0.0
1040
-0.335
1040
0.0
1040
-0.33125
1040
1.70169602069447
1040
-80.475321043906149
1040
12.83896355822168
1040
-0.1972058559411801
1040
0.1315347687210743
1070
     6
1040
0.0
1040
-0.191
1040
0.0
1040
-0.3185
1040
0.0
1040
-0.12625
1040
1.0035643198967381
1040
-80.475321043906149
1040
12.727463558221681
1040
0.0112774358671899
1040
0.2669112180862045
1070
     6
1040
0.0
1040
-0.125
1040
0.0
1040
-0.39
1040
0.0
1040
-0.5175
1040
0.8290313946973066
1040
-80.475321043906149
1040
12.67746355822168
1040
-0.0500524911661588
1040
0.2915930846711931
1070
     6
1040
0.0
1040
-0.1625
1040
0.0
1040
-0.259
1040
0.0
1040
-0.3675
1071
        1
1040
5.052477251188991
1040
29.059843348154079
1040
0.0
1002
}
  0
LINE
  5
14B21
  8
DETAIL
  6
HIDDEN
 10
5.1609421800112347
 20
28.03745187566949
 30
0.0
 11
5.1002882398684211
 21
28.03745187566949
 31
0.0
  0
LINE
  5
14B22
  8
DETAIL
  6
HIDDEN
 10
5.1623275905285233
 20
27.96713937566949
 30
0.0
 11
5.104309479132171
 21
27.96713937566949
 31
0.0
  0
LINE
  5
14B23
  8
DETAIL
  6
HIDDEN
 10
5.0497182183959266
 20
27.955439375669481
 30
0.0
 11
5.0414450690560413
 21
27.955439375669481
 31
0.0
  0
LINE
  5
14B24
  8
DETAIL
  6
HIDDEN
 10
5.1160094791321633
 20
27.955439375669481
 30
0.0
 11
5.1077363297922922
 21
27.955439375669481
 31
0.0
  0
LINE
  5
14B25
  8
DETAIL
  6
HIDDEN
 10
5.0960363297922866
 20
27.96713937566949
 30
0.0
 11
5.0380182183959361
 21
27.96713937566949
 31
0.0
  0
LINE
  5
14B26
  8
DETAIL
  6
HIDDEN
 10
5.1823007398684124
 20
27.955439375669481
 30
0.0
 11
5.174027590528528
 21
27.955439375669481
 31
0.0
  0
LINE
  5
14B27
  8
DETAIL
  6
HIDDEN
 10
5.080315090528531
 20
28.049151875669491
 30
0.0
 11
5.174027590528528
 21
27.955439375669481
 31
0.0
  0
LINE
  5
14B28
  8
DETAIL
  6
HIDDEN
 10
5.0885882398684172
 20
28.049151875669491
 30
0.0
 11
5.1823007398684124
 21
27.955439375669481
 31
0.0
  0
LINE
  5
14B29
  8
DETAIL
  6
HIDDEN
 10
5.0222969791321681
 20
28.049151875669491
 30
0.0
 11
5.1160094791321633
 21
27.955439375669481
 31
0.0
  0
LINE
  5
14B2A
  8
DETAIL
  6
HIDDEN
 10
5.014023829792281
 20
28.049151875669491
 30
0.0
 11
5.1077363297922922
 21
27.955439375669481
 31
0.0
  0
LINE
  5
14B2B
  8
DETAIL
  6
HIDDEN
 10
4.9560057183959323
 20
28.049151875669491
 30
0.0
 11
5.0497182183959266
 21
27.955439375669481
 31
0.0
  0
LINE
  5
14B2C
  8
DETAIL
  6
HIDDEN
 10
4.9477325690560461
 20
28.049151875669491
 30
0.0
 11
5.0414450690560413
 21
27.955439375669481
 31
0.0
  0
LINE
  5
14B2D
  8
DETAIL
  6
HIDDEN
 10
4.9560057183959323
 20
28.049151875669491
 30
0.0
 11
4.9477325690560461
 21
28.049151875669491
 31
0.0
  0
LINE
  5
14B2E
  8
DETAIL
  6
HIDDEN
 10
5.0885882398684172
 20
28.049151875669491
 30
0.0
 11
5.080315090528531
 21
28.049151875669491
 31
0.0
  0
LINE
  5
14B2F
  8
DETAIL
  6
HIDDEN
 10
5.0222969791321681
 20
28.049151875669491
 30
0.0
 11
5.014023829792281
 21
28.049151875669491
 31
0.0
  0
LINE
  5
14B30
  8
DETAIL
  6
HIDDEN
 10
5.0920150905285233
 20
28.03745187566949
 30
0.0
 11
5.033996979132171
 21
28.03745187566949
 31
0.0
  0
LINE
  5
14B31
  8
DETAIL
  6
HIDDEN
 10
5.0257238297922866
 20
28.03745187566949
 30
0.0
 11
4.9677057183959361
 21
28.03745187566949
 31
0.0
  0
LINE
  5
14B32
  8
DETAIL
  6
HIDDEN
 10
4.7182619147147342
 20
27.955439375669481
 30
0.0
 11
4.709988765374848
 21
27.955439375669481
 31
0.0
  0
LINE
  5
14B33
  8
DETAIL
  6
HIDDEN
 10
4.6246602239352974
 20
28.049041066448918
 30
0.0
 11
4.619144791042034
 21
28.046283350002291
 31
0.0
  0
LINE
  5
14B34
  8
DETAIL
  6
HIDDEN
 10
4.619144791042034
 20
28.046283350002291
 30
0.0
 11
4.709988765374848
 21
27.955439375669481
 31
0.0
  0
LINE
  5
14B35
  8
DETAIL
  6
HIDDEN
 10
4.6246602239352974
 20
28.049041066448918
 30
0.0
 11
4.7182619147147342
 21
27.955439375669481
 31
0.0
  0
LINE
  5
14B36
  8
DETAIL
  6
HIDDEN
 10
4.6293551235981631
 20
28.036073017446171
 30
0.0
 11
4.5906763826672572
 21
28.016733646980722
 31
0.0
  0
LINE
  5
14B37
  8
DETAIL
  6
HIDDEN
 10
4.5851609497739947
 20
28.013975930534102
 30
0.0
 11
4.5618003400447851
 21
28.00229562566949
 31
0.0
  0
LINE
  5
14B38
  8
DETAIL
  6
HIDDEN
 10
4.5819557175550081
 20
28.025454312092972
 30
0.0
 11
4.5764402846617447
 21
28.022696595646352
 31
0.0
  0
LINE
  5
14B39
  8
DETAIL
  6
HIDDEN
 10
4.6982887653748442
 20
27.96713937566949
 30
0.0
 11
4.6402706539784919
 21
27.96713937566949
 31
0.0
  0
LINE
  5
14B3A
  8
DETAIL
  6
HIDDEN
 10
4.5618003400447851
 20
28.00229562566949
 30
0.0
 11
4.6321128400447851
 21
27.96713937566949
 31
0.0
  0
LINE
  5
14B3B
  8
DETAIL
  6
HIDDEN
 10
4.6519706539784966
 20
27.955439375669481
 30
0.0
 11
4.6436975046386131
 21
27.955439375669481
 31
0.0
  0
LINE
  5
14B3C
  8
DETAIL
  6
HIDDEN
 10
4.5819557175550081
 20
28.025454312092972
 30
0.0
 11
4.6519706539784966
 21
27.955439375669481
 31
0.0
  0
LINE
  5
14B3D
  8
DETAIL
  6
HIDDEN
 10
4.5764402846617447
 20
28.022696595646352
 30
0.0
 11
4.6436975046386131
 21
27.955439375669481
 31
0.0
  0
LINE
  5
14B3E
  8
DETAIL
  6
HIDDEN
 10
5.3484421800112347
 20
28.11948312566949
 30
0.0
 11
5.3484421800112347
 21
27.88510812566949
 31
0.0
  0
LINE
  5
14B3F
  8
DETAIL
  6
HIDDEN
 10
4.9834269576596899
 20
27.955439375669481
 30
0.0
 11
4.9751538083198064
 21
27.955439375669481
 31
0.0
  0
ARC
  5
14B40
  8
DETAIL
  6
HIDDEN
 10
5.1716620676837444
 20
28.268250614560881
 30
0.0
 40
0.2310475575840813
 50
267.34069944741151
 51
319.91805601390212
  0
LINE
  5
14B41
  8
DETAIL
  6
HIDDEN
 10
4.826850047583565
 20
28.03745187566949
 30
0.0
 11
4.7688319361872153
 21
28.03745187566949
 31
0.0
  0
LINE
  5
14B42
  8
DETAIL
  6
HIDDEN
 10
4.83087128684733
 20
27.96713937566949
 30
0.0
 11
4.7728531754509644
 21
27.96713937566949
 31
0.0
  0
LINE
  5
14B43
  8
DETAIL
  6
HIDDEN
 10
4.897162547583565
 20
27.96713937566949
 30
0.0
 11
4.8391444361872153
 21
27.96713937566949
 31
0.0
  0
LINE
  5
14B44
  8
DETAIL
  6
HIDDEN
 10
4.8931413083197999
 20
28.03745187566949
 30
0.0
 11
4.8351231969234512
 21
28.03745187566949
 31
0.0
  0
LINE
  5
14B45
  8
DETAIL
  6
HIDDEN
 10
4.8234231969234447
 20
28.049151875669491
 30
0.0
 11
4.8151500475835611
 21
28.049151875669491
 31
0.0
  0
LINE
  5
14B46
  8
DETAIL
  6
HIDDEN
 10
4.8897144576596947
 20
28.049151875669491
 30
0.0
 11
4.8814413083198112
 21
28.049151875669491
 31
0.0
  0
LINE
  5
14B47
  8
DETAIL
  6
HIDDEN
 10
4.7571319361872089
 20
28.049151875669491
 30
0.0
 11
4.7488587868473244
 21
28.049151875669491
 31
0.0
  0
LINE
  5
14B48
  8
DETAIL
  6
HIDDEN
 10
4.7488587868473244
 20
28.049151875669491
 30
0.0
 11
4.8425712868473187
 21
27.955439375669481
 31
0.0
  0
LINE
  5
14B49
  8
DETAIL
  6
HIDDEN
 10
4.7571319361872089
 20
28.049151875669491
 30
0.0
 11
4.8508444361872041
 21
27.955439375669481
 31
0.0
  0
LINE
  5
14B4A
  8
DETAIL
  6
HIDDEN
 10
4.8151500475835611
 20
28.049151875669491
 30
0.0
 11
4.9088625475835688
 21
27.955439375669481
 31
0.0
  0
LINE
  5
14B4B
  8
DETAIL
  6
HIDDEN
 10
4.8234231969234447
 20
28.049151875669491
 30
0.0
 11
4.9171356969234399
 21
27.955439375669481
 31
0.0
  0
LINE
  5
14B4C
  8
DETAIL
  6
HIDDEN
 10
4.9171356969234399
 20
27.955439375669481
 30
0.0
 11
4.9088625475835688
 21
27.955439375669481
 31
0.0
  0
LINE
  5
14B4D
  8
DETAIL
  6
HIDDEN
 10
4.8508444361872041
 20
27.955439375669481
 30
0.0
 11
4.8425712868473187
 21
27.955439375669481
 31
0.0
  0
LINE
  5
14B4E
  8
DETAIL
  6
HIDDEN
 10
4.78455317545097
 20
27.955439375669481
 30
0.0
 11
4.7762800261110829
 21
27.955439375669481
 31
0.0
  0
LINE
  5
14B4F
  8
DETAIL
  6
HIDDEN
 10
4.6942675261110942
 20
28.03745187566949
 30
0.0
 11
4.6362494147147277
 21
28.03745187566949
 31
0.0
  0
LINE
  5
14B50
  8
DETAIL
  6
HIDDEN
 10
4.6908406754509731
 20
28.049151875669491
 30
0.0
 11
4.6825675261110877
 21
28.049151875669491
 31
0.0
  0
LINE
  5
14B51
  8
DETAIL
  6
HIDDEN
 10
4.7645800261110942
 20
27.96713937566949
 30
0.0
 11
4.7065619147147277
 21
27.96713937566949
 31
0.0
  0
LINE
  5
14B52
  8
DETAIL
  6
HIDDEN
 10
4.76055878684733
 20
28.03745187566949
 30
0.0
 11
4.7025406754509644
 21
28.03745187566949
 31
0.0
  0
LINE
  5
14B53
  8
DETAIL
  6
HIDDEN
 10
4.6908406754509731
 20
28.049151875669491
 30
0.0
 11
4.78455317545097
 21
27.955439375669481
 31
0.0
  0
LINE
  5
14B54
  8
DETAIL
  6
HIDDEN
 10
4.6825675261110877
 20
28.049151875669491
 30
0.0
 11
4.7762800261110829
 21
27.955439375669481
 31
0.0
  0
LINE
  5
14B55
  8
DETAIL
  6
HIDDEN
 10
4.9634538083197999
 20
27.96713937566949
 30
0.0
 11
4.9054356969234512
 21
27.96713937566949
 31
0.0
  0
LINE
  5
14B56
  8
DETAIL
  6
HIDDEN
 10
4.8897144576596947
 20
28.049151875669491
 30
0.0
 11
4.9834269576596899
 21
27.955439375669481
 31
0.0
  0
LINE
  5
14B57
  8
DETAIL
  6
HIDDEN
 10
4.8814413083198112
 20
28.049151875669491
 30
0.0
 11
4.9751538083198064
 21
27.955439375669481
 31
0.0
  0
LINE
  5
14B58
  8
DETAIL
  6
HIDDEN
 10
5.0074325690560659
 20
32.438373152061651
 30
0.0
 11
4.9494144576597172
 21
32.438373152061651
 31
0.0
  0
LINE
  5
14B59
  8
DETAIL
  6
HIDDEN
 10
5.0777450690560659
 20
32.368060652061651
 30
0.0
 11
5.0197269576597172
 21
32.368060652061651
 31
0.0
  0
ARC
  5
14B5A
  8
DETAIL
  6
HIDDEN
 10
5.2196620676837604
 20
32.137261913170263
 30
0.0
 40
0.2310475575840813
 50
40.081943986097748
 51
90.323979325784208
  0
LINE
  5
14B5B
  8
DETAIL
  6
HIDDEN
 10
5.2089421800112508
 20
32.438373152061651
 30
0.0
 11
5.1482882398684371
 21
32.438373152061651
 31
0.0
  0
LINE
  5
14B5C
  8
DETAIL
  6
HIDDEN
 10
5.2103275905285393
 20
32.368060652061651
 30
0.0
 11
5.152309479132188
 21
32.368060652061651
 31
0.0
  0
LINE
  5
14B5D
  8
DETAIL
  6
HIDDEN
 10
5.0977182183959426
 20
32.356360652061653
 30
0.0
 11
5.0894450690560573
 21
32.356360652061653
 31
0.0
  0
LINE
  5
14B5E
  8
DETAIL
  6
HIDDEN
 10
5.1640094791321793
 20
32.356360652061653
 30
0.0
 11
5.1557363297923082
 21
32.356360652061653
 31
0.0
  0
LINE
  5
14B5F
  8
DETAIL
  6
HIDDEN
 10
5.1440363297923026
 20
32.368060652061651
 30
0.0
 11
5.086018218395953
 21
32.368060652061651
 31
0.0
  0
LINE
  5
14B60
  8
DETAIL
  6
HIDDEN
 10
5.2303007398684276
 20
32.356360652061653
 30
0.0
 11
5.222027590528544
 21
32.356360652061653
 31
0.0
  0
LINE
  5
14B61
  8
DETAIL
  6
HIDDEN
 10
5.1283150905285471
 20
32.450073152061663
 30
0.0
 11
5.222027590528544
 21
32.356360652061653
 31
0.0
  0
LINE
  5
14B62
  8
DETAIL
  6
HIDDEN
 10
5.1365882398684333
 20
32.450073152061663
 30
0.0
 11
5.2303007398684276
 21
32.356360652061653
 31
0.0
  0
LINE
  5
14B63
  8
DETAIL
  6
HIDDEN
 10
5.0702969791321841
 20
32.450073152061663
 30
0.0
 11
5.1640094791321793
 21
32.356360652061653
 31
0.0
  0
LINE
  5
14B64
  8
DETAIL
  6
HIDDEN
 10
5.062023829792297
 20
32.450073152061663
 30
0.0
 11
5.1557363297923082
 21
32.356360652061653
 31
0.0
  0
LINE
  5
14B65
  8
DETAIL
  6
HIDDEN
 10
5.0040057183959483
 20
32.450073152061663
 30
0.0
 11
5.0977182183959426
 21
32.356360652061653
 31
0.0
  0
LINE
  5
14B66
  8
DETAIL
  6
HIDDEN
 10
4.9957325690560621
 20
32.450073152061663
 30
0.0
 11
5.0894450690560573
 21
32.356360652061653
 31
0.0
  0
LINE
  5
14B67
  8
DETAIL
  6
HIDDEN
 10
5.0040057183959483
 20
32.450073152061663
 30
0.0
 11
4.9957325690560621
 21
32.450073152061663
 31
0.0
  0
LINE
  5
14B68
  8
DETAIL
  6
HIDDEN
 10
5.1365882398684333
 20
32.450073152061663
 30
0.0
 11
5.1283150905285471
 21
32.450073152061663
 31
0.0
  0
LINE
  5
14B69
  8
DETAIL
  6
HIDDEN
 10
5.0702969791321841
 20
32.450073152061663
 30
0.0
 11
5.062023829792297
 21
32.450073152061663
 31
0.0
  0
LINE
  5
14B6A
  8
DETAIL
  6
HIDDEN
 10
5.1400150905285393
 20
32.438373152061651
 30
0.0
 11
5.081996979132188
 21
32.438373152061651
 31
0.0
  0
LINE
  5
14B6B
  8
DETAIL
  6
HIDDEN
 10
5.0737238297923026
 20
32.438373152061651
 30
0.0
 11
5.015705718395953
 21
32.438373152061651
 31
0.0
  0
LINE
  5
14B6C
  8
DETAIL
  6
HIDDEN
 10
4.7662619147147502
 20
32.356360652061653
 30
0.0
 11
4.7579887653748631
 21
32.356360652061653
 31
0.0
  0
LINE
  5
14B6D
  8
DETAIL
  6
HIDDEN
 10
4.6726602239353134
 20
32.44996234284109
 30
0.0
 11
4.66714479104205
 21
32.447204626394452
 31
0.0
  0
LINE
  5
14B6E
  8
DETAIL
  6
HIDDEN
 10
4.66714479104205
 20
32.447204626394452
 30
0.0
 11
4.7579887653748631
 21
32.356360652061653
 31
0.0
  0
LINE
  5
14B6F
  8
DETAIL
  6
HIDDEN
 10
4.6726602239353134
 20
32.44996234284109
 30
0.0
 11
4.7662619147147502
 21
32.356360652061653
 31
0.0
  0
LINE
  5
14B70
  8
DETAIL
  6
HIDDEN
 10
4.6773551235981792
 20
32.436994293838332
 30
0.0
 11
4.6386763826672732
 21
32.417654923372893
 31
0.0
  0
LINE
  5
14B71
  8
DETAIL
  6
HIDDEN
 10
4.6331609497740107
 20
32.414897206926263
 30
0.0
 11
4.6098003400448011
 21
32.403216902061651
 31
0.0
  0
LINE
  5
14B72
  8
DETAIL
  6
HIDDEN
 10
4.6299557175550241
 20
32.426375588485143
 30
0.0
 11
4.6244402846617607
 21
32.42361787203852
 31
0.0
  0
LINE
  5
14B73
  8
DETAIL
  6
HIDDEN
 10
4.7462887653748602
 20
32.368060652061651
 30
0.0
 11
4.688270653978508
 21
32.368060652061651
 31
0.0
  0
LINE
  5
14B74
  8
DETAIL
  6
HIDDEN
 10
4.6098003400448011
 20
32.403216902061651
 30
0.0
 11
4.6801128400448011
 21
32.368060652061651
 31
0.0
  0
LINE
  5
14B75
  8
DETAIL
  6
HIDDEN
 10
4.6999706539785127
 20
32.356360652061653
 30
0.0
 11
4.6916975046386291
 21
32.356360652061653
 31
0.0
  0
LINE
  5
14B76
  8
DETAIL
  6
HIDDEN
 10
4.6299557175550241
 20
32.426375588485143
 30
0.0
 11
4.6999706539785127
 21
32.356360652061653
 31
0.0
  0
LINE
  5
14B77
  8
DETAIL
  6
HIDDEN
 10
4.6244402846617607
 20
32.42361787203852
 30
0.0
 11
4.6916975046386291
 21
32.356360652061653
 31
0.0
  0
LINE
  5
14B78
  8
DETAIL
  6
HIDDEN
 10
5.3964421800112508
 20
32.520404402061651
 30
0.0
 11
5.3964421800112508
 21
32.286029402061651
 31
0.0
  0
LINE
  5
14B79
  8
DETAIL
  6
HIDDEN
 10
5.0314269576597059
 20
32.356360652061653
 30
0.0
 11
5.0231538083198224
 21
32.356360652061653
 31
0.0
  0
ARC
  5
14B7A
  8
DETAIL
  6
HIDDEN
 10
5.2196620676837604
 20
32.669171890953052
 30
0.0
 40
0.2310475575840813
 50
267.34069944741151
 51
319.91805601390212
  0
LINE
  5
14B7B
  8
DETAIL
  6
HIDDEN
 10
4.8748500475835801
 20
32.438373152061651
 30
0.0
 11
4.8168319361872323
 21
32.438373152061651
 31
0.0
  0
LINE
  5
14B7C
  8
DETAIL
  6
HIDDEN
 10
4.8788712868473452
 20
32.368060652061651
 30
0.0
 11
4.8208531754509796
 21
32.368060652061651
 31
0.0
  0
LINE
  5
14B7D
  8
DETAIL
  6
HIDDEN
 10
4.9451625475835801
 20
32.368060652061651
 30
0.0
 11
4.8871444361872323
 21
32.368060652061651
 31
0.0
  0
LINE
  5
14B7E
  8
DETAIL
  6
HIDDEN
 10
4.9411413083198159
 20
32.438373152061651
 30
0.0
 11
4.8831231969234672
 21
32.438373152061651
 31
0.0
  0
LINE
  5
14B7F
  8
DETAIL
  6
HIDDEN
 10
4.8714231969234607
 20
32.450073152061663
 30
0.0
 11
4.8631500475835772
 21
32.450073152061663
 31
0.0
  0
LINE
  5
14B80
  8
DETAIL
  6
HIDDEN
 10
4.9377144576597107
 20
32.450073152061663
 30
0.0
 11
4.9294413083198272
 21
32.450073152061663
 31
0.0
  0
LINE
  5
14B81
  8
DETAIL
  6
HIDDEN
 10
4.8051319361872249
 20
32.450073152061663
 30
0.0
 11
4.7968587868473396
 21
32.450073152061663
 31
0.0
  0
LINE
  5
14B82
  8
DETAIL
  6
HIDDEN
 10
4.7968587868473396
 20
32.450073152061663
 30
0.0
 11
4.8905712868473348
 21
32.356360652061653
 31
0.0
  0
LINE
  5
14B83
  8
DETAIL
  6
HIDDEN
 10
4.8051319361872249
 20
32.450073152061663
 30
0.0
 11
4.8988444361872201
 21
32.356360652061653
 31
0.0
  0
LINE
  5
14B84
  8
DETAIL
  6
HIDDEN
 10
4.8631500475835772
 20
32.450073152061663
 30
0.0
 11
4.9568625475835848
 21
32.356360652061653
 31
0.0
  0
LINE
  5
14B85
  8
DETAIL
  6
HIDDEN
 10
4.8714231969234607
 20
32.450073152061663
 30
0.0
 11
4.9651356969234559
 21
32.356360652061653
 31
0.0
  0
LINE
  5
14B86
  8
DETAIL
  6
HIDDEN
 10
4.9651356969234559
 20
32.356360652061653
 30
0.0
 11
4.9568625475835848
 21
32.356360652061653
 31
0.0
  0
LINE
  5
14B87
  8
DETAIL
  6
HIDDEN
 10
4.8988444361872201
 20
32.356360652061653
 30
0.0
 11
4.8905712868473348
 21
32.356360652061653
 31
0.0
  0
LINE
  5
14B88
  8
DETAIL
  6
HIDDEN
 10
4.8325531754509852
 20
32.356360652061653
 30
0.0
 11
4.824280026111099
 21
32.356360652061653
 31
0.0
  0
LINE
  5
14B89
  8
DETAIL
  6
HIDDEN
 10
4.7422675261111102
 20
32.438373152061651
 30
0.0
 11
4.6842494147147438
 21
32.438373152061651
 31
0.0
  0
INSERT
  5
14B8A
  8
HATCH
  2
AX-6272
 10
5.3024421800112567
 20
27.604295625669518
 30
0.0
  0
LINE
  5
14B8B
  8
DETAIL
  6
HIDDEN
 10
4.7388406754509891
 20
32.450073152061663
 30
0.0
 11
4.7305675261111038
 21
32.450073152061663
 31
0.0
  0
LINE
  5
14B8C
  8
DETAIL
  6
HIDDEN
 10
4.8125800261111102
 20
32.368060652061651
 30
0.0
 11
4.7545619147147438
 21
32.368060652061651
 31
0.0
  0
LINE
  5
14B8D
  8
DETAIL
  6
HIDDEN
 10
4.8085587868473452
 20
32.438373152061651
 30
0.0
 11
4.7505406754509796
 21
32.438373152061651
 31
0.0
  0
LINE
  5
14B8E
  8
DETAIL
  6
HIDDEN
 10
4.7388406754509891
 20
32.450073152061663
 30
0.0
 11
4.8325531754509852
 21
32.356360652061653
 31
0.0
  0
LINE
  5
14B8F
  8
DETAIL
  6
HIDDEN
 10
4.7305675261111038
 20
32.450073152061663
 30
0.0
 11
4.824280026111099
 21
32.356360652061653
 31
0.0
  0
LINE
  5
14B90
  8
DETAIL
  6
HIDDEN
 10
5.0114538083198159
 20
32.368060652061651
 30
0.0
 11
4.9534356969234672
 21
32.368060652061651
 31
0.0
  0
LINE
  5
14B91
  8
DETAIL
  6
HIDDEN
 10
4.9377144576597107
 20
32.450073152061663
 30
0.0
 11
5.0314269576597059
 21
32.356360652061653
 31
0.0
  0
LINE
  5
14B92
  8
DETAIL
  6
HIDDEN
 10
4.9294413083198272
 20
32.450073152061663
 30
0.0
 11
5.0231538083198224
 21
32.356360652061653
 31
0.0
  0
LINE
  5
14B93
  8
DETAIL
  6
HIDDEN
 10
9.7303454849877955
 20
28.026954821723191
 30
0.0
 11
9.7303454849877955
 21
28.084972933119541
 31
0.0
  0
LINE
  5
14B94
  8
DETAIL
  6
HIDDEN
 10
9.6600329849877955
 20
27.956642321723191
 30
0.0
 11
9.6600329849877955
 21
28.014660433119541
 31
0.0
  0
ARC
  5
14B95
  8
DETAIL
  6
CONTINUOUS
 10
9.5340149244673906
 20
27.756327818952201
 30
0.0
 40
0.1262904644866331
 50
290.3832941262599
 51
358.80910344111157
  0
LINE
  5
14B96
  8
DETAIL
  6
CONTINUOUS
 10
9.7303454849877955
 20
27.763116487160239
 30
0.0
 11
9.7303454849877955
 21
27.88609915091082
 31
0.0
  0
LINE
  5
14B97
  8
DETAIL
  6
CONTINUOUS
 10
9.6602781099980088
 20
27.753703052313291
 30
0.0
 11
9.6600329849877955
 21
27.88207791164707
 31
0.0
  0
LINE
  5
14B98
  8
DETAIL
  6
HIDDEN
 10
9.6483329849878086
 20
27.936669172383311
 30
0.0
 11
9.6483329849878086
 21
27.9449423217232
 31
0.0
  0
LINE
  5
14B99
  8
DETAIL
  6
CONTINUOUS
 10
9.6483329849878086
 20
27.870377911647079
 30
0.0
 11
9.6483329849878086
 21
27.87865106098695
 31
0.0
  0
LINE
  5
14B9A
  8
DETAIL
  6
CONTINUOUS
 10
9.6600329849877955
 20
27.890351060986958
 30
0.0
 11
9.6600329849877955
 21
27.948369172383309
 31
0.0
  0
LINE
  5
14B9B
  8
DETAIL
  6
CONTINUOUS
 10
9.6483329849878086
 20
27.804086650910829
 30
0.0
 11
9.6483329849878086
 21
27.812359800250711
 31
0.0
  0
LINE
  5
14B9C
  8
DETAIL
  6
CONTINUOUS
 10
9.7420454849878162
 20
27.90607230025071
 30
0.0
 11
9.6483329849878086
 21
27.812359800250711
 31
0.0
  0
LINE
  5
14B9D
  8
DETAIL
  6
CONTINUOUS
 10
9.7420454849878162
 20
27.897799150910831
 30
0.0
 11
9.6483329849878086
 21
27.804086650910829
 31
0.0
  0
LINE
  5
14B9E
  8
DETAIL
  6
CONTINUOUS
 10
9.7420454849878162
 20
27.964090411647081
 30
0.0
 11
9.6483329849878086
 21
27.870377911647079
 31
0.0
  0
LINE
  5
14B9F
  8
DETAIL
  6
CONTINUOUS
 10
9.7420454849878162
 20
27.97236356098697
 30
0.0
 11
9.6483329849878086
 21
27.87865106098695
 31
0.0
  0
LINE
  5
14BA0
  8
DETAIL
  6
HIDDEN
 10
9.7420454849878162
 20
28.03038167238331
 30
0.0
 11
9.6483329849878086
 21
27.936669172383311
 31
0.0
  0
LINE
  5
14BA1
  8
DETAIL
  6
HIDDEN
 10
9.7420454849878162
 20
28.038654821723199
 30
0.0
 11
9.6483329849878086
 21
27.9449423217232
 31
0.0
  0
LINE
  5
14BA2
  8
DETAIL
  6
HIDDEN
 10
9.7420454849878162
 20
28.03038167238331
 30
0.0
 11
9.7420454849878162
 21
28.038654821723199
 31
0.0
  0
LINE
  5
14BA3
  8
DETAIL
  6
CONTINUOUS
 10
9.7420454849878162
 20
27.897799150910831
 30
0.0
 11
9.7420454849878162
 21
27.90607230025071
 31
0.0
  0
LINE
  5
14BA4
  8
DETAIL
  6
HIDDEN
 10
9.7420454849878162
 20
27.964090411647081
 30
0.0
 11
9.7420454849878162
 21
27.97236356098697
 31
0.0
  0
LINE
  5
14BA5
  8
DETAIL
  6
CONTINUOUS
 10
9.7303454849877955
 20
27.894372300250719
 30
0.0
 11
9.7303454849877955
 21
27.95239041164708
 31
0.0
  0
LINE
  5
14BA6
  8
DETAIL
  6
HIDDEN
 10
9.7303454849877955
 20
27.960663560986958
 30
0.0
 11
9.7303454849877955
 21
28.018681672383298
 31
0.0
  0
LINE
  5
14BA7
  8
DETAIL
  6
HIDDEN
 10
9.6483329849878086
 20
28.268125476064512
 30
0.0
 11
9.6483329849878086
 21
28.276398625404401
 31
0.0
  0
LINE
  5
14BA8
  8
DETAIL
  6
HIDDEN
 10
9.7419346757672294
 20
28.361727166843949
 30
0.0
 11
9.7391769593206217
 21
28.36724259973721
 31
0.0
  0
LINE
  5
14BA9
  8
DETAIL
  6
HIDDEN
 10
9.7391769593206217
 20
28.36724259973721
 30
0.0
 11
9.6483329849878086
 21
28.276398625404401
 31
0.0
  0
LINE
  5
14BAA
  8
DETAIL
  6
HIDDEN
 10
9.7419346757672294
 20
28.361727166843949
 30
0.0
 11
9.6483329849878086
 21
28.268125476064512
 31
0.0
  0
LINE
  5
14BAB
  8
DETAIL
  6
HIDDEN
 10
9.7289666267644783
 20
28.357032267181079
 30
0.0
 11
9.7096272562990311
 21
28.395711008111991
 31
0.0
  0
LINE
  5
14BAC
  8
DETAIL
  6
HIDDEN
 10
9.7068695398524234
 20
28.40122644100525
 30
0.0
 11
9.6951892349877955
 21
28.424587050734448
 31
0.0
  0
LINE
  5
14BAD
  8
DETAIL
  6
HIDDEN
 10
9.7183479214112953
 20
28.404431673224231
 30
0.0
 11
9.7155902049646592
 21
28.4099471061175
 31
0.0
  0
LINE
  5
14BAE
  8
DETAIL
  6
HIDDEN
 10
9.6600329849877955
 20
28.288098625404398
 30
0.0
 11
9.6600329849877955
 21
28.346116736800749
 31
0.0
  0
LINE
  5
14BAF
  8
DETAIL
  6
HIDDEN
 10
9.6951892349877955
 20
28.424587050734448
 30
0.0
 11
9.6600329849877955
 21
28.354274550734448
 31
0.0
  0
LINE
  5
14BB0
  8
DETAIL
  6
HIDDEN
 10
9.6483329849878086
 20
28.33441673680074
 30
0.0
 11
9.6483329849878086
 21
28.342689886140629
 31
0.0
  0
LINE
  5
14BB1
  8
DETAIL
  6
HIDDEN
 10
9.7183479214112953
 20
28.404431673224231
 30
0.0
 11
9.6483329849878086
 21
28.33441673680074
 31
0.0
  0
LINE
  5
14BB2
  8
DETAIL
  6
HIDDEN
 10
9.7155902049646592
 20
28.4099471061175
 30
0.0
 11
9.6483329849878086
 21
28.342689886140629
 31
0.0
  0
LINE
  5
14BB3
  8
DETAIL
  6
CONTINUOUS
 10
9.8123767349877955
 20
27.63794521076802
 30
0.0
 11
9.5780017349877955
 21
27.63794521076802
 31
0.0
  0
LINE
  5
14BB4
  8
DETAIL
  6
HIDDEN
 10
9.6483329849878086
 20
28.002960433119551
 30
0.0
 11
9.6483329849878086
 21
28.011233582459429
 31
0.0
  0
ARC
  5
14BB5
  8
DETAIL
  6
CONTINUOUS
 10
9.8593569330845998
 20
27.758199090204961
 30
0.0
 40
0.1291051297696916
 50
177.81717225968839
 51
248.66064953988541
  0
LINE
  5
14BB6
  8
DETAIL
  6
HIDDEN
 10
9.7303454849877955
 20
28.15953734319568
 30
0.0
 11
9.7303454849877955
 21
28.217555454592041
 31
0.0
  0
LINE
  5
14BB7
  8
DETAIL
  6
HIDDEN
 10
9.6600329849877955
 20
28.155516103931909
 30
0.0
 11
9.6600329849877955
 21
28.213534215328281
 31
0.0
  0
LINE
  5
14BB8
  8
DETAIL
  6
HIDDEN
 10
9.6600329849877955
 20
28.08922484319568
 30
0.0
 11
9.6600329849877955
 21
28.147242954592041
 31
0.0
  0
LINE
  5
14BB9
  8
DETAIL
  6
HIDDEN
 10
9.7303454849877955
 20
28.093246082459441
 30
0.0
 11
9.7303454849877955
 21
28.151264193855791
 31
0.0
  0
LINE
  5
14BBA
  8
DETAIL
  6
HIDDEN
 10
9.7420454849878162
 20
28.1629641938558
 30
0.0
 11
9.7420454849878162
 21
28.171237343195681
 31
0.0
  0
LINE
  5
14BBB
  8
DETAIL
  6
HIDDEN
 10
9.7420454849878162
 20
28.096672933119549
 30
0.0
 11
9.7420454849878162
 21
28.104946082459431
 31
0.0
  0
LINE
  5
14BBC
  8
DETAIL
  6
HIDDEN
 10
9.7420454849878162
 20
28.229255454592028
 30
0.0
 11
9.7420454849878162
 21
28.237528603931921
 31
0.0
  0
LINE
  5
14BBD
  8
DETAIL
  6
HIDDEN
 10
9.7420454849878162
 20
28.237528603931921
 30
0.0
 11
9.6483329849878086
 21
28.143816103931918
 31
0.0
  0
LINE
  5
14BBE
  8
DETAIL
  6
HIDDEN
 10
9.7420454849878162
 20
28.229255454592028
 30
0.0
 11
9.6483329849878086
 21
28.13554295459204
 31
0.0
  0
LINE
  5
14BBF
  8
DETAIL
  6
HIDDEN
 10
9.7420454849878162
 20
28.171237343195681
 30
0.0
 11
9.6483329849878086
 21
28.077524843195668
 31
0.0
  0
LINE
  5
14BC0
  8
DETAIL
  6
HIDDEN
 10
9.7420454849878162
 20
28.1629641938558
 30
0.0
 11
9.6483329849878086
 21
28.069251693855801
 31
0.0
  0
LINE
  5
14BC1
  8
DETAIL
  6
HIDDEN
 10
9.6483329849878086
 20
28.069251693855801
 30
0.0
 11
9.6483329849878086
 21
28.077524843195668
 31
0.0
  0
LINE
  5
14BC2
  8
DETAIL
  6
HIDDEN
 10
9.6483329849878086
 20
28.13554295459204
 30
0.0
 11
9.6483329849878086
 21
28.143816103931918
 31
0.0
  0
LINE
  5
14BC3
  8
DETAIL
  6
HIDDEN
 10
9.6483329849878086
 20
28.201834215328269
 30
0.0
 11
9.6483329849878086
 21
28.210107364668161
 31
0.0
  0
LINE
  5
14BC4
  8
DETAIL
  6
HIDDEN
 10
9.7303454849877955
 20
28.292119864668152
 30
0.0
 11
9.7303454849877955
 21
28.35013797606452
 31
0.0
  0
LINE
  5
14BC5
  8
DETAIL
  6
HIDDEN
 10
9.7420454849878162
 20
28.295546715328271
 30
0.0
 11
9.7420454849878162
 21
28.303819864668149
 31
0.0
  0
LINE
  5
14BC6
  8
DETAIL
  6
HIDDEN
 10
9.6600329849877955
 20
28.221807364668152
 30
0.0
 11
9.6600329849877955
 21
28.279825476064509
 31
0.0
  0
LINE
  5
14BC7
  8
DETAIL
  6
HIDDEN
 10
9.7303454849877955
 20
28.225828603931909
 30
0.0
 11
9.7303454849877955
 21
28.283846715328291
 31
0.0
  0
POLYLINE
  5
14BC8
  8
WALL
 62
     5
 66
     1
 10
0.0
 20
0.0
 30
0.0
  0
VERTEX
  5
315FA
  8
WALL
 62
     5
 10
5.3024421800112567
 20
33.841307728223491
 30
0.0
  0
VERTEX
  5
315FB
  8
WALL
 62
     5
 10
5.3024421800112567
 20
25.894626075899829
 30
0.0
  0
SEQEND
  5
315FC
  8
WALL
 62
     5
  0
LINE
  5
14BC9
  8
DETAIL
  6
HIDDEN
 10
9.7420454849878162
 20
28.295546715328271
 30
0.0
 11
9.6483329849878086
 21
28.201834215328269
 31
0.0
  0
POLYLINE
  5
14BCA
  8
WALL
 62
     5
 66
     1
 10
0.0
 20
0.0
 30
0.0
  0
VERTEX
  5
315FD
  8
WALL
 62
     5
 10
4.8024421800112567
 20
25.915750426463308
 30
0.0
  0
VERTEX
  5
315FE
  8
WALL
 62
     5
 10
4.8024421800112567
 20
33.841307728223491
 30
0.0
  0
SEQEND
  5
315FF
  8
WALL
 62
     5
  0
LINE
  5
14BCB
  8
DETAIL
  6
HIDDEN
 10
9.7420454849878162
 20
28.303819864668149
 30
0.0
 11
9.6483329849878086
 21
28.210107364668161
 31
0.0
  0
POLYLINE
  5
14BCC
  8
WALL
 62
     5
 66
     1
 10
0.0
 20
0.0
 30
0.0
  0
VERTEX
  5
31600
  8
WALL
 62
     5
 10
10.73741502776053
 20
27.68029562566943
 30
0.0
  0
VERTEX
  5
31601
  8
WALL
 62
     5
 10
9.3649421800112442
 20
27.68029562566943
 30
0.0
  0
VERTEX
  5
31602
  8
WALL
 62
     5
 10
9.3649421800112442
 20
27.867966902061649
 30
0.0
  0
VERTEX
  5
31603
  8
WALL
 62
     5
 10
10.73741502776053
 20
27.867966902061649
 30
0.0
  0
SEQEND
  5
31604
  8
WALL
 62
     5
  0
LINE
  5
14BCD
  8
DETAIL
  6
HIDDEN
 10
9.6600329849877955
 20
28.022933582459441
 30
0.0
 11
9.6600329849877955
 21
28.080951693855791
 31
0.0
  0
LINE
  5
14BCE
  8
DETAIL
  6
HIDDEN
 10
9.7420454849878162
 20
28.096672933119549
 30
0.0
 11
9.6483329849878086
 21
28.002960433119551
 31
0.0
  0
LINE
  5
14BD0
  8
DETAIL
  6
HIDDEN
 10
9.7420454849878162
 20
28.104946082459431
 30
0.0
 11
9.6483329849878086
 21
28.011233582459429
 31
0.0
  0
INSERT
  5
14BD1
  8
HATCH
  2
GEG-115
 10
9.3024421800112442
 20
27.867966902061649
 30
0.0
  0
INSERT
  5
14BD2
  8
HATCH
  2
GEG-142
 10
9.1974421800112278
 20
27.650295625669461
 30
0.0
  0
INSERT
  5
14C02
  8
HATCH
  6
CONTINUOUS
  2
*U40
 10
0.0
 20
0.0
 30
0.0
1001
ACAD
1002
{
1000
R14_HATCH_DATA
1000
14C02
1011
1.0
1021
0.0
1031
0.0
1021
0.0
1031
0.0
1011
0.0
1021
0.0
1031
0.0
1021
1.0
1031
0.0
1011
0.0
1021
0.0
1031
0.0
1021
0.0
1031
1.0
1040
0.0
1010
0.0
1020
0.0
1030
1.0
1000
SOLID
1070
     1
1070
     0
1071
        1
1071
        7
1070
     1
1070
     1
1071
       31
1040
9.3964421800112419
1040
32.898466902061656
1040
0.0
1040
9.1699421800112404
1040
32.898466902061656
1040
0.0
1040
9.1699421800112351
1040
32.774466902061647
1040
0.0
1040
9.2324421800112404
1040
32.774466902061647
1040
0.0
1040
9.2324421800112404
1040
32.835966902061671
1040
0.0
1040
9.3024421800112407
1040
32.835966902061671
1040
0.0
1040
9.3024421800112407
1040
31.961966902061661
1040
0.0
1040
9.2324421800112404
1040
31.961966902061661
1040
0.0
1040
9.2324421800112404
1040
32.024466902061661
1040
0.0
1040
9.1699421800112351
1040
32.024466902061661
1040
0.0
1040
9.1699421800112404
1040
31.961966902061661
1040
0.0
1040
5.3964421800112463
1040
31.961966902061661
1040
0.0
1040
5.3964421800112437
1040
32.897966902061647
1040
0.0
1040
5.302442180011246
1040
32.897966902061661
1040
0.0
1040
5.302442180011246
1040
31.867966902061649
1040
0.0
1040
9.3024421800112407
1040
31.867966902061649
1040
0.0
1040
9.3024421800112442
1040
27.867966902061649
1040
0.0
1040
10.302442180011241
1040
27.867966902061649
1040
0.0
1040
10.302442180011241
1040
27.961966902061661
1040
0.0
1040
9.5692395309756968
1040
27.961966902061661
1040
-0.4826133330779251
1040
9.5594978091237301
1040
27.974224966577768
1040
0.0328788792828262
1040
9.5619139592101092
1040
27.989005363600089
1040
0.442709632302713
1040
9.5519602943678397
1040
27.999966902061651
1040
0.0
1040
9.509630414174687
1040
27.999966902061651
1040
0.3675231814699564
1040
9.4997613441483768
1040
27.991579805287451
1040
-1.9507363353359961
1040
9.4400550832370946
1040
28.051286066198472
1040
0.3675231814699396
1040
9.4484421800112433
1040
28.061155136225089
1040
0.0
1040
9.4484421800112433
1040
28.103485016418251
1040
0.4427096323027423
1040
9.4374806415496995
1040
28.113438681260249
1040
0.062391403819236
1040
9.4098292767854748
1040
28.107228468824768
1040
-0.5194488766220518
1040
9.3964421800112454
1040
28.11663737819006
1040
0.0
1071
        0
1070
     0
1070
     1
1040
0.0046772743666983
1071
        1
1040
9.3410796664755456
1040
29.468370352707179
1040
0.0
1002
}
  0
INSERT
  5
14C2A
  8
HATCH
  6
CONTINUOUS
  2
*U41
 10
0.0
 20
0.0
 30
0.0
1001
ACAD
1002
{
1000
R14_HATCH_DATA
1000
14C2A
1011
1.0
1021
0.0
1031
0.0
1021
0.0
1031
0.0
1011
0.0
1021
0.0
1031
0.0
1021
1.0
1031
0.0
1011
0.0
1021
0.0
1031
0.0
1021
0.0
1031
1.0
1040
0.0
1010
0.0
1020
0.0
1030
1.0
1000
SOLID
1070
     1
1070
     0
1071
        1
1071
        7
1070
     1
1070
     1
1071
       36
1040
9.3856528581298182
1040
27.630295625669412
1040
0.0
1040
9.5651922872616861
1040
27.634732590899951
1040
0.0
1040
9.5749421800110568
1040
27.644976593602731
1040
0.0
1040
9.5851861827137927
1040
27.635226700853131
1040
0.0
1040
9.6451922872616151
1040
27.636709634160979
1040
0.0
1040
9.6549421800110906
1040
27.64695363686371
1040
0.0
1040
9.6651861827138248
1040
27.63720374411411
1040
0.0
1040
9.7251922872617662
1040
27.638686677421909
1040
0.0
1040
9.7349421800111369
1040
27.648930680124689
1040
0.0
1040
9.7451861827136455
1040
27.63918078737527
1040
0.0
1040
9.8051922872616935
1040
27.64066372068282
1040
0.0
1040
9.8149421800111742
1040
27.650907723385671
1040
0.0
1040
9.8251861827137983
1040
27.641157830636249
1040
0.0
1040
9.8851922872617344
1040
27.642640763943739
1040
0.0
1040
9.8949421800112152
1040
27.65288476664659
1040
0.0
1040
9.9051861827137202
1040
27.643134873897171
1040
0.0
1040
9.9651922872617753
1040
27.644617807204721
1040
0.0
1040
9.9749421800112614
1040
27.654861809907569
1040
0.0
1040
9.9851861827138695
1040
27.64511191715814
1040
0.0
1040
10.045192287261809
1040
27.6465948504657
1040
0.0
1040
10.054942180011301
1040
27.656838853168551
1040
0.0
1040
10.065186182713919
1040
27.647088960419119
1040
0.0
1040
10.125192287261861
1040
27.6485718937268
1040
0.0
1040
10.13494218001134
1040
27.65881589642964
1040
0.0
1040
10.14518618271406
1040
27.649066003680101
1040
0.0
1040
10.195683118717509
1040
27.6503139365179
1040
0.9755922798192891
1040
10.194942180011401
1040
27.68029562566943
1040
0.0
1040
9.3649421800112442
1040
27.68029562566943
1040
0.0
1040
9.3349421800112662
1040
27.65029562566945
1040
0.0
1040
9.2599421800112296
1040
27.650295625669461
1040
0.0
1040
9.2599421800113362
1040
28.40029562566945
1040
0.0
1040
9.1974421800113415
1040
28.40029562566945
1040
0.0
1040
9.1974421800112278
1040
27.65029562566945
1040
0.0
1040
8.4474421800113397
1040
27.650295625669461
1040
0.0
1040
8.4474421800113397
1040
27.587795625669401
1040
0.0
1040
9.3431528581299172
1040
27.587795625669401
1040
0.0
1071
        0
1070
     0
1070
     1
1040
0.0046772743666983
1071
        1
1040
9.1928278025570531
1040
27.602691770997922
1040
0.0
1002
}
  0
INSERT
  5
14C33
  8
HATCH
  6
CONTINUOUS
  2
*U42
 10
0.0
 20
0.0
 30
0.0
1001
ACAD
1002
{
1000
R14_HATCH_DATA
1000
14C33
1011
1.0
1021
0.0
1031
0.0
1021
0.0
1031
0.0
1011
0.0
1021
0.0
1031
0.0
1021
1.0
1031
0.0
1011
0.0
1021
0.0
1031
0.0
1021
0.0
1031
1.0
1040
0.0
1010
0.0
1020
0.0
1030
1.0
1000
SOLID
1070
     1
1070
     0
1071
        1
1071
        7
1070
     0
1070
     1
1071
        6
1040
6.0524421800112442
1040
27.650295625669461
1040
5.3484421800112347
1040
27.650295625669571
1040
5.3484421800112489
1040
28.354295625669408
1040
5.3024421800112567
1040
28.354295625669291
1040
5.3024421800112567
1040
27.604295625669511
1040
6.0524421800112567
1040
27.604295625669401
1071
        0
1070
     0
1070
     1
1040
0.0046772743666983
1071
        1
1040
5.7934605538775958
1040
27.616682392445089
1040
0.0
1002
}
  0
INSERT
  5
14C43
  8
HATCH
  6
CONTINUOUS
  2
*X43
 10
0.0
 20
0.0
 30
0.0
1001
ACAD
1000
HATCH
1002
{
1070
    19
1000
ANSI31
1040
1.0
1040
0.0
1000
R14_HATCH_DATA
1000
14C43
1011
1.0
1021
0.0
1031
0.0
1021
0.0
1031
0.0
1011
0.0
1021
0.0
1031
0.0
1021
1.0
1031
0.0
1011
0.0
1021
0.0
1031
0.0
1021
0.0
1031
1.0
1040
0.0
1010
0.0
1020
0.0
1030
1.0
1000
ANSI31
1070
     0
1070
     0
1071
        1
1071
        7
1070
     0
1070
     1
1071
        4
1040
4.8024421800112558
1040
33.841307728223491
1040
4.43826371205986
1040
33.841307728223491
1040
4.43826371205986
1040
25.894626075899829
1040
4.8024421800112558
1040
25.894626075899829
1071
        0
1070
     0
1070
     1
1040
0.0
1040
1.0
1070
     0
1070
     1
1040
0.7853981633974483
1040
0.0
1040
0.0
1040
-0.0883883476483184
1040
0.0883883476483185
1070
     0
1040
0.0123125516418697
1071
        1
1040
4.6058493041508974
1040
30.250543870697971
1040
0.0
1002
}
  0
INSERT
  5
14C63
  8
SECTION
  2
*U7
 10
4.8703529460355579
 20
33.841307728223491
 30
0.0
 50
270.0
  0
INSERT
  5
14CA1
  8
SECTION
  2
*U7
 10
4.8703529460355579
 20
25.894626075899829
 30
0.0
 50
270.0
  0
LINE
  5
14D65
  8
0
  6
CONTINUOUS
 62
   253
 10
10.73741502776053
 20
27.6082234064753
 30
0.0
 11
10.73741502776053
 21
27.742315549085049
 31
0.0
1001
ACDBBLOCKREPETAG
1070
     1
1071
        0
1005
14D65
  0
LINE
  5
14D66
  8
0
  6
CONTINUOUS
 62
   253
 10
10.73741502776053
 20
27.742315549085049
 30
0.0
 11
10.69001312829171
 21
27.758223406475292
 31
0.0
1001
ACDBBLOCKREPETAG
1070
     1
1071
        1
1005
14D66
  0
LINE
  5
14D67
  8
0
  6
CONTINUOUS
 62
   253
 10
10.69001312829171
 20
27.758223406475292
 30
0.0
 11
10.78481692722934
 21
27.790039121255798
 31
0.0
1001
ACDBBLOCKREPETAG
1070
     1
1071
        2
1005
14D67
  0
LINE
  5
14D68
  8
0
  6
CONTINUOUS
 62
   253
 10
10.78481692722934
 20
27.790039121255798
 30
0.0
 11
10.73741502776053
 21
27.805946978646048
 31
0.0
1001
ACDBBLOCKREPETAG
1070
     1
1071
        3
1005
14D68
  0
LINE
  5
14D69
  8
0
  6
CONTINUOUS
 62
   253
 10
10.73741502776053
 20
27.805946978646048
 30
0.0
 11
10.73741502776053
 21
27.94003912125579
 31
0.0
1001
ACDBBLOCKREPETAG
1070
     1
1071
        4
1005
14D69
  0
INSERT
  5
14D6F
  8
0
  2
*U44
 10
0.0
 20
0.0
 30
0.0
1001
ACAD
1000
DSTYLE
1002
{
1070
   147
1040
0.09
1070
    77
1070
     0
1002
}
  0
INSERT
  5
14D70
  8
0
  2
*U45
 10
0.0
 20
0.0
 30
0.0
  0
INSERT
  5
14D71
  8
0
  2
*U46
 10
0.0
 20
0.0
 30
0.0
1001
ACAD
1000
DSTYLE
1002
{
1070
   147
1040
0.09
1070
    77
1070
     0
1002
}
  0
INSERT
  5
14D72
  8
0
  2
*U47
 10
0.0
 20
0.0
 30
0.0
  0
INSERT
  5
14D75
  8
0
  2
*U48
 10
0.0
 20
0.0
 30
0.0
1001
ACAD
1000
DSTYLE
1002
{
1070
   147
1040
0.09
1070
    77
1070
     0
1002
}
  0
INSERT
  5
14D76
  8
0
  2
*U49
 10
0.0
 20
0.0
 30
0.0
  0
INSERT
  5
14D77
  8
0
  2
*U50
 10
0.0
 20
0.0
 30
0.0
1001
ACAD
1000
DSTYLE
1002
{
1070
   147
1040
0.09
1070
    77
1070
     0
1002
}
  0
INSERT
  5
14D78
  8
0
  2
*U51
 10
0.0
 20
0.0
 30
0.0
  0
INSERT
  5
14D7A
  8
0
  2
*U52
 10
0.0
 20
0.0
 30
0.0
1001
ACAD
1000
DSTYLE
1002
{
1070
   147
1040
0.09
1070
    77
1070
     0
1002
}
  0
INSERT
  5
14D7B
  8
0
  2
*U53
 10
0.0
 20
0.0
 30
0.0
  0
INSERT
  5
14D7C
  8
0
  2
*U54
 10
0.0
 20
0.0
 30
0.0
1001
ACAD
1000
DSTYLE
1002
{
1070
   147
1040
0.09
1070
    77
1070
     0
1002
}
  0
INSERT
  5
14D7D
  8
0
  2
*U55
 10
0.0
 20
0.0
 30
0.0
  0
INSERT
  5
14D7E
  8
0
  2
*U56
 10
0.0
 20
0.0
 30
0.0
1001
ACAD
1000
DSTYLE
1002
{
1070
   147
1040
0.09
1070
    77
1070
     0
1002
}
  0
INSERT
  5
14D7F
  8
0
  2
*U57
 10
0.0
 20
0.0
 30
0.0
  0
INSERT
  5
14D82
  8
0
  2
*U58
 10
0.0
 20
0.0
 30
0.0
1001
ACAD
1000
DSTYLE
1002
{
1070
   147
1040
0.09
1070
    77
1070
     0
1002
}
  0
INSERT
  5
14D83
  8
0
  2
*U59
 10
0.0
 20
0.0
 30
0.0
  0
INSERT
  5
14D84
  8
0
  2
*U60
 10
0.0
 20
0.0
 30
0.0
1001
ACAD
1000
DSTYLE
1002
{
1070
   147
1040
0.09
1070
    77
1070
     0
1002
}
  0
INSERT
  5
14D85
  8
0
  2
*U61
 10
0.0
 20
0.0
 30
0.0
  0
INSERT
  5
14DA3
  8
HATCH
  6
CONTINUOUS
 62
     5
  2
*X62
 10
0.0
 20
0.0
 30
0.0
1001
ACAD
1000
HATCH
1002
{
1070
    19
1000
AR-SAND
1040
0.05
1040
0.0
1000
R14_HATCH_DATA
1000
14DA3
1011
1.0
1021
0.0
1031
0.0
1021
0.0
1031
0.0
1011
0.0
1021
0.0
1031
0.0
1021
1.0
1031
0.0
1011
0.0
1021
0.0
1031
0.0
1021
0.0
1031
1.0
1040
0.0
1010
0.0
1020
0.0
1030
1.0
1000
AR-SAND
1070
     0
1070
     0
1071
        1
1071
        7
1070
     0
1070
     1
1071
        9
1040
10.69001312829171
1040
27.758223406475292
1040
10.78481692722935
1040
27.790039121255798
1040
10.73741502776053
1040
27.805946978646048
1040
10.73741502776053
1040
27.86796690206166
1040
9.3649421800112442
1040
27.867966902061649
1040
9.3649421800112442
1040
27.68029562566943
1040
10.194942180011401
1040
27.68029562566943
1040
10.73741502776053
1040
27.68029562566943
1040
10.73741502776053
1040
27.742315549085049
1071
        0
1070
     0
1070
     1
1040
0.0
1040
0.05
1070
     0
1070
     4
1040
0.6544984694978738
1040
0.0
1040
0.0
1040
-0.0031496679054804
1040
0.0963411884506579
1070
     6
1040
0.0
1040
-0.076
1040
0.0
1040
-0.085
1040
0.0
1040
-0.08125
1040
0.1308996938995747
1040
0.0
1040
0.0
1040
0.0884888352633864
1040
0.141107303261487
1070
     6
1040
0.0
1040
-0.041
1040
0.0
1040
-0.0685
1040
0.0
1040
-0.02625
1040
5.715953300281428
1040
-0.0615
1040
0.0
1040
0.1557070930875748
1040
0.0002829526768482
1070
     6
1040
0.0
1040
-0.025
1040
0.0
1040
-0.09
1040
0.0
1040
-0.1175
1040
5.5414203750819961
1040
-0.0615
1040
0.0
1040
0.1503063302286147
1040
0.0438837782467125
1070
     6
1040
0.0
1040
-0.0125
1040
0.0
1040
-0.059
1040
0.0
1040
-0.0675
1040
0.0015581091863161
1071
        1
1040
9.9842297200910046
1040
27.752571069695041
1040
0.0
1002
}
  0
VIEWPORT
  5
5D
 67
     1
  8
0
 10
3.8825913359610009
 20
5.1027757335016402
 30
0.0
 40
19.89455651368068
 41
10.29835866590529
 68
     1
 69
     1
1001
ACAD
1000
MVIEW
1002
{
1070
    16
1010
0.0
1020
0.0
1030
0.0
1010
0.0
1020
0.0
1030
1.0
1040
0.0
1040
10.29835866590529
1040
3.8825913359610009
1040
5.1027757335016402
1040
50.0
1040
0.0
1040
0.0
1070
     0
1070
   100
1070
     1
1070
     1
1070
     0
1070
     0
1070
     0
1070
     1
1040
0.0
1040
0.0
1040
0.0
1040
0.5
1040
0.5
1040
0.5
1040
0.5
1070
     0
1002
{
1002
}
1002
}
  0
ENDSEC
  0
EOF
