  0
SECTION
  2
HEADER
  9
$ACADVER
  1
AC1015
  9
$ACADMAINTVER
 70
    20
  9
$DWGCODEPAGE
  3
ANSI_1252
  9
$INSBASE
 10
1.235102848601107
 20
11.24774640129371
 30
0.0
  9
$EXTMIN
 10
9.720035321531906
 20
13.13609134058298
 30
0.0
  9
$EXTMAX
 10
27.37042631037287
 20
22.83776176126361
 30
0.0
  9
$LIMMIN
 10
0.0
 20
0.0
  9
$LIMMAX
 10
12.0
 20
9.0
  9
$ORTHOMODE
 70
     1
  9
$REGENMODE
 70
     1
  9
$FILLMODE
 70
     1
  9
$QTEXTMODE
 70
     0
  9
$MIRRTEXT
 70
     0
  9
$LTSCALE
 40
1.0
  9
$ATTMODE
 70
     1
  9
$TEXTSIZE
 40
0.25
  9
$TRACEWID
 40
0.05
  9
$TEXTSTYLE
  7
STD
  9
$CLAYER
  8
0
  9
$CELTYPE
  6
BYLAYER
  9
$CECOLOR
 62
   256
  9
$CELTSCALE
 40
1.0
  9
$DISPSILH
 70
     0
  9
$DIMSCALE
 40
1.0
  9
$DIMASZ
 40
0.18
  9
$DIMEXO
 40
0.0625
  9
$DIMDLI
 40
0.38
  9
$DIMRND
 40
0.0
  9
$DIMDLE
 40
0.0
  9
$DIMEXE
 40
0.18
  9
$DIMTP
 40
0.0
  9
$DIMTM
 40
0.0
  9
$DIMTXT
 40
0.18
  9
$DIMCEN
 40
0.09
  9
$DIMTSZ
 40
0.0
  9
$DIMTOL
 70
     0
  9
$DIMLIM
 70
     0
  9
$DIMTIH
 70
     1
  9
$DIMTOH
 70
     1
  9
$DIMSE1
 70
     0
  9
$DIMSE2
 70
     0
  9
$DIMTAD
 70
     0
  9
$DIMZIN
 70
     0
  9
$DIMBLK
  1

  9
$DIMASO
 70
     1
  9
$DIMSHO
 70
     1
  9
$DIMPOST
  1

  9
$DIMAPOST
  1

  9
$DIMALT
 70
     0
  9
$DIMALTD
 70
     2
  9
$DIMALTF
 40
25.4
  9
$DIMLFAC
 40
1.0
  9
$DIMTOFL
 70
     0
  9
$DIMTVP
 40
0.0
  9
$DIMTIX
 70
     0
  9
$DIMSOXD
 70
     0
  9
$DIMSAH
 70
     0
  9
$DIMBLK1
  1

  9
$DIMBLK2
  1

  9
$DIMSTYLE
  2
Standard
  9
$DIMCLRD
 70
     0
  9
$DIMCLRE
 70
     0
  9
$DIMCLRT
 70
     0
  9
$DIMTFAC
 40
1.0
  9
$DIMGAP
 40
0.09
  9
$DIMJUST
 70
     0
  9
$DIMSD1
 70
     0
  9
$DIMSD2
 70
     0
  9
$DIMTOLJ
 70
     1
  9
$DIMTZIN
 70
     0
  9
$DIMALTZ
 70
     0
  9
$DIMALTTZ
 70
     0
  9
$DIMUPT
 70
     0
  9
$DIMDEC
 70
     4
  9
$DIMTDEC
 70
     4
  9
$DIMALTU
 70
     2
  9
$DIMALTTD
 70
     2
  9
$DIMTXSTY
  7
STANDARD
  9
$DIMAUNIT
 70
     0
  9
$DIMADEC
 70
     0
  9
$DIMALTRND
 40
0.0
  9
$DIMAZIN
 70
     0
  9
$DIMDSEP
 70
    46
  9
$DIMATFIT
 70
     3
  9
$DIMFRAC
 70
     0
  9
$DIMLDRBLK
  1

  9
$DIMLUNIT
 70
     2
  9
$DIMLWD
 70
    -2
  9
$DIMLWE
 70
    -2
  9
$DIMTMOVE
 70
     0
  9
$LUNITS
 70
     5
  9
$LUPREC
 70
     6
  9
$SKETCHINC
 40
0.1
  9
$FILLETRAD
 40
0.0
  9
$AUNITS
 70
     0
  9
$AUPREC
 70
     0
  9
$MENU
  1
.
  9
$ELEVATION
 40
0.0
  9
$PELEVATION
 40
0.0
  9
$THICKNESS
 40
0.0
  9
$LIMCHECK
 70
     0
  9
$CHAMFERA
 40
0.5
  9
$CHAMFERB
 40
0.5
  9
$CHAMFERC
 40
1.0
  9
$CHAMFERD
 40
0.0
  9
$SKPOLY
 70
     0
  9
$TDCREATE
 40
2451225.386950695
  9
$TDUCREATE
 40
2451225.595284028
  9
$TDUPDATE
 40
2456800.598870903
  9
$TDUUPDATE
 40
2456800.807204236
  9
$TDINDWG
 40
0.6858978819
  9
$TDUSRTIMER
 40
0.6858978125
  9
$USRTIMER
 70
     1
  9
$ANGBASE
 50
0.0
  9
$ANGDIR
 70
     0
  9
$PDMODE
 70
     3
  9
$PDSIZE
 40
0.0
  9
$PLINEWID
 40
0.0
  9
$SPLFRAME
 70
     0
  9
$SPLINETYPE
 70
     6
  9
$SPLINESEGS
 70
     8
  9
$HANDSEED
  5
3675B
  9
$SURFTAB1
 70
     6
  9
$SURFTAB2
 70
     6
  9
$SURFTYPE
 70
     6
  9
$SURFU
 70
     6
  9
$SURFV
 70
     6
  9
$UCSBASE
  2

  9
$UCSNAME
  2

  9
$UCSORG
 10
0.0
 20
0.0
 30
0.0
  9
$UCSXDIR
 10
1.0
 20
0.0
 30
0.0
  9
$UCSYDIR
 10
0.0
 20
1.0
 30
0.0
  9
$UCSORTHOREF
  2

  9
$UCSORTHOVIEW
 70
     0
  9
$UCSORGTOP
 10
0.0
 20
0.0
 30
0.0
  9
$UCSORGBOTTOM
 10
0.0
 20
0.0
 30
0.0
  9
$UCSORGLEFT
 10
0.0
 20
0.0
 30
0.0
  9
$UCSORGRIGHT
 10
0.0
 20
0.0
 30
0.0
  9
$UCSORGFRONT
 10
0.0
 20
0.0
 30
0.0
  9
$UCSORGBACK
 10
0.0
 20
0.0
 30
0.0
  9
$PUCSBASE
  2

  9
$PUCSNAME
  2

  9
$PUCSORG
 10
0.0
 20
0.0
 30
0.0
  9
$PUCSXDIR
 10
1.0
 20
0.0
 30
0.0
  9
$PUCSYDIR
 10
0.0
 20
1.0
 30
0.0
  9
$PUCSORTHOREF
  2

  9
$PUCSORTHOVIEW
 70
     0
  9
$PUCSORGTOP
 10
0.0
 20
0.0
 30
0.0
  9
$PUCSORGBOTTOM
 10
0.0
 20
0.0
 30
0.0
  9
$PUCSORGLEFT
 10
0.0
 20
0.0
 30
0.0
  9
$PUCSORGRIGHT
 10
0.0
 20
0.0
 30
0.0
  9
$PUCSORGFRONT
 10
0.0
 20
0.0
 30
0.0
  9
$PUCSORGBACK
 10
0.0
 20
0.0
 30
0.0
  9
$USERI1
 70
     0
  9
$USERI2
 70
     0
  9
$USERI3
 70
     0
  9
$USERI4
 70
     0
  9
$USERI5
 70
     0
  9
$USERR1
 40
0.0
  9
$USERR2
 40
0.0
  9
$USERR3
 40
0.0
  9
$USERR4
 40
0.0
  9
$USERR5
 40
0.0
  9
$WORLDVIEW
 70
     1
  9
$SHADEDGE
 70
     3
  9
$SHADEDIF
 70
    70
  9
$TILEMODE
 70
     1
  9
$MAXACTVP
 70
    48
  9
$PINSBASE
 10
0.0
 20
0.0
 30
0.0
  9
$PLIMCHECK
 70
     0
  9
$PEXTMIN
 10
0.0
 20
0.0
 30
0.0
  9
$PEXTMAX
 10
10.205
 20
7.764780009564798
 30
0.0
  9
$PLIMMIN
 10
-0.2079161059762549
 20
-0.2079166691697489
  9
$PLIMMAX
 10
10.79208365372785
 20
8.29208309053436
  9
$UNITMODE
 70
     0
  9
$VISRETAIN
 70
     1
  9
$PLINEGEN
 70
     0
  9
$PSLTSCALE
 70
     1
  9
$TREEDEPTH
 70
     0
  9
$CMLSTYLE
  2
STANDARD
  9
$CMLJUST
 70
     0
  9
$CMLSCALE
 40
1.0
  9
$PROXYGRAPHICS
 70
     1
  9
$MEASUREMENT
 70
     0
  9
$CELWEIGHT
370
    -1
  9
$ENDCAPS
280
     0
  9
$JOINSTYLE
280
     0
  9
$LWDISPLAY
290
     0
  9
$INSUNITS
 70
     1
  9
$HYPERLINKBASE
  1

  9
$STYLESHEET
  1
5000N-BLACK.CTB
  9
$XEDIT
290
     1
  9
$CEPSNTYPE
380
     0
  9
$PSTYLEMODE
290
     1
  9
$FINGERPRINTGUID
  2
{B3E5E9A9-FEC4-11D2-95EF-00104B2EF1F9}
  9
$VERSIONGUID
  2
{539F0EF4-B52F-4F69-B572-F8441290901B}
  9
$EXTNAMES
290
     1
  9
$PSVPSCALE
 40
0.0
  9
$OLESTARTUP
290
     0
  0
ENDSEC
  0
SECTION
  2
CLASSES
  0
CLASS
  1
IDBUFFER
  2
AcDbIdBuffer
  3
ObjectDBX Classes
 90
    32768
280
     0
281
     0
  0
CLASS
  1
ACDBDICTIONARYWDFLT
  2
AcDbDictionaryWithDefault
  3
ObjectDBX Classes
 90
        0
280
     0
281
     0
  0
CLASS
  1
ACDBPLACEHOLDER
  2
AcDbPlaceHolder
  3
ObjectDBX Classes
 90
        0
280
     0
281
     0
  0
CLASS
  1
LAYOUT
  2
AcDbLayout
  3
ObjectDBX Classes
 90
        0
280
     0
281
     0
  0
CLASS
  1
DICTIONARYVAR
  2
AcDbDictionaryVar
  3
ObjectDBX Classes
 90
        0
280
     0
281
     0
  0
CLASS
  1
TABLESTYLE
  2
AcDbTableStyle
  3
ObjectDBX Classes
 90
     4095
280
     0
281
     0
  0
CLASS
  1
PLOTSETTINGS
  2
AcDbPlotSettings
  3
ObjectDBX Classes
 90
        0
280
     0
281
     0
  0
CLASS
  1
MATERIAL
  2
AcDbMaterial
  3
ObjectDBX Classes
 90
     1153
280
     0
281
     0
  0
CLASS
  1
VISUALSTYLE
  2
AcDbVisualStyle
  3
ObjectDBX Classes
 90
     4095
280
     0
281
     0
  0
CLASS
  1
SORTENTSTABLE
  2
AcDbSortentsTable
  3
ObjectDBX Classes
 90
        0
280
     0
281
     0
  0
CLASS
  1
FIELD
  2
AcDbField
  3
ObjectDBX Classes
 90
    33920
280
     0
281
     0
  0
CLASS
  1
FIELDLIST
  2
AcDbFieldList
  3
ObjectDBX Classes
 90
     1152
280
     0
281
     0
  0
CLASS
  1
EXACTERMXREFMAP
  2
ExAcTermXrefMap
  3
EXAC_SERVICE
 90
    33793
280
     0
281
     0
  0
CLASS
  1
NPOCOLLECTION
  2
AcDbImpNonPersistentObjectsCollection
  3
ObjectDBX Classes
 90
    33921
280
     0
281
     0
  0
CLASS
  1
EXACXREFPANELOBJECT
  2
ExAcXREFPanelObject
  3
EXAC_ESW
 90
    33793
280
     0
281
     0
  0
CLASS
  1
ACAD_EVALUATION_GRAPH
  2
AcDbEvalGraph
  3
ObjectDBX Classes
 90
    33921
280
     0
281
     0
  0
CLASS
  1
BLOCKBASEPOINTPARAMETER
  2
AcDbBlockBasepointParameter
  3
ObjectDBX Classes
 90
    33921
280
     0
281
     0
  0
CLASS
  1
BLOCKVISIBILITYPARAMETER
  2
AcDbBlockVisibilityParameter
  3
ObjectDBX Classes
 90
    33921
280
     0
281
     0
  0
CLASS
  1
BLOCKVISIBILITYGRIP
  2
AcDbBlockVisibilityGrip
  3
ObjectDBX Classes
 90
    33921
280
     0
281
     0
  0
CLASS
  1
BLOCKGRIPLOCATIONCOMPONENT
  2
AcDbBlockGripExpr
  3
ObjectDBX Classes
 90
    33921
280
     0
281
     0
  0
CLASS
  1
ACDB_DYNAMICBLOCKPURGEPREVENTER_VERSION
  2
AcDbDynamicBlockPurgePreventer
  3
ObjectDBX Classes
 90
    33921
280
     0
281
     0
  0
CLASS
  1
ACAECUSTOBJ
  2
AcAeEditorObj
  3
AcAeEditorObj
 90
    33792
280
     0
281
     0
  0
CLASS
  1
BASEPOINTPARAMETERENTITY
  2
AcDbBlockBasepointParameterEntity
  3
ObjectDBX Classes
 90
    33793
280
     0
281
     1
  0
CLASS
  1
ACAEEEMGROBJ
  2
AcAeEEMgrObj
  3
AcAeEEMgrObj
 90
    33792
280
     0
281
     0
  0
CLASS
  1
VISIBILITYPARAMETERENTITY
  2
AcDbBlockVisibilityParameterEntity
  3
ObjectDBX Classes
 90
    33793
280
     0
281
     1
  0
CLASS
  1
VISIBILITYGRIPENTITY
  2
AcDbBlockVisibilityGripEntity
  3
ObjectDBX Classes
 90
    33793
280
     0
281
     1
  0
CLASS
  1
ACDB_BLOCKREPRESENTATION_DATA
  2
AcDbBlockRepresentationData
  3
ObjectDBX Classes
 90
    33921
280
     0
281
     0
  0
CLASS
  1
DIMASSOC
  2
AcDbDimAssoc
  3
"AcDbDimAssoc|Product Desc:     AcDim ARX App For Dimension|Company:          Autodesk, Inc.|WEB Address:      www.autodesk.com"
 90
    32768
280
     0
281
     0
  0
CLASS
  1
SCALE
  2
AcDbScale
  3
ObjectDBX Classes
 90
     1153
280
     0
281
     0
  0
CLASS
  1
MLEADERSTYLE
  2
AcDbMLeaderStyle
  3
ACDB_MLEADERSTYLE_CLASS
 90
     4095
280
     0
281
     0
  0
CLASS
  1
AEC_REFEDIT_STATUS_TRACKER
  2
AecDbRefEditStatusTracker
  3
AecArchBase60|Product Desc: Autodesk Architectural Desktop 2007 |Company: Autodesk,Inc. |WEB Address: www.autodesk.com
 90
    32897
280
     0
281
     0
  0
CLASS
  1
CELLSTYLEMAP
  2
AcDbCellStyleMap
  3
ObjectDBX Classes
 90
     1152
280
     0
281
     0
  0
ENDSEC
  0
SECTION
  2
TABLES
  0
TABLE
  2
VPORT
  5
1A
102
{ACAD_XDICTIONARY
360
139C
102
}
330
0
100
AcDbSymbolTable
 70
     1
  0
VPORT
  5
882
330
1A
100
AcDbSymbolTableRecord
100
AcDbViewportTableRecord
  2
*Active
 70
     0
 10
0.0
 20
0.0
 11
1.0
 21
1.0
 12
18.54549362293193
 22
17.98679345969177
 13
0.0
 23
0.0
 14
0.5
 24
0.5
 15
0.5
 25
0.5
 16
0.0
 26
0.0
 36
1.0
 17
0.0
 27
0.0
 37
0.0
 40
9.776014740312717
 41
2.2825
 42
50.0
 43
0.0
 44
0.0
 50
0.0
 51
0.0
 71
     0
 72
 20000
 73
     1
 74
     1
 75
     0
 76
     0
 77
     0
 78
     1
281
     0
 65
     1
110
0.0
120
0.0
130
0.0
111
1.0
121
0.0
131
0.0
112
0.0
122
1.0
132
0.0
 79
     0
146
0.0
  0
ENDTAB
  0
TABLE
  2
LTYPE
  5
15
330
0
100
AcDbSymbolTable
 70
     4
  0
LTYPE
  5
16
330
15
100
AcDbSymbolTableRecord
100
AcDbLinetypeTableRecord
  2
BYBLOCK
 70
     0
  3

 72
    65
 73
     0
 40
0.0
  0
LTYPE
  5
17
330
15
100
AcDbSymbolTableRecord
100
AcDbLinetypeTableRecord
  2
BYLAYER
 70
     0
  3

 72
    65
 73
     0
 40
0.0
  0
LTYPE
  5
8
330
15
100
AcDbSymbolTableRecord
100
AcDbLinetypeTableRecord
  2
CONTINUOUS
 70
     0
  3
Solid line
 72
    65
 73
     0
 40
0.0
  0
LTYPE
  5
1A5A
330
15
100
AcDbSymbolTableRecord
100
AcDbLinetypeTableRecord
  2
HIDDEN
 70
     0
  3
Hidden __ __ __ __ __ __ __ __ __ __ __ __ __ _
 72
    65
 73
     2
 40
0.375
 49
0.25
 74
     0
 49
-0.125
 74
     0
  0
LTYPE
  5
1A5B
330
15
100
AcDbSymbolTableRecord
100
AcDbLinetypeTableRecord
  2
HIDDEN2
 70
     0
  3
Hidden (.5x) _ _ _ _ _ _ _ _ _ _ _ _ _ _ _ _ _
 72
    65
 73
     2
 40
0.1875
 49
0.125
 74
     0
 49
-0.0625
 74
     0
  0
LTYPE
  5
1A5D
330
15
100
AcDbSymbolTableRecord
100
AcDbLinetypeTableRecord
  2
PHANTOM
 70
     0
  3
Phantom ______  __  __  ______  __  __  ______
 72
    65
 73
     6
 40
2.5
 49
1.25
 74
     0
 49
-0.25
 74
     0
 49
0.25
 74
     0
 49
-0.25
 74
     0
 49
0.25
 74
     0
 49
-0.25
 74
     0
  0
ENDTAB
  0
TABLE
  2
LAYER
  5
11
102
{ACAD_XDICTIONARY
360
899
102
}
330
0
100
AcDbSymbolTable
 70
     7
  0
LAYER
  5
4
102
{ACAD_XDICTIONARY
360
34BB8
102
}
330
11
100
AcDbSymbolTableRecord
100
AcDbLayerTableRecord
  2
0
 70
     0
 62
     7
  6
CONTINUOUS
370
    -3
390
5
1001
RAK
1000
{ACET-LAYISO
1070
     0
1070
     7
1000
CONTINUOUS
1071
       -3
1071
        1
1005
5
1000
ACET-LAYISO}
  0
LAYER
  5
1A61
102
{ACAD_XDICTIONARY
360
1A62
102
}
330
11
100
AcDbSymbolTableRecord
100
AcDbLayerTableRecord
  2
DIM
 70
     0
 62
     1
  6
CONTINUOUS
370
    -3
390
5
  0
LAYER
  5
1A67
102
{ACAD_XDICTIONARY
360
1A68
102
}
330
11
100
AcDbSymbolTableRecord
100
AcDbLayerTableRecord
  2
GRID
 70
     0
 62
     2
  6
CONTINUOUS
370
    -3
390
5
  0
LAYER
  5
1A79
102
{ACAD_XDICTIONARY
360
1A7A
102
}
330
11
100
AcDbSymbolTableRecord
100
AcDbLayerTableRecord
  2
HATCH
 70
     0
 62
     2
  6
CONTINUOUS
370
    -3
390
5
  0
LAYER
  5
1A7C
102
{ACAD_XDICTIONARY
360
1A7D
102
}
330
11
100
AcDbSymbolTableRecord
100
AcDbLayerTableRecord
  2
SECTION
 70
     0
 62
   253
  6
PHANTOM
370
    -3
390
5
  0
LAYER
  5
1A7F
102
{ACAD_XDICTIONARY
360
1A80
102
}
330
11
100
AcDbSymbolTableRecord
100
AcDbLayerTableRecord
  2
DETAIL
 70
     0
 62
     1
  6
CONTINUOUS
370
    -3
390
5
  0
LAYER
  5
1A91
102
{ACAD_XDICTIONARY
360
1A92
102
}
330
11
100
AcDbSymbolTableRecord
100
AcDbLayerTableRecord
  2
PANEL
 70
     0
 62
    60
  6
CONTINUOUS
370
    -3
390
5
1001
AcAecLayerStandard
1000

1000

  0
ENDTAB
  0
TABLE
  2
STYLE
  5
12
330
0
100
AcDbSymbolTable
 70
     2
  0
STYLE
  5
13
330
12
100
AcDbSymbolTableRecord
100
AcDbTextStyleTableRecord
  2
STANDARD
 70
     0
 40
0.0
 41
1.0
 50
0.0
 71
     0
 42
0.2
  3
txt
  4

  0
STYLE
  5
20
330
12
100
AcDbSymbolTableRecord
100
AcDbTextStyleTableRecord
  2
STD
 70
     0
 40
0.0
 41
1.0
 50
0.0
 71
     0
 42
0.25
  3
arial_0.ttf
  4

1001
ACAD
1000
Arial
1071
       34
  0
ENDTAB
  0
TABLE
  2
VIEW
  5
18
330
0
100
AcDbSymbolTable
 70
     0
  0
ENDTAB
  0
TABLE
  2
UCS
  5
19
330
0
100
AcDbSymbolTable
 70
     0
  0
ENDTAB
  0
TABLE
  2
APPID
  5
1C
330
0
100
AcDbSymbolTable
 70
    36
  0
APPID
  5
1D
330
1C
100
AcDbSymbolTableRecord
100
AcDbRegAppTableRecord
  2
ACAD
 70
     0
  0
APPID
  5
9
330
1C
100
AcDbSymbolTableRecord
100
AcDbRegAppTableRecord
  2
RAK
 70
     0
  0
APPID
  5
3A
330
1C
100
AcDbSymbolTableRecord
100
AcDbRegAppTableRecord
  2
DCO15
 70
     0
  0
APPID
  5
126
330
1C
100
AcDbSymbolTableRecord
100
AcDbRegAppTableRecord
  2
ABNSLEADERTOOLS
 70
     0
  0
APPID
  5
895
330
1C
100
AcDbSymbolTableRecord
100
AcDbRegAppTableRecord
  2
ACAD_PSEXT
 70
     0
  0
APPID
  5
A2A
330
1C
100
AcDbSymbolTableRecord
100
AcDbRegAppTableRecord
  2
ACAD_DSTYLE_DIMTEXT_FILL
 70
     0
  0
APPID
  5
10A5
330
1C
100
AcDbSymbolTableRecord
100
AcDbRegAppTableRecord
  2
AcAecLayerStandard
 70
     0
  0
APPID
  5
198C
330
1C
100
AcDbSymbolTableRecord
100
AcDbRegAppTableRecord
  2
AcDbBlockRepETag
 70
     0
  0
APPID
  5
198D
330
1C
100
AcDbSymbolTableRecord
100
AcDbRegAppTableRecord
  2
AcLayerTools
 70
     0
  0
APPID
  5
1A37
330
1C
100
AcDbSymbolTableRecord
100
AcDbRegAppTableRecord
  2
ACAD_DSTYLE_DIMJAG
 70
     0
  0
APPID
  5
1A38
330
1C
100
AcDbSymbolTableRecord
100
AcDbRegAppTableRecord
  2
ACAD_DSTYLE_DIMBREAK
 70
     0
  0
APPID
  5
1A39
330
1C
100
AcDbSymbolTableRecord
100
AcDbRegAppTableRecord
  2
AcadAnnotative
 70
     0
  0
APPID
  5
1A3A
330
1C
100
AcDbSymbolTableRecord
100
AcDbRegAppTableRecord
  2
ACAD_DSTYLE_DIMTALN
 70
     0
  0
APPID
  5
1A3B
330
1C
100
AcDbSymbolTableRecord
100
AcDbRegAppTableRecord
  2
AcadAnnoAV
 70
     0
  0
APPID
  5
1D4C
330
1C
100
AcDbSymbolTableRecord
100
AcDbRegAppTableRecord
  2
ACAD_MLEADERVER
 70
     0
  0
APPID
  5
1D4D
330
1C
100
AcDbSymbolTableRecord
100
AcDbRegAppTableRecord
  2
AcadAnnoPO
 70
     0
  0
APPID
  5
1D4E
330
1C
100
AcDbSymbolTableRecord
100
AcDbRegAppTableRecord
  2
ACAD_DSTYLE_DIMRADIAL_EXTENSION
 70
     0
  0
APPID
  5
8637
330
1C
100
AcDbSymbolTableRecord
100
AcDbRegAppTableRecord
  2
AcDbDynamicBlockTrueName
 70
     0
  0
APPID
  5
8638
330
1C
100
AcDbSymbolTableRecord
100
AcDbRegAppTableRecord
  2
AcDbDynamicBlockGUID
 70
     0
  0
APPID
  5
EECA
330
1C
100
AcDbSymbolTableRecord
100
AcDbRegAppTableRecord
  2
ACAUTHENVIRON
 70
     0
  0
APPID
  5
EED2
330
1C
100
AcDbSymbolTableRecord
100
AcDbRegAppTableRecord
  2
AcDbBlockRepBTag
 70
     0
  0
APPID
  5
31EA1
330
1C
100
AcDbSymbolTableRecord
100
AcDbRegAppTableRecord
  2
ACAD_EXEMPT_FROM_CAD_STANDARDS
 70
     0
  0
APPID
  5
34B9A
330
1C
100
AcDbSymbolTableRecord
100
AcDbRegAppTableRecord
  2
GradientColor1ACI
 70
     0
  0
APPID
  5
34B9B
330
1C
100
AcDbSymbolTableRecord
100
AcDbRegAppTableRecord
  2
GradientColor2ACI
 70
     0
  0
APPID
  5
34C05
330
1C
100
AcDbSymbolTableRecord
100
AcDbRegAppTableRecord
  2
ACATTRIBSERVICES
 70
     0
  0
APPID
  5
34C06
330
1C
100
AcDbSymbolTableRecord
100
AcDbRegAppTableRecord
  2
MCAD_NO_VIS
 70
     0
  0
APPID
  5
34C07
330
1C
100
AcDbSymbolTableRecord
100
AcDbRegAppTableRecord
  2
ACAD_TEMP_GRAPHIC
 70
     0
  0
APPID
  5
34C08
330
1C
100
AcDbSymbolTableRecord
100
AcDbRegAppTableRecord
  2
AD_DRAW
 70
     0
  0
APPID
  5
34C09
330
1C
100
AcDbSymbolTableRecord
100
AcDbRegAppTableRecord
  2
DESIGNERASSEMBLIES
 70
     0
  0
APPID
  5
34C0A
330
1C
100
AcDbSymbolTableRecord
100
AcDbRegAppTableRecord
  2
ACADM_DIM_EDIT
 70
     0
  0
APPID
  5
34C0B
330
1C
100
AcDbSymbolTableRecord
100
AcDbRegAppTableRecord
  2
AMDT_DM_ADJ
 70
     0
  0
APPID
  5
34C0C
330
1C
100
AcDbSymbolTableRecord
100
AcDbRegAppTableRecord
  2
ACAD_DSTYLE_DIMARC_LENGTH_SYMBOL
 70
     0
  0
APPID
  5
34C0D
330
1C
100
AcDbSymbolTableRecord
100
AcDbRegAppTableRecord
  2
ACAD_DSTYLE_DIM_LINETYPE
 70
     0
  0
APPID
  5
34C0E
330
1C
100
AcDbSymbolTableRecord
100
AcDbRegAppTableRecord
  2
ACAD_DSTYLE_DIM_EXT1_LINETYPE
 70
     0
  0
APPID
  5
34C0F
330
1C
100
AcDbSymbolTableRecord
100
AcDbRegAppTableRecord
  2
ACAD_DSTYLE_DIM_EXT2_LINETYPE
 70
     0
  0
APPID
  5
34C10
330
1C
100
AcDbSymbolTableRecord
100
AcDbRegAppTableRecord
  2
ACAD_NAV_VCDISPLAY
 70
     0
  0
ENDTAB
  0
TABLE
  2
DIMSTYLE
  5
1E
330
0
100
AcDbSymbolTable
 70
     1
100
AcDbDimStyleTable
 71
     1
340
172
  0
DIMSTYLE
105
172
330
1E
100
AcDbSymbolTableRecord
100
AcDbDimStyleTableRecord
  2
Standard
 70
     0
340
13
  0
ENDTAB
  0
TABLE
  2
BLOCK_RECORD
  5
1
330
0
100
AcDbSymbolTable
 70
     0
  0
BLOCK_RECORD
  5
2
102
{ACAD_XDICTIONARY
360
31E97
102
}
330
1
100
AcDbSymbolTableRecord
100
AcDbBlockTableRecord
  2
*MODEL_SPACE
340
B
  0
BLOCK_RECORD
  5
D
102
{ACAD_XDICTIONARY
360
1D72
102
}
330
1
100
AcDbSymbolTableRecord
100
AcDbBlockTableRecord
  2
*PAPER_SPACE
340
10
  0
ENDTAB
  0
ENDSEC
  0
SECTION
  2
BLOCKS
  0
BLOCK
  5
3
330
2
100
AcDbEntity
  8
0
100
AcDbBlockBegin
  2
*MODEL_SPACE
 70
     0
 10
0.0
 20
0.0
 30
0.0
  3
*MODEL_SPACE
  1

  0
ENDBLK
  5
A
330
2
100
AcDbEntity
  8
0
100
AcDbBlockEnd
  0
BLOCK
  5
E
330
D
100
AcDbEntity
 67
     1
  8
0
100
AcDbBlockBegin
  2
*PAPER_SPACE
 70
     0
 10
0.0
 20
0.0
 30
0.0
  3
*PAPER_SPACE
  1

  0
ENDBLK
  5
F
330
D
100
AcDbEntity
 67
     1
  8
0
100
AcDbBlockEnd
  0
ENDSEC
  0
SECTION
  2
ENTITIES
  0
LINE
  5
334B8
330
2
100
AcDbEntity
  8
GRID
100
AcDbLine
 10
17.73513749597501
 20
17.61897553438771
 30
0.0
 11
16.14973663128266
 21
17.61897553438771
 31
0.0
  0
LINE
  5
334B9
330
2
100
AcDbEntity
  8
GRID
100
AcDbLine
 10
25.12628104082988
 20
17.43097553438761
 30
0.0
 11
23.2656452797082
 21
17.43097553438761
 31
0.0
  0
LINE
  5
334BA
330
2
100
AcDbEntity
  8
GRID
100
AcDbLine
 10
19.78053855519701
 20
17.43097553438761
 30
0.0
 11
18.17273749598863
 21
17.43097553438761
 31
0.0
  0
LINE
  5
334BB
330
2
100
AcDbEntity
  8
GRID
100
AcDbLine
 10
17.73513749597343
 20
17.43097553438761
 30
0.0
 11
16.12733643677231
 21
17.43097553438761
 31
0.0
  0
SPLINE
  5
334D0
330
2
100
AcDbEntity
  8
SECTION
  6
Continuous
100
AcDbSpline
210
0.0
220
0.0
230
1.0
 70
     8
 71
     3
 72
    11
 73
     7
 74
     0
 42
0.0000000001
 43
0.0000000001
 40
0.80770980502488
 40
0.80770980502488
 40
0.80770980502488
 40
0.80770980502488
 40
1.109427566953387
 40
1.633135244127979
 40
2.188273232771745
 40
2.363796193659969
 40
2.363796193659969
 40
2.363796193659969
 40
2.363796193659969
 10
19.74687957005935
 20
17.66897553438735
 30
0.0
 10
19.77018051474485
 20
17.56732856833453
 30
0.0
 10
19.8324434211806
 20
17.28995069686137
 30
0.0
 10
19.44804715296303
 20
16.90661636487417
 30
0.0
 10
19.5875069850688
 20
16.4634299869696
 30
0.0
 10
19.54078424949219
 20
16.22548806022601
 30
0.0
 10
19.52546376458738
 20
16.16897553438789
 30
0.0
  0
LINE
  5
334D7
330
2
100
AcDbEntity
  8
GRID
100
AcDbLine
 10
12.60857072712333
 20
16.16897553438789
 30
0.0
 11
17.73513749597501
 21
16.16897553438789
 31
0.0
  0
LINE
  5
334D8
330
2
100
AcDbEntity
  8
GRID
100
AcDbLine
 10
25.12628104081918
 20
16.16897553438771
 30
0.0
 11
25.12628104082053
 21
16.32647553438772
 31
0.0
  0
LINE
  5
334D9
330
2
100
AcDbEntity
  8
GRID
100
AcDbLine
 10
25.1262810408242
 20
16.76147553438771
 30
0.0
 11
25.12628104083149
 21
17.61897553438771
 31
0.0
  0
LINE
  5
334DA
330
2
100
AcDbEntity
  8
GRID
100
AcDbLine
 10
25.12628104083149
 20
17.61897553438771
 30
0.0
 11
23.28804547421855
 21
17.61897553438771
 31
0.0
  0
LINE
  5
334DB
330
2
100
AcDbEntity
  8
GRID
100
AcDbLine
 10
19.75813836068666
 20
17.61897553438771
 30
0.0
 11
18.17273749598702
 21
17.61897553438771
 31
0.0
  0
LINE
  5
334DC
330
2
100
AcDbEntity
  8
GRID
100
AcDbLine
 10
24.87628104083149
 20
16.11897553438771
 30
0.0
 11
12.60857072712333
 21
16.11897553438771
 31
0.0
  0
LINE
  5
33535
330
2
100
AcDbEntity
  8
GRID
100
AcDbLine
 10
18.17273749599431
 20
16.76147553438764
 30
0.0
 11
18.17273749598703
 21
17.61897553438771
 31
0.0
  0
LINE
  5
33536
330
2
100
AcDbEntity
  8
DETAIL
  6
HIDDEN2
100
AcDbLine
 10
19.2139374959855
 20
16.32647553438789
 30
0.0
 11
19.2139374959855
 21
16.76147553438787
 31
0.0
  0
LINE
  5
33537
330
2
100
AcDbEntity
  8
DETAIL
  6
HIDDEN2
100
AcDbLine
 10
19.14393749598551
 20
16.32647553438789
 30
0.0
 11
19.14393749598551
 21
16.76147553438787
 31
0.0
  0
LINE
  5
33538
330
2
100
AcDbEntity
  8
DETAIL
100
AcDbLine
 10
19.2139374959855
 20
16.76147553438787
 30
0.0
 11
19.2139374959855
 21
16.79397553438787
 31
0.0
  0
LINE
  5
33539
330
2
100
AcDbEntity
  8
DETAIL
100
AcDbLine
 10
19.2139374959855
 20
16.2939755343879
 30
0.0
 11
19.2139374959855
 21
16.32647553438789
 31
0.0
  0
LINE
  5
3353A
330
2
100
AcDbEntity
  8
DETAIL
100
AcDbLine
 10
19.14393749598551
 20
16.2939755343879
 30
0.0
 11
19.14393749598551
 21
16.32647553438789
 31
0.0
  0
LINE
  5
3353B
330
2
100
AcDbEntity
  8
DETAIL
100
AcDbLine
 10
19.14393749598551
 20
16.76147553438787
 30
0.0
 11
19.14393749598551
 21
16.79397553438787
 31
0.0
  0
LINE
  5
3353C
330
2
100
AcDbEntity
  8
DETAIL
100
AcDbLine
 10
19.38443749598551
 20
16.32647553438789
 30
0.0
 11
18.27346174142208
 21
16.32647553438789
 31
0.0
  0
LINE
  5
3353D
330
2
100
AcDbEntity
  8
DETAIL
100
AcDbLine
 10
19.38443749598556
 20
16.76147553438787
 30
0.0
 11
17.98143749598549
 21
16.7614755343879
 31
0.0
  0
LINE
  5
3353E
330
2
100
AcDbEntity
  8
DETAIL
100
AcDbLine
 10
19.38443749598556
 20
16.7614755343877
 30
0.0
 11
19.38443749598551
 21
16.3264755343877
 31
0.0
  0
LINE
  5
3353F
330
2
100
AcDbEntity
  8
DETAIL
100
AcDbLine
 10
18.09943749598554
 20
16.76147553438787
 30
0.0
 11
18.09943749598548
 21
16.32647553438786
 31
0.0
  0
LINE
  5
33540
330
2
100
AcDbEntity
  8
DETAIL
100
AcDbLine
 10
17.88443749598556
 20
16.7614755343879
 30
0.0
 11
17.88443749598551
 21
16.32647553438789
 31
0.0
  0
LINE
  5
33541
330
2
100
AcDbEntity
  8
DETAIL
100
AcDbLine
 10
19.14393749598551
 20
16.79397553438787
 30
0.0
 11
19.2139374959855
 21
16.79397553438787
 31
0.0
  0
LINE
  5
33542
330
2
100
AcDbEntity
  8
DETAIL
100
AcDbLine
 10
19.14393749598551
 20
16.2939755343879
 30
0.0
 11
19.2139374959855
 21
16.2939755343879
 31
0.0
  0
LINE
  5
33543
330
2
100
AcDbEntity
  8
DETAIL
100
AcDbLine
 10
16.52843749598545
 20
16.76147553438787
 30
0.0
 11
17.93143749598553
 21
16.7614755343879
 31
0.0
  0
LINE
  5
33544
330
2
100
AcDbEntity
  8
DETAIL
100
AcDbLine
 10
16.52843749598551
 20
16.32647553438789
 30
0.0
 11
17.63441325054724
 21
16.32647553438789
 31
0.0
  0
LINE
  5
33545
330
2
100
AcDbEntity
  8
DETAIL
100
AcDbLine
 10
16.76893749598551
 20
16.2939755343879
 30
0.0
 11
16.69893749598552
 21
16.2939755343879
 31
0.0
  0
LINE
  5
33546
330
2
100
AcDbEntity
  8
DETAIL
100
AcDbLine
 10
16.76893749598551
 20
16.79397553438787
 30
0.0
 11
16.69893749598552
 21
16.79397553438787
 31
0.0
  0
LINE
  5
33547
330
2
100
AcDbEntity
  8
DETAIL
100
AcDbLine
 10
16.52843749598545
 20
16.7614755343877
 30
0.0
 11
16.52843749598551
 21
16.3264755343877
 31
0.0
  0
LINE
  5
33548
330
2
100
AcDbEntity
  8
DETAIL
100
AcDbLine
 10
16.76893749598551
 20
16.76147553438787
 30
0.0
 11
16.76893749598551
 21
16.79397553438787
 31
0.0
  0
LINE
  5
33549
330
2
100
AcDbEntity
  8
DETAIL
100
AcDbLine
 10
16.76893749598551
 20
16.2939755343879
 30
0.0
 11
16.76893749598551
 21
16.32647553438789
 31
0.0
  0
LINE
  5
3354A
330
2
100
AcDbEntity
  8
DETAIL
100
AcDbLine
 10
16.69893749598552
 20
16.2939755343879
 30
0.0
 11
16.69893749598552
 21
16.32647553438789
 31
0.0
  0
LINE
  5
3354B
330
2
100
AcDbEntity
  8
DETAIL
100
AcDbLine
 10
16.69893749598552
 20
16.76147553438787
 30
0.0
 11
16.69893749598552
 21
16.79397553438787
 31
0.0
  0
LINE
  5
3354C
330
2
100
AcDbEntity
  8
DETAIL
  6
HIDDEN2
100
AcDbLine
 10
16.76893749598551
 20
16.32647553438789
 30
0.0
 11
16.76893749598551
 21
16.76147553438787
 31
0.0
  0
LINE
  5
3354D
330
2
100
AcDbEntity
  8
DETAIL
  6
HIDDEN2
100
AcDbLine
 10
16.69893749598552
 20
16.32647553438789
 30
0.0
 11
16.69893749598552
 21
16.76147553438787
 31
0.0
  0
LINE
  5
33550
330
2
100
AcDbEntity
  8
GRID
100
AcDbLine
 10
17.73513749596773
 20
16.76147553438764
 30
0.0
 11
17.73513749597501
 21
17.61897553438771
 31
0.0
  0
LINE
  5
3359B
330
2
100
AcDbEntity
  8
DETAIL
  6
HIDDEN2
100
AcDbLine
 10
24.08508104084116
 20
16.32647553438771
 30
0.0
 11
24.08508104084116
 21
16.76147553438769
 31
0.0
  0
LINE
  5
3359C
330
2
100
AcDbEntity
  8
DETAIL
  6
HIDDEN2
100
AcDbLine
 10
24.15508104084115
 20
16.32647553438771
 30
0.0
 11
24.15508104084115
 21
16.76147553438769
 31
0.0
  0
LINE
  5
3359D
330
2
100
AcDbEntity
  8
DETAIL
100
AcDbLine
 10
24.08508104084116
 20
16.76147553438769
 30
0.0
 11
24.08508104084116
 21
16.79397553438769
 31
0.0
  0
LINE
  5
3359E
330
2
100
AcDbEntity
  8
DETAIL
100
AcDbLine
 10
24.08508104084116
 20
16.29397553438771
 30
0.0
 11
24.08508104084116
 21
16.32647553438771
 31
0.0
  0
LINE
  5
3359F
330
2
100
AcDbEntity
  8
DETAIL
100
AcDbLine
 10
24.15508104084115
 20
16.29397553438771
 30
0.0
 11
24.15508104084115
 21
16.32647553438771
 31
0.0
  0
LINE
  5
335A0
330
2
100
AcDbEntity
  8
DETAIL
100
AcDbLine
 10
24.15508104084115
 20
16.76147553438769
 30
0.0
 11
24.15508104084115
 21
16.79397553438769
 31
0.0
  0
LINE
  5
335A1
330
2
100
AcDbEntity
  8
DETAIL
100
AcDbLine
 10
23.91458104084116
 20
16.32647553438771
 30
0.0
 11
25.32258104084113
 21
16.32647553438771
 31
0.0
  0
LINE
  5
335A2
330
2
100
AcDbEntity
  8
DETAIL
100
AcDbLine
 10
23.9145810408411
 20
16.76147553438769
 30
0.0
 11
25.32258104084114
 21
16.76147553438771
 31
0.0
  0
LINE
  5
335A3
330
2
100
AcDbEntity
  8
DETAIL
100
AcDbLine
 10
23.9145810408411
 20
16.76147553438752
 30
0.0
 11
23.91458104084116
 21
16.32647553438751
 31
0.0
  0
LINE
  5
335A4
330
2
100
AcDbEntity
  8
DETAIL
100
AcDbLine
 10
25.19958104084113
 20
16.76147553438769
 30
0.0
 11
25.19958104084118
 21
16.32647553438771
 31
0.0
  0
LINE
  5
335A5
330
2
100
AcDbEntity
  8
DETAIL
100
AcDbLine
 10
25.36758104084113
 20
16.32647553438771
 30
0.0
 11
25.41458104084111
 21
16.32647553438771
 31
0.0
  0
LINE
  5
335A6
330
2
100
AcDbEntity
  8
DETAIL
100
AcDbLine
 10
25.36758104084113
 20
16.76147553438771
 30
0.0
 11
25.41458104084111
 21
16.76147553438771
 31
0.0
  0
LINE
  5
335A7
330
2
100
AcDbEntity
  8
DETAIL
100
AcDbLine
 10
25.41458104084111
 20
16.76147553438771
 30
0.0
 11
25.41458104084116
 21
16.32647553438771
 31
0.0
  0
LINE
  5
335A8
330
2
100
AcDbEntity
  8
DETAIL
100
AcDbLine
 10
24.15508104084115
 20
16.79397553438769
 30
0.0
 11
24.08508104084116
 21
16.79397553438769
 31
0.0
  0
LINE
  5
335A9
330
2
100
AcDbEntity
  8
DETAIL
100
AcDbLine
 10
24.15508104084115
 20
16.29397553438771
 30
0.0
 11
24.08508104084116
 21
16.29397553438771
 31
0.0
  0
SPLINE
  5
335AA
330
2
100
AcDbEntity
  8
SECTION
  6
Continuous
100
AcDbSpline
210
0.0
220
0.0
230
1.0
 70
     8
 71
     3
 72
    11
 73
     7
 74
     0
 42
0.0000000001
 43
0.0000000001
 40
0.80770980502488
 40
0.80770980502488
 40
0.80770980502488
 40
0.80770980502488
 40
1.109427566953387
 40
1.633135244127979
 40
2.188273232771745
 40
2.363796193659969
 40
2.363796193659969
 40
2.363796193659969
 40
2.363796193659969
 10
23.29930426484586
 20
17.66897553438735
 30
0.0
 10
23.27600332016036
 20
17.56732856833453
 30
0.0
 10
23.21374041372459
 20
17.28995069686137
 30
0.0
 10
23.59813668194219
 20
16.90661636487417
 30
0.0
 10
23.45867684983639
 20
16.4634299869696
 30
0.0
 10
23.50539958541302
 20
16.22548806022601
 30
0.0
 10
23.52072007031782
 20
16.16897553438789
 30
0.0
  0
LINE
  5
335B9
330
2
100
AcDbEntity
  8
DETAIL
100
AcDbLine
 10
25.37176732380294
 20
19.78745704442902
 30
0.0
 11
25.37176732380283
 21
18.18964169525903
 31
0.0
  0
LINE
  5
335BA
330
2
100
AcDbEntity
  8
DETAIL
100
AcDbLine
 10
25.31821732380274
 20
19.78745704442902
 30
0.0
 11
25.31821732380274
 21
18.22227863470752
 31
0.0
  0
LINE
  5
335BB
330
2
100
AcDbEntity
  8
DETAIL
100
AcDbLine
 10
25.15017076110041
 20
17.38443094314587
 30
0.0
 11
25.31695313614216
 21
17.99754147335889
 31
0.0
  0
LINE
  5
335BC
330
2
100
AcDbEntity
  8
DETAIL
100
AcDbLine
 10
25.53950954304935
 20
17.38443094314587
 30
0.0
 11
25.37767610771278
 21
17.99077006166178
 31
0.0
  0
LINE
  5
335BD
330
2
100
AcDbEntity
  8
DETAIL
100
AcDbLine
 10
25.20251143294718
 20
17.37019253260163
 30
0.0
 11
25.34393390096534
 21
17.89959374759812
 31
0.0
  0
LINE
  5
335BE
330
2
100
AcDbEntity
  8
DETAIL
100
AcDbLine
 10
25.48716887120236
 20
17.37019253260163
 30
0.0
 11
25.30702674943234
 21
18.03357703460537
 31
0.0
  0
LINE
  5
335BF
330
2
100
AcDbEntity
  8
DETAIL
100
AcDbLine
 10
25.41723745804893
 20
18.16192916457564
 30
0.0
 11
25.30363786400972
 21
18.23116432931923
 31
0.0
  0
LINE
  5
335C0
330
2
100
AcDbEntity
  8
DETAIL
100
AcDbLine
 10
25.50237676101449
 20
18.22997417438395
 30
0.0
 11
25.41083209461203
 21
18.16583302001234
 31
0.0
  0
LINE
  5
335C1
330
2
100
AcDbEntity
  8
DETAIL
100
AcDbLine
 10
25.47164860003193
 20
18.27383056072207
 30
0.0
 11
25.37176732380283
 21
18.20384832571912
 31
0.0
  0
ARC
  5
335C2
330
2
100
AcDbEntity
  8
DETAIL
100
AcDbCircle
 10
25.28915634177668
 20
18.20740335391255
 30
0.0
 40
0.0278262185440991
100
AcDbArc
 50
58.63908544337914
 51
238.6390854433791
  0
ARC
  5
335C3
330
2
100
AcDbEntity
  8
DETAIL
100
AcDbCircle
 10
25.40275593581589
 20
18.13816818916913
 30
0.0
 40
0.0278262185440991
100
AcDbArc
 50
238.6390854433791
 51
58.63908544337914
  0
ARC
  5
335C4
330
2
100
AcDbEntity
  8
DETAIL
100
AcDbCircle
 10
25.28915634177668
 20
18.14222939323039
 30
0.0
 40
0.0278262185440991
100
AcDbArc
 50
58.63908544337914
 51
238.6390854433791
  0
ARC
  5
335C5
330
2
100
AcDbEntity
  8
DETAIL
100
AcDbCircle
 10
25.40275593581589
 20
18.07299422848698
 30
0.0
 40
0.0278262185440991
100
AcDbArc
 50
238.6390854433791
 51
58.63908544337914
  0
LINE
  5
335C6
330
2
100
AcDbEntity
  8
DETAIL
100
AcDbLine
 10
25.41723745804893
 20
18.09675520389365
 30
0.0
 11
25.27467481954364
 21
18.18364237850594
 31
0.0
  0
LINE
  5
335C7
330
2
100
AcDbEntity
  8
DETAIL
100
AcDbLine
 10
25.41723745804893
 20
18.03158124321143
 30
0.0
 11
25.27467481954364
 21
18.11846841782372
 31
0.0
  0
ARC
  5
335C8
330
2
100
AcDbEntity
  8
DETAIL
100
AcDbCircle
 10
25.40275593581589
 20
18.00782026780476
 30
0.0
 40
0.0278262185440991
100
AcDbArc
 50
238.6390854433791
 51
58.63908544337914
  0
LINE
  5
335C9
330
2
100
AcDbEntity
  8
DETAIL
100
AcDbLine
 10
25.38827441358285
 20
17.98405929239808
 30
0.0
 11
25.27467481954364
 21
18.0532944571415
 31
0.0
  0
ARC
  5
335CA
330
2
100
AcDbEntity
  8
DETAIL
100
AcDbCircle
 10
25.28915634177668
 20
18.07705543254818
 30
0.0
 40
0.0278262185440991
100
AcDbArc
 50
58.63908544337914
 51
238.6390854433791
  0
LINE
  5
335CB
330
2
100
AcDbEntity
  8
DETAIL
100
AcDbLine
 10
25.50237676101449
 20
18.22997417438395
 30
0.0
 11
25.47164860003193
 21
18.27383056072207
 31
0.0
  0
ARC
  5
335CC
330
2
100
AcDbEntity
  8
DETAIL
100
AcDbCircle
 10
25.34484015207477
 20
17.33147436824365
 30
0.0
 40
0.2017438242122658
100
AcDbArc
 50
164.7818918362371
 51
263.6654566936597
  0
ARC
  5
335CD
330
2
100
AcDbEntity
  8
DETAIL
100
AcDbCircle
 10
25.34484015207477
 20
17.33147436824365
 30
0.0
 40
0.2017438242122658
100
AcDbArc
 50
276.4722284042952
 51
15.21810816376266
  0
ARC
  5
335CE
330
2
100
AcDbEntity
  8
DETAIL
100
AcDbCircle
 10
25.34484015207477
 20
17.33147436824365
 30
0.0
 40
0.1475010526733604
100
AcDbArc
 50
164.7818918362371
 51
261.3204410650667
  0
ARC
  5
335CF
330
2
100
AcDbEntity
  8
DETAIL
100
AcDbCircle
 10
25.34484015207477
 20
17.33147436824365
 30
0.0
 40
0.1475010526733604
100
AcDbArc
 50
278.8689182817703
 51
15.21810816376266
  0
LINE
  5
335D2
330
2
100
AcDbEntity
  8
DETAIL
100
AcDbLine
 10
17.98062377894646
 20
19.78745704442902
 30
0.0
 11
17.98062377894635
 21
18.18964169525903
 31
0.0
  0
LINE
  5
335D3
330
2
100
AcDbEntity
  8
DETAIL
100
AcDbLine
 10
17.92707377894626
 20
19.78745704442902
 30
0.0
 11
17.92707377894626
 21
18.22227863470752
 31
0.0
  0
LINE
  5
335D4
330
2
100
AcDbEntity
  8
DETAIL
100
AcDbLine
 10
17.75902721624393
 20
17.38443094314587
 30
0.0
 11
17.92580959128568
 21
17.99754147335889
 31
0.0
  0
LINE
  5
335D5
330
2
100
AcDbEntity
  8
DETAIL
100
AcDbLine
 10
18.14836599819287
 20
17.38443094314587
 30
0.0
 11
17.9865325628563
 21
17.99077006166178
 31
0.0
  0
LINE
  5
335D6
330
2
100
AcDbEntity
  8
DETAIL
100
AcDbLine
 10
17.8113678880907
 20
17.37019253260163
 30
0.0
 11
17.95279035610886
 21
17.89959374759812
 31
0.0
  0
LINE
  5
335D7
330
2
100
AcDbEntity
  8
DETAIL
100
AcDbLine
 10
18.09602532634588
 20
17.37019253260163
 30
0.0
 11
17.91588320457586
 21
18.03357703460537
 31
0.0
  0
LINE
  5
335D8
330
2
100
AcDbEntity
  8
DETAIL
100
AcDbLine
 10
18.02609391319245
 20
18.16192916457564
 30
0.0
 11
17.91249431915323
 21
18.23116432931923
 31
0.0
  0
LINE
  5
335D9
330
2
100
AcDbEntity
  8
DETAIL
100
AcDbLine
 10
18.11123321615801
 20
18.22997417438395
 30
0.0
 11
18.01968854975555
 21
18.16583302001234
 31
0.0
  0
LINE
  5
335DA
330
2
100
AcDbEntity
  8
DETAIL
100
AcDbLine
 10
18.08050505517545
 20
18.27383056072207
 30
0.0
 11
17.98062377894635
 21
18.20384832571912
 31
0.0
  0
ARC
  5
335DB
330
2
100
AcDbEntity
  8
DETAIL
100
AcDbCircle
 10
17.8980127969202
 20
18.20740335391255
 30
0.0
 40
0.0278262185440991
100
AcDbArc
 50
58.63908544337914
 51
238.6390854433791
  0
ARC
  5
335DC
330
2
100
AcDbEntity
  8
DETAIL
100
AcDbCircle
 10
18.01161239095941
 20
18.13816818916913
 30
0.0
 40
0.0278262185440991
100
AcDbArc
 50
238.6390854433791
 51
58.63908544337914
  0
ARC
  5
335DD
330
2
100
AcDbEntity
  8
DETAIL
100
AcDbCircle
 10
17.8980127969202
 20
18.14222939323039
 30
0.0
 40
0.0278262185440991
100
AcDbArc
 50
58.63908544337914
 51
238.6390854433791
  0
ARC
  5
335DE
330
2
100
AcDbEntity
  8
DETAIL
100
AcDbCircle
 10
18.01161239095941
 20
18.07299422848698
 30
0.0
 40
0.0278262185440991
100
AcDbArc
 50
238.6390854433791
 51
58.63908544337914
  0
LINE
  5
335DF
330
2
100
AcDbEntity
  8
DETAIL
100
AcDbLine
 10
18.02609391319245
 20
18.09675520389365
 30
0.0
 11
17.88353127468716
 21
18.18364237850594
 31
0.0
  0
LINE
  5
335E0
330
2
100
AcDbEntity
  8
DETAIL
100
AcDbLine
 10
18.02609391319245
 20
18.03158124321143
 30
0.0
 11
17.88353127468716
 21
18.11846841782372
 31
0.0
  0
ARC
  5
335E1
330
2
100
AcDbEntity
  8
DETAIL
100
AcDbCircle
 10
18.01161239095941
 20
18.00782026780476
 30
0.0
 40
0.0278262185440991
100
AcDbArc
 50
238.6390854433791
 51
58.63908544337914
  0
LINE
  5
335E2
330
2
100
AcDbEntity
  8
DETAIL
100
AcDbLine
 10
17.99713086872637
 20
17.98405929239808
 30
0.0
 11
17.88353127468716
 21
18.0532944571415
 31
0.0
  0
ARC
  5
335E3
330
2
100
AcDbEntity
  8
DETAIL
100
AcDbCircle
 10
17.8980127969202
 20
18.07705543254818
 30
0.0
 40
0.0278262185440991
100
AcDbArc
 50
58.63908544337914
 51
238.6390854433791
  0
LINE
  5
335E4
330
2
100
AcDbEntity
  8
DETAIL
100
AcDbLine
 10
18.11123321615801
 20
18.22997417438395
 30
0.0
 11
18.08050505517545
 21
18.27383056072207
 31
0.0
  0
ARC
  5
335E5
330
2
100
AcDbEntity
  8
DETAIL
100
AcDbCircle
 10
17.95369660721829
 20
17.33147436824365
 30
0.0
 40
0.2017438242122658
100
AcDbArc
 50
164.7818918362371
 51
263.6654566936597
  0
ARC
  5
335E6
330
2
100
AcDbEntity
  8
DETAIL
100
AcDbCircle
 10
17.95369660721829
 20
17.33147436824365
 30
0.0
 40
0.2017438242122658
100
AcDbArc
 50
276.4722284042952
 51
15.21810816376266
  0
ARC
  5
335E7
330
2
100
AcDbEntity
  8
DETAIL
100
AcDbCircle
 10
17.95369660721829
 20
17.33147436824365
 30
0.0
 40
0.1475010526733604
100
AcDbArc
 50
164.7818918362371
 51
261.3204410650667
  0
ARC
  5
335E8
330
2
100
AcDbEntity
  8
DETAIL
100
AcDbCircle
 10
17.95369660721829
 20
17.33147436824365
 30
0.0
 40
0.1475010526733604
100
AcDbArc
 50
278.8689182817703
 51
15.21810816376266
  0
LINE
  5
335F1
330
2
100
AcDbEntity
  8
DETAIL
100
AcDbLine
 10
16.38241122738193
 20
16.16897553438789
 30
0.0
 11
12.60857072712333
 21
16.16897553438789
 31
0.0
  0
LINE
  5
335F2
330
2
100
AcDbEntity
  8
DETAIL
100
AcDbLine
 10
16.1609954219101
 20
17.6689755343879
 30
0.0
 11
12.60857072712333
 21
17.6689755343879
 31
0.0
  0
SPLINE
  5
335F3
330
2
100
AcDbEntity
  8
SECTION
  6
Continuous
100
AcDbSpline
210
0.0
220
0.0
230
1.0
 70
     8
 71
     3
 72
    11
 73
     7
 74
     0
 42
0.0000000001
 43
0.0000000001
 40
0.80770980502488
 40
0.80770980502488
 40
0.80770980502488
 40
0.80770980502488
 40
1.109427566953387
 40
1.633135244127979
 40
2.188273232771745
 40
2.363796193659969
 40
2.363796193659969
 40
2.363796193659969
 40
2.363796193659969
 10
16.16099542190997
 20
17.66897553438735
 30
0.0
 10
16.13769447722447
 20
17.56732856833453
 30
0.0
 10
16.07543157078871
 20
17.28995069686137
 30
0.0
 10
16.45982783900629
 20
16.90661636487417
 30
0.0
 10
16.32036800690051
 20
16.4634299869696
 30
0.0
 10
16.36709074247713
 20
16.22548806022601
 30
0.0
 10
16.38241122738193
 20
16.16897553438789
 30
0.0
  0
LINE
  5
335F8
330
2
100
AcDbEntity
  8
DETAIL
100
AcDbLine
 10
19.52546376458738
 20
16.16897553438789
 30
0.0
 11
23.52072007031782
 21
16.16897553438789
 31
0.0
  0
LINE
  5
335F9
330
2
100
AcDbEntity
  8
DETAIL
100
AcDbLine
 10
19.74687957005922
 20
17.6689755343879
 30
0.0
 11
23.29930426484599
 21
17.6689755343879
 31
0.0
  0
LINE
  5
335FE
330
2
100
AcDbEntity
  8
GRID
100
AcDbLine
 10
18.17273749598703
 20
16.16897553438789
 30
0.0
 11
25.12628104083149
 21
16.16897553438789
 31
0.0
  0
LINE
  5
33600
330
2
100
AcDbEntity
  8
DETAIL
100
AcDbLine
 10
17.77078749597867
 20
16.3264755343879
 30
0.0
 11
17.93143749598553
 21
16.32647553438789
 31
0.0
  0
LINE
  5
3364F
330
2
100
AcDbEntity
  8
DETAIL
100
AcDbLine
 10
25.52823104084113
 20
16.32463502044753
 30
0.0
 11
25.52823104084114
 21
16.46785053438756
 31
0.0
  0
LINE
  5
33650
330
2
100
AcDbEntity
  8
DETAIL
100
AcDbLine
 10
25.65323104084114
 20
16.3332510419347
 30
0.0
 11
25.52823104084114
 21
16.32463502044752
 31
0.0
  0
LINE
  5
33651
330
2
100
AcDbEntity
  8
DETAIL
100
AcDbLine
 10
25.65323104084114
 20
16.3332510419347
 30
0.0
 11
25.67623104084115
 21
16.31955020573277
 31
0.0
  0
LINE
  5
33652
330
2
100
AcDbEntity
  8
DETAIL
100
AcDbLine
 10
25.59073104084114
 20
16.50935053438757
 30
0.0
 11
25.55399067868198
 21
16.33935053438756
 31
0.0
  0
LINE
  5
33653
330
2
100
AcDbEntity
  8
DETAIL
100
AcDbLine
 10
25.59073104084114
 20
16.50935053438757
 30
0.0
 11
25.52823104084114
 21
16.33935053438756
 31
0.0
  0
LINE
  5
33654
330
2
100
AcDbEntity
  8
DETAIL
100
AcDbLine
 10
25.59073104084114
 20
16.50935053438757
 30
0.0
 11
25.52823104084114
 21
16.46785053438756
 31
0.0
  0
LINE
  5
33655
330
2
100
AcDbEntity
  8
DETAIL
100
AcDbLine
 10
25.59073104084114
 20
16.50935053438757
 30
0.0
 11
25.65323104084114
 21
16.46785053438757
 31
0.0
  0
LINE
  5
33656
330
2
100
AcDbEntity
  8
DETAIL
100
AcDbLine
 10
25.65323104084114
 20
16.3332510419347
 30
0.0
 11
25.65323104084114
 21
16.46785053438757
 31
0.0
  0
LINE
  5
33657
330
2
100
AcDbEntity
  8
DETAIL
100
AcDbLine
 10
25.58176207007877
 20
16.46785053438756
 30
0.0
 11
25.65323104084114
 21
16.46785053438757
 31
0.0
  0
LINE
  5
33658
330
2
100
AcDbEntity
  8
DETAIL
100
AcDbLine
 10
25.55399067868198
 20
16.33935053438756
 30
0.0
 11
25.52823104084114
 21
16.33935053438756
 31
0.0
  0
LINE
  5
33659
330
2
100
AcDbEntity
  8
DETAIL
100
AcDbLine
 10
25.65323104084114
 20
16.08967446817699
 30
0.0
 11
25.52823104084114
 21
16.08105844668981
 31
0.0
  0
LINE
  5
3365A
330
2
100
AcDbEntity
  8
DETAIL
100
AcDbLine
 10
25.65323104084113
 20
16.09969819549213
 30
0.0
 11
25.52823104084113
 21
16.09108217400495
 31
0.0
  0
LINE
  5
3365B
330
2
100
AcDbEntity
  8
DETAIL
100
AcDbLine
 10
25.65323104084114
 20
16.13027056380327
 30
0.0
 11
25.52823104084114
 21
16.12165454231609
 31
0.0
  0
LINE
  5
3365C
330
2
100
AcDbEntity
  8
DETAIL
100
AcDbLine
 10
25.65323104084113
 20
16.14029429111841
 30
0.0
 11
25.52823104084113
 21
16.13167826963123
 31
0.0
  0
LINE
  5
3365D
330
2
100
AcDbEntity
  8
DETAIL
100
AcDbLine
 10
25.65323104084114
 20
16.17086665942956
 30
0.0
 11
25.52823104084113
 21
16.16225063794238
 31
0.0
  0
LINE
  5
3365E
330
2
100
AcDbEntity
  8
DETAIL
100
AcDbLine
 10
25.65323104084113
 20
16.1808903867447
 30
0.0
 11
25.52823104084114
 21
16.17227436525752
 31
0.0
  0
LINE
  5
3365F
330
2
100
AcDbEntity
  8
DETAIL
100
AcDbLine
 10
25.65323104084113
 20
16.21146275505584
 30
0.0
 11
25.52823104084113
 21
16.20284673356867
 31
0.0
  0
LINE
  5
33660
330
2
100
AcDbEntity
  8
DETAIL
100
AcDbLine
 10
25.65323104084113
 20
16.22148648237098
 30
0.0
 11
25.52823104084114
 21
16.2128704608838
 31
0.0
  0
LINE
  5
33661
330
2
100
AcDbEntity
  8
DETAIL
100
AcDbLine
 10
25.65323104084114
 20
16.25205885068213
 30
0.0
 11
25.52823104084113
 21
16.24344282919496
 31
0.0
  0
LINE
  5
33662
330
2
100
AcDbEntity
  8
DETAIL
100
AcDbLine
 10
25.65323104084114
 20
16.26208257799726
 30
0.0
 11
25.52823104084113
 21
16.25346655651008
 31
0.0
  0
LINE
  5
33663
330
2
100
AcDbEntity
  8
DETAIL
100
AcDbLine
 10
25.65323104084114
 20
16.29265494630841
 30
0.0
 11
25.52823104084114
 21
16.28403892482124
 31
0.0
  0
LINE
  5
33664
330
2
100
AcDbEntity
  8
DETAIL
100
AcDbLine
 10
25.65323104084113
 20
16.30267867362355
 30
0.0
 11
25.52823104084113
 21
16.29406265213638
 31
0.0
  0
LINE
  5
33665
330
2
100
AcDbEntity
  8
DETAIL
100
AcDbLine
 10
25.67623104084114
 20
16.11656972760134
 30
0.0
 11
25.50523104084113
 21
16.10478301020688
 31
0.0
  0
LINE
  5
33666
330
2
100
AcDbEntity
  8
DETAIL
100
AcDbLine
 10
25.67623104084115
 20
16.15716582322762
 30
0.0
 11
25.50523104084113
 21
16.14537910583317
 31
0.0
  0
LINE
  5
33667
330
2
100
AcDbEntity
  8
DETAIL
100
AcDbLine
 10
25.67623104084114
 20
16.19776191885392
 30
0.0
 11
25.50523104084113
 21
16.18597520145946
 31
0.0
  0
LINE
  5
33668
330
2
100
AcDbEntity
  8
DETAIL
100
AcDbLine
 10
25.67623104084114
 20
16.23835801448019
 30
0.0
 11
25.50523104084113
 21
16.22657129708574
 31
0.0
  0
LINE
  5
33669
330
2
100
AcDbEntity
  8
DETAIL
100
AcDbLine
 10
25.67623104084114
 20
16.27895411010648
 30
0.0
 11
25.50523104084113
 21
16.26716739271202
 31
0.0
  0
LINE
  5
3366A
330
2
100
AcDbEntity
  8
DETAIL
100
AcDbLine
 10
25.67623104084115
 20
16.31955020573277
 30
0.0
 11
25.50523104084113
 21
16.30776348833831
 31
0.0
  0
LINE
  5
3366B
330
2
100
AcDbEntity
  8
DETAIL
100
AcDbLine
 10
25.67623104084115
 20
16.15716582322762
 30
0.0
 11
25.65323104084113
 21
16.14029429111841
 31
0.0
  0
LINE
  5
3366C
330
2
100
AcDbEntity
  8
DETAIL
100
AcDbLine
 10
25.65323104084114
 20
16.17086665942956
 30
0.0
 11
25.65323104084113
 21
16.1808903867447
 31
0.0
  0
LINE
  5
3366D
330
2
100
AcDbEntity
  8
DETAIL
100
AcDbLine
 10
25.65323104084113
 20
16.21146275505584
 30
0.0
 11
25.65323104084113
 21
16.22148648237098
 31
0.0
  0
LINE
  5
3366E
330
2
100
AcDbEntity
  8
DETAIL
100
AcDbLine
 10
25.65323104084114
 20
16.29265494630841
 30
0.0
 11
25.65323104084114
 21
16.30267867362355
 31
0.0
  0
LINE
  5
3366F
330
2
100
AcDbEntity
  8
DETAIL
100
AcDbLine
 10
25.65323104084114
 20
16.25205885068213
 30
0.0
 11
25.65323104084116
 21
16.26208257799726
 31
0.0
  0
LINE
  5
33670
330
2
100
AcDbEntity
  8
DETAIL
100
AcDbLine
 10
25.65323104084114
 20
16.17086665942956
 30
0.0
 11
25.67623104084115
 21
16.15716582322762
 31
0.0
  0
LINE
  5
33671
330
2
100
AcDbEntity
  8
DETAIL
100
AcDbLine
 10
25.65323104084113
 20
16.21146275505584
 30
0.0
 11
25.67623104084114
 21
16.19776191885392
 31
0.0
  0
LINE
  5
33672
330
2
100
AcDbEntity
  8
DETAIL
100
AcDbLine
 10
25.67623104084114
 20
16.19776191885392
 30
0.0
 11
25.65323104084113
 21
16.1808903867447
 31
0.0
  0
LINE
  5
33673
330
2
100
AcDbEntity
  8
DETAIL
100
AcDbLine
 10
25.65323104084114
 20
16.25205885068213
 30
0.0
 11
25.67623104084114
 21
16.23835801448019
 31
0.0
  0
LINE
  5
33674
330
2
100
AcDbEntity
  8
DETAIL
100
AcDbLine
 10
25.67623104084114
 20
16.23835801448019
 30
0.0
 11
25.65323104084113
 21
16.22148648237098
 31
0.0
  0
LINE
  5
33675
330
2
100
AcDbEntity
  8
DETAIL
100
AcDbLine
 10
25.67623104084114
 20
16.27895411010648
 30
0.0
 11
25.65323104084114
 21
16.26208257799726
 31
0.0
  0
LINE
  5
33676
330
2
100
AcDbEntity
  8
DETAIL
100
AcDbLine
 10
25.65323104084114
 20
16.29265494630841
 30
0.0
 11
25.67623104084114
 21
16.27895411010648
 31
0.0
  0
LINE
  5
33677
330
2
100
AcDbEntity
  8
DETAIL
100
AcDbLine
 10
25.67623104084115
 20
16.31955020573277
 30
0.0
 11
25.65323104084113
 21
16.30267867362355
 31
0.0
  0
LINE
  5
33678
330
2
100
AcDbEntity
  8
DETAIL
100
AcDbLine
 10
25.65323104084113
 20
16.13027056380327
 30
0.0
 11
25.65323104084113
 21
16.14029429111841
 31
0.0
  0
LINE
  5
33679
330
2
100
AcDbEntity
  8
DETAIL
100
AcDbLine
 10
25.65323104084114
 20
16.08967446817699
 30
0.0
 11
25.65323104084113
 21
16.09969819549213
 31
0.0
  0
LINE
  5
3367A
330
2
100
AcDbEntity
  8
DETAIL
100
AcDbLine
 10
25.67623104084114
 20
16.07597363197506
 30
0.0
 11
25.60915980624674
 21
16.07135053438756
 31
0.0
  0
LINE
  5
3367B
330
2
100
AcDbEntity
  8
DETAIL
100
AcDbLine
 10
25.67623104084114
 20
16.07597363197506
 30
0.0
 11
25.66992863488156
 21
16.07135053438756
 31
0.0
  0
LINE
  5
3367C
330
2
100
AcDbEntity
  8
DETAIL
100
AcDbLine
 10
25.65323104084114
 20
16.08967446817699
 30
0.0
 11
25.67623104084114
 21
16.07597363197506
 31
0.0
  0
LINE
  5
3367D
330
2
100
AcDbEntity
  8
DETAIL
100
AcDbLine
 10
25.65323104084114
 20
16.13027056380327
 30
0.0
 11
25.67623104084114
 21
16.11656972760134
 31
0.0
  0
LINE
  5
3367E
330
2
100
AcDbEntity
  8
DETAIL
100
AcDbLine
 10
25.67623104084114
 20
16.11656972760134
 30
0.0
 11
25.65323104084114
 21
16.09969819549212
 31
0.0
  0
LINE
  5
3367F
330
2
100
AcDbEntity
  8
DETAIL
100
AcDbLine
 10
25.52823104084114
 20
16.16225063794238
 30
0.0
 11
25.50523104084113
 21
16.14537910583317
 31
0.0
  0
LINE
  5
33680
330
2
100
AcDbEntity
  8
DETAIL
100
AcDbLine
 10
25.52823104084114
 20
16.28403892482124
 30
0.0
 11
25.52823104084113
 21
16.29406265213638
 31
0.0
  0
LINE
  5
33681
330
2
100
AcDbEntity
  8
DETAIL
100
AcDbLine
 10
25.52823104084113
 20
16.16225063794238
 30
0.0
 11
25.52823104084114
 21
16.17227436525752
 31
0.0
  0
LINE
  5
33682
330
2
100
AcDbEntity
  8
DETAIL
100
AcDbLine
 10
25.52823104084113
 20
16.24344282919496
 30
0.0
 11
25.52823104084113
 21
16.25346655651008
 31
0.0
  0
LINE
  5
33683
330
2
100
AcDbEntity
  8
DETAIL
100
AcDbLine
 10
25.52823104084113
 20
16.20284673356867
 30
0.0
 11
25.52823104084114
 21
16.2128704608838
 31
0.0
  0
LINE
  5
33684
330
2
100
AcDbEntity
  8
DETAIL
100
AcDbLine
 10
25.50523104084113
 20
16.18597520145946
 30
0.0
 11
25.52823104084114
 21
16.17227436525752
 31
0.0
  0
LINE
  5
33685
330
2
100
AcDbEntity
  8
DETAIL
100
AcDbLine
 10
25.52823104084113
 20
16.20284673356867
 30
0.0
 11
25.50523104084113
 21
16.18597520145946
 31
0.0
  0
LINE
  5
33686
330
2
100
AcDbEntity
  8
DETAIL
100
AcDbLine
 10
25.50523104084113
 20
16.22657129708574
 30
0.0
 11
25.52823104084114
 21
16.2128704608838
 31
0.0
  0
LINE
  5
33687
330
2
100
AcDbEntity
  8
DETAIL
100
AcDbLine
 10
25.52823104084114
 20
16.24344282919496
 30
0.0
 11
25.50523104084113
 21
16.22657129708574
 31
0.0
  0
LINE
  5
33688
330
2
100
AcDbEntity
  8
DETAIL
100
AcDbLine
 10
25.52823104084114
 20
16.28403892482124
 30
0.0
 11
25.50523104084113
 21
16.26716739271202
 31
0.0
  0
LINE
  5
33689
330
2
100
AcDbEntity
  8
DETAIL
100
AcDbLine
 10
25.50523104084113
 20
16.26716739271202
 30
0.0
 11
25.52823104084113
 21
16.25346655651008
 31
0.0
  0
LINE
  5
3368A
330
2
100
AcDbEntity
  8
DETAIL
100
AcDbLine
 10
25.50523104084113
 20
16.30776348833831
 30
0.0
 11
25.52823104084113
 21
16.29406265213637
 31
0.0
  0
LINE
  5
3368B
330
2
100
AcDbEntity
  8
DETAIL
100
AcDbLine
 10
25.52823104084114
 20
16.32463502044752
 30
0.0
 11
25.50523104084113
 21
16.30776348833831
 31
0.0
  0
LINE
  5
3368C
330
2
100
AcDbEntity
  8
DETAIL
100
AcDbLine
 10
25.52823104084113
 20
16.12165454231609
 30
0.0
 11
25.52823104084113
 21
16.13167826963123
 31
0.0
  0
LINE
  5
3368D
330
2
100
AcDbEntity
  8
DETAIL
100
AcDbLine
 10
25.52823104084113
 20
16.08105844668981
 30
0.0
 11
25.52823104084113
 21
16.09108217400495
 31
0.0
  0
LINE
  5
3368E
330
2
100
AcDbEntity
  8
DETAIL
100
AcDbLine
 10
25.52823104084114
 20
16.08105844668981
 30
0.0
 11
25.5149967962268
 21
16.07135053438756
 31
0.0
  0
LINE
  5
3368F
330
2
100
AcDbEntity
  8
DETAIL
100
AcDbLine
 10
25.50523104084113
 20
16.10478301020688
 30
0.0
 11
25.52823104084113
 21
16.09108217400495
 31
0.0
  0
LINE
  5
33690
330
2
100
AcDbEntity
  8
DETAIL
100
AcDbLine
 10
25.52823104084114
 20
16.12165454231609
 30
0.0
 11
25.50523104084113
 21
16.10478301020688
 31
0.0
  0
LINE
  5
33691
330
2
100
AcDbEntity
  8
DETAIL
100
AcDbLine
 10
25.50523104084113
 20
16.14537910583317
 30
0.0
 11
25.52823104084113
 21
16.13167826963123
 31
0.0
  0
ARC
  5
33692
330
2
100
AcDbEntity
  8
DETAIL
100
AcDbCircle
 10
25.57417985107779
 20
16.30642388796116
 30
0.0
 40
0.3088363825057014
100
AcDbArc
 50
275.3604612699314
 51
302.9108624683185
  0
LINE
  5
33693
330
2
100
AcDbEntity
  8
DETAIL
100
AcDbLine
 10
25.43948104084114
 20
16.04715053438775
 30
0.0
 11
25.74198104084118
 21
16.04715053438775
 31
0.0
  0
LINE
  5
33694
330
2
100
AcDbEntity
  8
DETAIL
100
AcDbLine
 10
25.43948104084114
 20
16.07135053438756
 30
0.0
 11
25.74198104084118
 21
16.07135053438756
 31
0.0
  0
LINE
  5
33695
330
2
100
AcDbEntity
  8
DETAIL
100
AcDbLine
 10
25.74198104084118
 20
16.04715053438775
 30
0.0
 11
25.74198104084118
 21
16.07135053438756
 31
0.0
  0
LINE
  5
33696
330
2
100
AcDbEntity
  8
DETAIL
100
AcDbLine
 10
25.57843034274186
 20
15.99893814890003
 30
0.0
 11
25.58266437417455
 21
16.02295053438794
 31
0.0
  0
LINE
  5
33697
330
2
100
AcDbEntity
  8
DETAIL
100
AcDbLine
 10
25.60303173894045
 20
15.99893814890003
 30
0.0
 11
25.59879770750776
 21
16.02295053438794
 31
0.0
  0
LINE
  5
33698
330
2
100
AcDbEntity
  8
DETAIL
100
AcDbLine
 10
25.59879770750776
 20
16.02295053438794
 30
0.0
 11
25.58266437417455
 21
16.02295053438794
 31
0.0
  0
ARC
  5
33699
330
2
100
AcDbEntity
  8
DETAIL
100
AcDbCircle
 10
25.60728223060452
 20
16.30642388796118
 30
0.0
 40
0.308836382505713
100
AcDbArc
 50
237.0891375316834
 51
264.6395387300702
  0
LINE
  5
3369A
330
2
100
AcDbEntity
  8
DETAIL
100
AcDbLine
 10
25.43948104084114
 20
16.04715053438775
 30
0.0
 11
25.43948104084114
 21
16.07135053438756
 31
0.0
  0
LINE
  5
3369B
330
2
100
AcDbEntity
  8
DETAIL
100
AcDbLine
 10
25.43948104084114
 20
16.07135053438756
 30
0.0
 11
25.74198104084113
 21
16.07135053438756
 31
0.0
  0
LINE
  5
362DE
330
2
100
AcDbEntity
  8
PANEL
100
AcDbLine
 10
18.45393749598585
 20
15.63385053438771
 30
0.0
 11
12.60857072712465
 21
15.63385053438771
 31
0.0
  0
LINE
  5
362E4
330
2
100
AcDbEntity
  8
PANEL
100
AcDbLine
 10
27.37042631037287
 20
15.6338505343877
 30
0.0
 11
27.37042631037287
 21
16.1033505343877
 31
0.0
  0
LINE
  5
362E5
330
2
100
AcDbEntity
  8
PANEL
100
AcDbLine
 10
27.37042631037287
 20
16.1033505343877
 30
0.0
 11
12.60857072712465
 21
16.10335053438771
 31
0.0
  0
LINE
  5
362E6
330
2
100
AcDbEntity
  8
PANEL
100
AcDbLine
 10
17.95393749598465
 20
16.10335053438771
 30
0.0
 11
17.95393749598465
 21
15.63385053438771
 31
0.0
  0
LINE
  5
362E7
330
2
100
AcDbEntity
  8
PANEL
100
AcDbLine
 10
17.45393749599311
 20
15.63385053438771
 30
0.0
 11
27.37042631037287
 21
15.6338505343877
 31
0.0
  0
LINE
  5
362E8
330
2
100
AcDbEntity
  8
PANEL
  6
HIDDEN
 62
     1
100
AcDbLine
 10
27.37042631037286
 20
15.66585053438786
 30
0.0
 11
12.60857072712465
 21
15.66585053438787
 31
0.0
  0
LINE
  5
362E9
330
2
100
AcDbEntity
  8
PANEL
100
AcDbLine
 10
12.60857072712465
 20
16.07135053438756
 30
0.0
 11
27.37042631037286
 21
16.07135053438755
 31
0.0
  0
LINE
  5
362F0
330
2
100
AcDbEntity
  8
GRID
100
AcDbLine
 10
17.48513749598584
 20
16.16897553438771
 30
0.0
 11
17.48513749598584
 21
16.11897553438771
 31
0.0
  0
LINE
  5
36371
330
2
100
AcDbEntity
  8
DETAIL
100
AcDbLine
 10
18.13708749599064
 20
16.32463502044752
 30
0.0
 11
18.13708749599065
 21
16.46785053438756
 31
0.0
  0
LINE
  5
36372
330
2
100
AcDbEntity
  8
DETAIL
100
AcDbLine
 10
18.26208749599065
 20
16.33325104193469
 30
0.0
 11
18.13708749599065
 21
16.32463502044751
 31
0.0
  0
LINE
  5
36373
330
2
100
AcDbEntity
  8
DETAIL
100
AcDbLine
 10
18.26208749599065
 20
16.33325104193469
 30
0.0
 11
18.28508749599066
 21
16.31955020573277
 31
0.0
  0
LINE
  5
36374
330
2
100
AcDbEntity
  8
DETAIL
100
AcDbLine
 10
18.19958749599065
 20
16.50935053438756
 30
0.0
 11
18.16284713383149
 21
16.33935053438756
 31
0.0
  0
LINE
  5
36375
330
2
100
AcDbEntity
  8
DETAIL
100
AcDbLine
 10
18.19958749599065
 20
16.50935053438756
 30
0.0
 11
18.13708749599065
 21
16.33935053438756
 31
0.0
  0
LINE
  5
36376
330
2
100
AcDbEntity
  8
DETAIL
100
AcDbLine
 10
18.19958749599065
 20
16.50935053438756
 30
0.0
 11
18.13708749599065
 21
16.46785053438756
 31
0.0
  0
LINE
  5
36377
330
2
100
AcDbEntity
  8
DETAIL
100
AcDbLine
 10
18.19958749599065
 20
16.50935053438756
 30
0.0
 11
18.26208749599065
 21
16.46785053438756
 31
0.0
  0
LINE
  5
36378
330
2
100
AcDbEntity
  8
DETAIL
100
AcDbLine
 10
18.26208749599065
 20
16.33325104193469
 30
0.0
 11
18.26208749599065
 21
16.46785053438756
 31
0.0
  0
LINE
  5
36379
330
2
100
AcDbEntity
  8
DETAIL
100
AcDbLine
 10
18.19061852522827
 20
16.46785053438756
 30
0.0
 11
18.26208749599065
 21
16.46785053438756
 31
0.0
  0
LINE
  5
3637A
330
2
100
AcDbEntity
  8
DETAIL
100
AcDbLine
 10
18.16284713383149
 20
16.33935053438756
 30
0.0
 11
18.13708749599065
 21
16.33935053438756
 31
0.0
  0
LINE
  5
3637B
330
2
100
AcDbEntity
  8
DETAIL
100
AcDbLine
 10
18.26208749599065
 20
16.08967446817699
 30
0.0
 11
18.13708749599065
 21
16.08105844668981
 31
0.0
  0
LINE
  5
3637C
330
2
100
AcDbEntity
  8
DETAIL
100
AcDbLine
 10
18.26208749599064
 20
16.09969819549212
 30
0.0
 11
18.13708749599064
 21
16.09108217400494
 31
0.0
  0
LINE
  5
3637D
330
2
100
AcDbEntity
  8
DETAIL
100
AcDbLine
 10
18.26208749599065
 20
16.13027056380327
 30
0.0
 11
18.13708749599065
 21
16.12165454231609
 31
0.0
  0
LINE
  5
3637E
330
2
100
AcDbEntity
  8
DETAIL
100
AcDbLine
 10
18.26208749599064
 20
16.14029429111841
 30
0.0
 11
18.13708749599064
 21
16.13167826963123
 31
0.0
  0
LINE
  5
3637F
330
2
100
AcDbEntity
  8
DETAIL
100
AcDbLine
 10
18.26208749599065
 20
16.17086665942955
 30
0.0
 11
18.13708749599064
 21
16.16225063794238
 31
0.0
  0
LINE
  5
36380
330
2
100
AcDbEntity
  8
DETAIL
100
AcDbLine
 10
18.26208749599064
 20
16.18089038674469
 30
0.0
 11
18.13708749599065
 21
16.17227436525752
 31
0.0
  0
LINE
  5
36381
330
2
100
AcDbEntity
  8
DETAIL
100
AcDbLine
 10
18.26208749599064
 20
16.21146275505584
 30
0.0
 11
18.13708749599064
 21
16.20284673356867
 31
0.0
  0
LINE
  5
36382
330
2
100
AcDbEntity
  8
DETAIL
100
AcDbLine
 10
18.26208749599064
 20
16.22148648237098
 30
0.0
 11
18.13708749599065
 21
16.2128704608838
 31
0.0
  0
LINE
  5
36383
330
2
100
AcDbEntity
  8
DETAIL
100
AcDbLine
 10
18.26208749599065
 20
16.25205885068213
 30
0.0
 11
18.13708749599064
 21
16.24344282919494
 31
0.0
  0
LINE
  5
36384
330
2
100
AcDbEntity
  8
DETAIL
100
AcDbLine
 10
18.26208749599065
 20
16.26208257799726
 30
0.0
 11
18.13708749599064
 21
16.25346655651008
 31
0.0
  0
LINE
  5
36385
330
2
100
AcDbEntity
  8
DETAIL
100
AcDbLine
 10
18.26208749599065
 20
16.29265494630841
 30
0.0
 11
18.13708749599065
 21
16.28403892482124
 31
0.0
  0
LINE
  5
36386
330
2
100
AcDbEntity
  8
DETAIL
100
AcDbLine
 10
18.26208749599064
 20
16.30267867362355
 30
0.0
 11
18.13708749599064
 21
16.29406265213637
 31
0.0
  0
LINE
  5
36387
330
2
100
AcDbEntity
  8
DETAIL
100
AcDbLine
 10
18.28508749599065
 20
16.11656972760133
 30
0.0
 11
18.11408749599064
 21
16.10478301020688
 31
0.0
  0
LINE
  5
36388
330
2
100
AcDbEntity
  8
DETAIL
100
AcDbLine
 10
18.28508749599066
 20
16.15716582322762
 30
0.0
 11
18.11408749599064
 21
16.14537910583316
 31
0.0
  0
LINE
  5
36389
330
2
100
AcDbEntity
  8
DETAIL
100
AcDbLine
 10
18.28508749599065
 20
16.19776191885391
 30
0.0
 11
18.11408749599064
 21
16.18597520145945
 31
0.0
  0
LINE
  5
3638A
330
2
100
AcDbEntity
  8
DETAIL
100
AcDbLine
 10
18.28508749599065
 20
16.23835801448019
 30
0.0
 11
18.11408749599064
 21
16.22657129708573
 31
0.0
  0
LINE
  5
3638B
330
2
100
AcDbEntity
  8
DETAIL
100
AcDbLine
 10
18.28508749599065
 20
16.27895411010647
 30
0.0
 11
18.11408749599064
 21
16.26716739271202
 31
0.0
  0
LINE
  5
3638C
330
2
100
AcDbEntity
  8
DETAIL
100
AcDbLine
 10
18.28508749599066
 20
16.31955020573277
 30
0.0
 11
18.11408749599064
 21
16.30776348833831
 31
0.0
  0
LINE
  5
3638D
330
2
100
AcDbEntity
  8
DETAIL
100
AcDbLine
 10
18.28508749599066
 20
16.15716582322762
 30
0.0
 11
18.26208749599064
 21
16.14029429111841
 31
0.0
  0
LINE
  5
3638E
330
2
100
AcDbEntity
  8
DETAIL
100
AcDbLine
 10
18.26208749599065
 20
16.17086665942955
 30
0.0
 11
18.26208749599064
 21
16.18089038674469
 31
0.0
  0
LINE
  5
3638F
330
2
100
AcDbEntity
  8
DETAIL
100
AcDbLine
 10
18.26208749599064
 20
16.21146275505584
 30
0.0
 11
18.26208749599064
 21
16.22148648237098
 31
0.0
  0
LINE
  5
36390
330
2
100
AcDbEntity
  8
DETAIL
100
AcDbLine
 10
18.26208749599065
 20
16.29265494630841
 30
0.0
 11
18.26208749599065
 21
16.30267867362355
 31
0.0
  0
LINE
  5
36391
330
2
100
AcDbEntity
  8
DETAIL
100
AcDbLine
 10
18.26208749599065
 20
16.25205885068213
 30
0.0
 11
18.26208749599067
 21
16.26208257799726
 31
0.0
  0
LINE
  5
36392
330
2
100
AcDbEntity
  8
DETAIL
100
AcDbLine
 10
18.26208749599065
 20
16.17086665942955
 30
0.0
 11
18.28508749599066
 21
16.15716582322762
 31
0.0
  0
LINE
  5
36393
330
2
100
AcDbEntity
  8
DETAIL
100
AcDbLine
 10
18.26208749599064
 20
16.21146275505584
 30
0.0
 11
18.28508749599065
 21
16.19776191885391
 31
0.0
  0
LINE
  5
36394
330
2
100
AcDbEntity
  8
DETAIL
100
AcDbLine
 10
18.28508749599065
 20
16.19776191885391
 30
0.0
 11
18.26208749599064
 21
16.18089038674469
 31
0.0
  0
LINE
  5
36395
330
2
100
AcDbEntity
  8
DETAIL
100
AcDbLine
 10
18.26208749599065
 20
16.25205885068212
 30
0.0
 11
18.28508749599065
 21
16.23835801448019
 31
0.0
  0
LINE
  5
36396
330
2
100
AcDbEntity
  8
DETAIL
100
AcDbLine
 10
18.28508749599065
 20
16.23835801448019
 30
0.0
 11
18.26208749599064
 21
16.22148648237098
 31
0.0
  0
LINE
  5
36397
330
2
100
AcDbEntity
  8
DETAIL
100
AcDbLine
 10
18.28508749599065
 20
16.27895411010647
 30
0.0
 11
18.26208749599065
 21
16.26208257799726
 31
0.0
  0
LINE
  5
36398
330
2
100
AcDbEntity
  8
DETAIL
100
AcDbLine
 10
18.26208749599065
 20
16.29265494630841
 30
0.0
 11
18.28508749599065
 21
16.27895411010647
 31
0.0
  0
LINE
  5
36399
330
2
100
AcDbEntity
  8
DETAIL
100
AcDbLine
 10
18.28508749599066
 20
16.31955020573277
 30
0.0
 11
18.26208749599064
 21
16.30267867362355
 31
0.0
  0
LINE
  5
3639A
330
2
100
AcDbEntity
  8
DETAIL
100
AcDbLine
 10
18.26208749599064
 20
16.13027056380327
 30
0.0
 11
18.26208749599064
 21
16.14029429111841
 31
0.0
  0
LINE
  5
3639B
330
2
100
AcDbEntity
  8
DETAIL
100
AcDbLine
 10
18.26208749599065
 20
16.08967446817699
 30
0.0
 11
18.26208749599064
 21
16.09969819549212
 31
0.0
  0
LINE
  5
3639C
330
2
100
AcDbEntity
  8
DETAIL
100
AcDbLine
 10
18.28508749599065
 20
16.07597363197505
 30
0.0
 11
18.21801626139626
 21
16.07135053438756
 31
0.0
  0
LINE
  5
3639D
330
2
100
AcDbEntity
  8
DETAIL
100
AcDbLine
 10
18.28508749599065
 20
16.07597363197505
 30
0.0
 11
18.27878509003108
 21
16.07135053438755
 31
0.0
  0
LINE
  5
3639E
330
2
100
AcDbEntity
  8
DETAIL
100
AcDbLine
 10
18.26208749599065
 20
16.08967446817699
 30
0.0
 11
18.28508749599065
 21
16.07597363197505
 31
0.0
  0
LINE
  5
3639F
330
2
100
AcDbEntity
  8
DETAIL
100
AcDbLine
 10
18.26208749599065
 20
16.13027056380327
 30
0.0
 11
18.28508749599065
 21
16.11656972760133
 31
0.0
  0
LINE
  5
363A0
330
2
100
AcDbEntity
  8
DETAIL
100
AcDbLine
 10
18.28508749599065
 20
16.11656972760133
 30
0.0
 11
18.26208749599065
 21
16.09969819549212
 31
0.0
  0
LINE
  5
363A1
330
2
100
AcDbEntity
  8
DETAIL
100
AcDbLine
 10
18.13708749599065
 20
16.16225063794238
 30
0.0
 11
18.11408749599064
 21
16.14537910583316
 31
0.0
  0
LINE
  5
363A2
330
2
100
AcDbEntity
  8
DETAIL
100
AcDbLine
 10
18.13708749599065
 20
16.28403892482124
 30
0.0
 11
18.13708749599064
 21
16.29406265213637
 31
0.0
  0
LINE
  5
363A3
330
2
100
AcDbEntity
  8
DETAIL
100
AcDbLine
 10
18.13708749599064
 20
16.16225063794238
 30
0.0
 11
18.13708749599065
 21
16.17227436525752
 31
0.0
  0
LINE
  5
363A4
330
2
100
AcDbEntity
  8
DETAIL
100
AcDbLine
 10
18.13708749599064
 20
16.24344282919494
 30
0.0
 11
18.13708749599064
 21
16.25346655651008
 31
0.0
  0
LINE
  5
363A5
330
2
100
AcDbEntity
  8
DETAIL
100
AcDbLine
 10
18.13708749599064
 20
16.20284673356867
 30
0.0
 11
18.13708749599065
 21
16.2128704608838
 31
0.0
  0
LINE
  5
363A6
330
2
100
AcDbEntity
  8
DETAIL
100
AcDbLine
 10
18.11408749599064
 20
16.18597520145945
 30
0.0
 11
18.13708749599065
 21
16.17227436525751
 31
0.0
  0
LINE
  5
363A7
330
2
100
AcDbEntity
  8
DETAIL
100
AcDbLine
 10
18.13708749599064
 20
16.20284673356867
 30
0.0
 11
18.11408749599064
 21
16.18597520145945
 31
0.0
  0
LINE
  5
363A8
330
2
100
AcDbEntity
  8
DETAIL
100
AcDbLine
 10
18.11408749599064
 20
16.22657129708573
 30
0.0
 11
18.13708749599065
 21
16.2128704608838
 31
0.0
  0
LINE
  5
363A9
330
2
100
AcDbEntity
  8
DETAIL
100
AcDbLine
 10
18.13708749599065
 20
16.24344282919494
 30
0.0
 11
18.11408749599064
 21
16.22657129708573
 31
0.0
  0
LINE
  5
363AA
330
2
100
AcDbEntity
  8
DETAIL
100
AcDbLine
 10
18.13708749599065
 20
16.28403892482124
 30
0.0
 11
18.11408749599064
 21
16.26716739271202
 31
0.0
  0
LINE
  5
363AB
330
2
100
AcDbEntity
  8
DETAIL
100
AcDbLine
 10
18.11408749599064
 20
16.26716739271202
 30
0.0
 11
18.13708749599064
 21
16.25346655651008
 31
0.0
  0
LINE
  5
363AC
330
2
100
AcDbEntity
  8
DETAIL
100
AcDbLine
 10
18.11408749599064
 20
16.30776348833831
 30
0.0
 11
18.13708749599064
 21
16.29406265213637
 31
0.0
  0
LINE
  5
363AD
330
2
100
AcDbEntity
  8
DETAIL
100
AcDbLine
 10
18.13708749599065
 20
16.32463502044751
 30
0.0
 11
18.11408749599064
 21
16.30776348833831
 31
0.0
  0
LINE
  5
363AE
330
2
100
AcDbEntity
  8
DETAIL
100
AcDbLine
 10
18.13708749599064
 20
16.12165454231609
 30
0.0
 11
18.13708749599064
 21
16.13167826963123
 31
0.0
  0
LINE
  5
363AF
330
2
100
AcDbEntity
  8
DETAIL
100
AcDbLine
 10
18.13708749599064
 20
16.08105844668981
 30
0.0
 11
18.13708749599064
 21
16.09108217400494
 31
0.0
  0
LINE
  5
363B0
330
2
100
AcDbEntity
  8
DETAIL
100
AcDbLine
 10
18.13708749599065
 20
16.08105844668981
 30
0.0
 11
18.12385325137632
 21
16.07135053438755
 31
0.0
  0
LINE
  5
363B1
330
2
100
AcDbEntity
  8
DETAIL
100
AcDbLine
 10
18.11408749599064
 20
16.10478301020688
 30
0.0
 11
18.13708749599064
 21
16.09108217400494
 31
0.0
  0
LINE
  5
363B2
330
2
100
AcDbEntity
  8
DETAIL
100
AcDbLine
 10
18.13708749599065
 20
16.12165454231609
 30
0.0
 11
18.11408749599064
 21
16.10478301020688
 31
0.0
  0
LINE
  5
363B3
330
2
100
AcDbEntity
  8
DETAIL
100
AcDbLine
 10
18.11408749599064
 20
16.14537910583316
 30
0.0
 11
18.13708749599064
 21
16.13167826963123
 31
0.0
  0
ARC
  5
363B4
330
2
100
AcDbEntity
  8
DETAIL
100
AcDbCircle
 10
18.18303630622731
 20
16.30642388796116
 30
0.0
 40
0.3088363825057014
100
AcDbArc
 50
275.3604612699314
 51
302.9108624683185
  0
LINE
  5
363B5
330
2
100
AcDbEntity
  8
DETAIL
100
AcDbLine
 10
18.04833749599065
 20
16.04715053438775
 30
0.0
 11
18.35083749599069
 21
16.04715053438775
 31
0.0
  0
LINE
  5
363B6
330
2
100
AcDbEntity
  8
DETAIL
100
AcDbLine
 10
18.04833749599065
 20
16.07135053438755
 30
0.0
 11
18.35083749599069
 21
16.07135053438756
 31
0.0
  0
LINE
  5
363B7
330
2
100
AcDbEntity
  8
DETAIL
100
AcDbLine
 10
18.35083749599069
 20
16.04715053438775
 30
0.0
 11
18.35083749599069
 21
16.07135053438756
 31
0.0
  0
LINE
  5
363B8
330
2
100
AcDbEntity
  8
DETAIL
100
AcDbLine
 10
18.18728679789137
 20
15.99893814890003
 30
0.0
 11
18.19152082932406
 21
16.02295053438794
 31
0.0
  0
LINE
  5
363B9
330
2
100
AcDbEntity
  8
DETAIL
100
AcDbLine
 10
18.21188819408996
 20
15.99893814890003
 30
0.0
 11
18.20765416265728
 21
16.02295053438794
 31
0.0
  0
LINE
  5
363BA
330
2
100
AcDbEntity
  8
DETAIL
100
AcDbLine
 10
18.20765416265728
 20
16.02295053438794
 30
0.0
 11
18.19152082932406
 21
16.02295053438794
 31
0.0
  0
ARC
  5
363BB
330
2
100
AcDbEntity
  8
DETAIL
100
AcDbCircle
 10
18.21613868575403
 20
16.30642388796117
 30
0.0
 40
0.308836382505713
100
AcDbArc
 50
237.0891375316834
 51
264.6395387300702
  0
LINE
  5
363BC
330
2
100
AcDbEntity
  8
DETAIL
100
AcDbLine
 10
18.04833749599065
 20
16.04715053438775
 30
0.0
 11
18.04833749599065
 21
16.07135053438755
 31
0.0
  0
LINE
  5
363BD
330
2
100
AcDbEntity
  8
DETAIL
100
AcDbLine
 10
18.04833749599065
 20
16.07135053438756
 30
0.0
 11
18.35083749599064
 21
16.07135053438755
 31
0.0
  0
LINE
  5
363BE
330
2
100
AcDbEntity
  8
DETAIL
100
AcDbLine
 10
17.77078749597868
 20
16.32463502044752
 30
0.0
 11
17.77078749597867
 21
16.46785053438756
 31
0.0
  0
LINE
  5
363BF
330
2
100
AcDbEntity
  8
DETAIL
100
AcDbLine
 10
17.64578749597866
 20
16.33325104193469
 30
0.0
 11
17.77078749597867
 21
16.32463502044751
 31
0.0
  0
LINE
  5
363C0
330
2
100
AcDbEntity
  8
DETAIL
100
AcDbLine
 10
17.64578749597866
 20
16.33325104193469
 30
0.0
 11
17.62278749597865
 21
16.31955020573277
 31
0.0
  0
LINE
  5
363C1
330
2
100
AcDbEntity
  8
DETAIL
100
AcDbLine
 10
17.70828749597867
 20
16.50935053438756
 30
0.0
 11
17.74502785813783
 21
16.33935053438756
 31
0.0
  0
LINE
  5
363C2
330
2
100
AcDbEntity
  8
DETAIL
100
AcDbLine
 10
17.70828749597867
 20
16.50935053438756
 30
0.0
 11
17.77078749597867
 21
16.33935053438756
 31
0.0
  0
LINE
  5
363C3
330
2
100
AcDbEntity
  8
DETAIL
100
AcDbLine
 10
17.70828749597867
 20
16.50935053438756
 30
0.0
 11
17.77078749597867
 21
16.46785053438756
 31
0.0
  0
LINE
  5
363C4
330
2
100
AcDbEntity
  8
DETAIL
100
AcDbLine
 10
17.70828749597867
 20
16.50935053438756
 30
0.0
 11
17.64578749597866
 21
16.46785053438756
 31
0.0
  0
LINE
  5
363C5
330
2
100
AcDbEntity
  8
DETAIL
100
AcDbLine
 10
17.64578749597866
 20
16.33325104193469
 30
0.0
 11
17.64578749597866
 21
16.46785053438756
 31
0.0
  0
LINE
  5
363C6
330
2
100
AcDbEntity
  8
DETAIL
100
AcDbLine
 10
17.71725646674105
 20
16.46785053438756
 30
0.0
 11
17.64578749597866
 21
16.46785053438756
 31
0.0
  0
LINE
  5
363C7
330
2
100
AcDbEntity
  8
DETAIL
100
AcDbLine
 10
17.74502785813783
 20
16.33935053438756
 30
0.0
 11
17.77078749597867
 21
16.33935053438756
 31
0.0
  0
LINE
  5
363C8
330
2
100
AcDbEntity
  8
DETAIL
100
AcDbLine
 10
17.64578749597866
 20
16.08967446817699
 30
0.0
 11
17.77078749597867
 21
16.08105844668981
 31
0.0
  0
LINE
  5
363C9
330
2
100
AcDbEntity
  8
DETAIL
100
AcDbLine
 10
17.64578749597868
 20
16.09969819549212
 30
0.0
 11
17.77078749597868
 21
16.09108217400494
 31
0.0
  0
LINE
  5
363CA
330
2
100
AcDbEntity
  8
DETAIL
100
AcDbLine
 10
17.64578749597866
 20
16.13027056380327
 30
0.0
 11
17.77078749597867
 21
16.12165454231609
 31
0.0
  0
LINE
  5
363CB
330
2
100
AcDbEntity
  8
DETAIL
100
AcDbLine
 10
17.64578749597868
 20
16.14029429111841
 30
0.0
 11
17.77078749597868
 21
16.13167826963123
 31
0.0
  0
LINE
  5
363CC
330
2
100
AcDbEntity
  8
DETAIL
100
AcDbLine
 10
17.64578749597866
 20
16.17086665942955
 30
0.0
 11
17.77078749597868
 21
16.16225063794238
 31
0.0
  0
LINE
  5
363CD
330
2
100
AcDbEntity
  8
DETAIL
100
AcDbLine
 10
17.64578749597868
 20
16.18089038674469
 30
0.0
 11
17.77078749597867
 21
16.17227436525752
 31
0.0
  0
LINE
  5
363CE
330
2
100
AcDbEntity
  8
DETAIL
100
AcDbLine
 10
17.64578749597868
 20
16.21146275505584
 30
0.0
 11
17.77078749597868
 21
16.20284673356867
 31
0.0
  0
LINE
  5
363CF
330
2
100
AcDbEntity
  8
DETAIL
100
AcDbLine
 10
17.64578749597868
 20
16.22148648237098
 30
0.0
 11
17.77078749597867
 21
16.2128704608838
 31
0.0
  0
LINE
  5
363D0
330
2
100
AcDbEntity
  8
DETAIL
100
AcDbLine
 10
17.64578749597866
 20
16.25205885068213
 30
0.0
 11
17.77078749597868
 21
16.24344282919494
 31
0.0
  0
LINE
  5
363D1
330
2
100
AcDbEntity
  8
DETAIL
100
AcDbLine
 10
17.64578749597866
 20
16.26208257799726
 30
0.0
 11
17.77078749597868
 21
16.25346655651008
 31
0.0
  0
LINE
  5
363D2
330
2
100
AcDbEntity
  8
DETAIL
100
AcDbLine
 10
17.64578749597866
 20
16.29265494630841
 30
0.0
 11
17.77078749597867
 21
16.28403892482124
 31
0.0
  0
LINE
  5
363D3
330
2
100
AcDbEntity
  8
DETAIL
100
AcDbLine
 10
17.64578749597868
 20
16.30267867362355
 30
0.0
 11
17.77078749597868
 21
16.29406265213637
 31
0.0
  0
LINE
  5
363D4
330
2
100
AcDbEntity
  8
DETAIL
100
AcDbLine
 10
17.62278749597867
 20
16.11656972760133
 30
0.0
 11
17.79378749597867
 21
16.10478301020688
 31
0.0
  0
LINE
  5
363D5
330
2
100
AcDbEntity
  8
DETAIL
100
AcDbLine
 10
17.62278749597865
 20
16.15716582322762
 30
0.0
 11
17.79378749597867
 21
16.14537910583316
 31
0.0
  0
LINE
  5
363D6
330
2
100
AcDbEntity
  8
DETAIL
100
AcDbLine
 10
17.62278749597867
 20
16.19776191885391
 30
0.0
 11
17.79378749597867
 21
16.18597520145945
 31
0.0
  0
LINE
  5
363D7
330
2
100
AcDbEntity
  8
DETAIL
100
AcDbLine
 10
17.62278749597867
 20
16.23835801448019
 30
0.0
 11
17.79378749597867
 21
16.22657129708573
 31
0.0
  0
LINE
  5
363D8
330
2
100
AcDbEntity
  8
DETAIL
100
AcDbLine
 10
17.62278749597867
 20
16.27895411010647
 30
0.0
 11
17.79378749597867
 21
16.26716739271202
 31
0.0
  0
LINE
  5
363D9
330
2
100
AcDbEntity
  8
DETAIL
100
AcDbLine
 10
17.62278749597865
 20
16.31955020573277
 30
0.0
 11
17.79378749597867
 21
16.30776348833831
 31
0.0
  0
LINE
  5
363DA
330
2
100
AcDbEntity
  8
DETAIL
100
AcDbLine
 10
17.62278749597865
 20
16.15716582322762
 30
0.0
 11
17.64578749597868
 21
16.14029429111841
 31
0.0
  0
LINE
  5
363DB
330
2
100
AcDbEntity
  8
DETAIL
100
AcDbLine
 10
17.64578749597866
 20
16.17086665942955
 30
0.0
 11
17.64578749597868
 21
16.18089038674469
 31
0.0
  0
LINE
  5
363DC
330
2
100
AcDbEntity
  8
DETAIL
100
AcDbLine
 10
17.64578749597868
 20
16.21146275505584
 30
0.0
 11
17.64578749597868
 21
16.22148648237098
 31
0.0
  0
LINE
  5
363DD
330
2
100
AcDbEntity
  8
DETAIL
100
AcDbLine
 10
17.64578749597866
 20
16.29265494630841
 30
0.0
 11
17.64578749597866
 21
16.30267867362355
 31
0.0
  0
LINE
  5
363DE
330
2
100
AcDbEntity
  8
DETAIL
100
AcDbLine
 10
17.64578749597866
 20
16.25205885068213
 30
0.0
 11
17.64578749597865
 21
16.26208257799726
 31
0.0
  0
LINE
  5
363DF
330
2
100
AcDbEntity
  8
DETAIL
100
AcDbLine
 10
17.64578749597866
 20
16.17086665942955
 30
0.0
 11
17.62278749597865
 21
16.15716582322762
 31
0.0
  0
LINE
  5
363E0
330
2
100
AcDbEntity
  8
DETAIL
100
AcDbLine
 10
17.64578749597868
 20
16.21146275505584
 30
0.0
 11
17.62278749597867
 21
16.19776191885391
 31
0.0
  0
LINE
  5
363E1
330
2
100
AcDbEntity
  8
DETAIL
100
AcDbLine
 10
17.62278749597867
 20
16.19776191885391
 30
0.0
 11
17.64578749597868
 21
16.18089038674469
 31
0.0
  0
LINE
  5
363E2
330
2
100
AcDbEntity
  8
DETAIL
100
AcDbLine
 10
17.64578749597866
 20
16.25205885068212
 30
0.0
 11
17.62278749597867
 21
16.23835801448019
 31
0.0
  0
LINE
  5
363E3
330
2
100
AcDbEntity
  8
DETAIL
100
AcDbLine
 10
17.62278749597867
 20
16.23835801448019
 30
0.0
 11
17.64578749597868
 21
16.22148648237098
 31
0.0
  0
LINE
  5
363E4
330
2
100
AcDbEntity
  8
DETAIL
100
AcDbLine
 10
17.62278749597867
 20
16.27895411010647
 30
0.0
 11
17.64578749597866
 21
16.26208257799726
 31
0.0
  0
LINE
  5
363E5
330
2
100
AcDbEntity
  8
DETAIL
100
AcDbLine
 10
17.64578749597866
 20
16.29265494630841
 30
0.0
 11
17.62278749597867
 21
16.27895411010647
 31
0.0
  0
LINE
  5
363E6
330
2
100
AcDbEntity
  8
DETAIL
100
AcDbLine
 10
17.62278749597865
 20
16.31955020573277
 30
0.0
 11
17.64578749597868
 21
16.30267867362355
 31
0.0
  0
LINE
  5
363E7
330
2
100
AcDbEntity
  8
DETAIL
100
AcDbLine
 10
17.64578749597868
 20
16.13027056380327
 30
0.0
 11
17.64578749597868
 21
16.14029429111841
 31
0.0
  0
LINE
  5
363E8
330
2
100
AcDbEntity
  8
DETAIL
100
AcDbLine
 10
17.64578749597866
 20
16.08967446817699
 30
0.0
 11
17.64578749597868
 21
16.09969819549212
 31
0.0
  0
LINE
  5
363E9
330
2
100
AcDbEntity
  8
DETAIL
100
AcDbLine
 10
17.62278749597867
 20
16.07597363197505
 30
0.0
 11
17.68985873057306
 21
16.07135053438756
 31
0.0
  0
LINE
  5
363EA
330
2
100
AcDbEntity
  8
DETAIL
100
AcDbLine
 10
17.62278749597867
 20
16.07597363197505
 30
0.0
 11
17.62908990193824
 21
16.07135053438755
 31
0.0
  0
LINE
  5
363EB
330
2
100
AcDbEntity
  8
DETAIL
100
AcDbLine
 10
17.64578749597866
 20
16.08967446817699
 30
0.0
 11
17.62278749597867
 21
16.07597363197505
 31
0.0
  0
LINE
  5
363EC
330
2
100
AcDbEntity
  8
DETAIL
100
AcDbLine
 10
17.64578749597866
 20
16.13027056380327
 30
0.0
 11
17.62278749597867
 21
16.11656972760133
 31
0.0
  0
LINE
  5
363ED
330
2
100
AcDbEntity
  8
DETAIL
100
AcDbLine
 10
17.62278749597867
 20
16.11656972760133
 30
0.0
 11
17.64578749597866
 21
16.09969819549212
 31
0.0
  0
LINE
  5
363EE
330
2
100
AcDbEntity
  8
DETAIL
100
AcDbLine
 10
17.77078749597867
 20
16.16225063794238
 30
0.0
 11
17.79378749597867
 21
16.14537910583316
 31
0.0
  0
LINE
  5
363EF
330
2
100
AcDbEntity
  8
DETAIL
100
AcDbLine
 10
17.77078749597867
 20
16.28403892482124
 30
0.0
 11
17.77078749597868
 21
16.29406265213637
 31
0.0
  0
LINE
  5
363F0
330
2
100
AcDbEntity
  8
DETAIL
100
AcDbLine
 10
17.77078749597868
 20
16.16225063794238
 30
0.0
 11
17.77078749597867
 21
16.17227436525752
 31
0.0
  0
LINE
  5
363F1
330
2
100
AcDbEntity
  8
DETAIL
100
AcDbLine
 10
17.77078749597868
 20
16.24344282919494
 30
0.0
 11
17.77078749597868
 21
16.25346655651008
 31
0.0
  0
LINE
  5
363F2
330
2
100
AcDbEntity
  8
DETAIL
100
AcDbLine
 10
17.77078749597868
 20
16.20284673356867
 30
0.0
 11
17.77078749597867
 21
16.2128704608838
 31
0.0
  0
LINE
  5
363F3
330
2
100
AcDbEntity
  8
DETAIL
100
AcDbLine
 10
17.79378749597867
 20
16.18597520145945
 30
0.0
 11
17.77078749597867
 21
16.17227436525751
 31
0.0
  0
LINE
  5
363F4
330
2
100
AcDbEntity
  8
DETAIL
100
AcDbLine
 10
17.77078749597868
 20
16.20284673356867
 30
0.0
 11
17.79378749597867
 21
16.18597520145945
 31
0.0
  0
LINE
  5
363F5
330
2
100
AcDbEntity
  8
DETAIL
100
AcDbLine
 10
17.79378749597867
 20
16.22657129708573
 30
0.0
 11
17.77078749597867
 21
16.2128704608838
 31
0.0
  0
LINE
  5
363F6
330
2
100
AcDbEntity
  8
DETAIL
100
AcDbLine
 10
17.77078749597867
 20
16.24344282919494
 30
0.0
 11
17.79378749597867
 21
16.22657129708573
 31
0.0
  0
LINE
  5
363F7
330
2
100
AcDbEntity
  8
DETAIL
100
AcDbLine
 10
17.77078749597867
 20
16.28403892482124
 30
0.0
 11
17.79378749597867
 21
16.26716739271202
 31
0.0
  0
LINE
  5
363F8
330
2
100
AcDbEntity
  8
DETAIL
100
AcDbLine
 10
17.79378749597867
 20
16.26716739271202
 30
0.0
 11
17.77078749597868
 21
16.25346655651008
 31
0.0
  0
LINE
  5
363F9
330
2
100
AcDbEntity
  8
DETAIL
100
AcDbLine
 10
17.79378749597867
 20
16.30776348833831
 30
0.0
 11
17.77078749597868
 21
16.29406265213637
 31
0.0
  0
LINE
  5
363FA
330
2
100
AcDbEntity
  8
DETAIL
100
AcDbLine
 10
17.77078749597867
 20
16.32463502044751
 30
0.0
 11
17.79378749597867
 21
16.30776348833831
 31
0.0
  0
LINE
  5
363FB
330
2
100
AcDbEntity
  8
DETAIL
100
AcDbLine
 10
17.77078749597868
 20
16.12165454231609
 30
0.0
 11
17.77078749597868
 21
16.13167826963123
 31
0.0
  0
LINE
  5
363FC
330
2
100
AcDbEntity
  8
DETAIL
100
AcDbLine
 10
17.77078749597868
 20
16.08105844668981
 30
0.0
 11
17.77078749597868
 21
16.09108217400494
 31
0.0
  0
LINE
  5
363FD
330
2
100
AcDbEntity
  8
DETAIL
100
AcDbLine
 10
17.77078749597867
 20
16.08105844668981
 30
0.0
 11
17.784021740593
 21
16.07135053438755
 31
0.0
  0
LINE
  5
363FE
330
2
100
AcDbEntity
  8
DETAIL
100
AcDbLine
 10
17.79378749597867
 20
16.10478301020688
 30
0.0
 11
17.77078749597868
 21
16.09108217400494
 31
0.0
  0
LINE
  5
363FF
330
2
100
AcDbEntity
  8
DETAIL
100
AcDbLine
 10
17.77078749597867
 20
16.12165454231609
 30
0.0
 11
17.79378749597867
 21
16.10478301020688
 31
0.0
  0
LINE
  5
36400
330
2
100
AcDbEntity
  8
DETAIL
100
AcDbLine
 10
17.79378749597867
 20
16.14537910583316
 30
0.0
 11
17.77078749597868
 21
16.13167826963123
 31
0.0
  0
ARC
  5
36401
330
2
100
AcDbEntity
  8
DETAIL
100
AcDbCircle
 10
17.72483868574201
 20
16.30642388796116
 30
0.0
 40
0.3088363825057014
100
AcDbArc
 50
237.0891375316814
 51
264.6395387300686
  0
LINE
  5
36402
330
2
100
AcDbEntity
  8
DETAIL
100
AcDbLine
 10
17.85953749597867
 20
16.04715053438775
 30
0.0
 11
17.55703749597863
 21
16.04715053438775
 31
0.0
  0
LINE
  5
36403
330
2
100
AcDbEntity
  8
DETAIL
100
AcDbLine
 10
17.85953749597867
 20
16.07135053438755
 30
0.0
 11
17.55703749597863
 21
16.07135053438756
 31
0.0
  0
LINE
  5
36404
330
2
100
AcDbEntity
  8
DETAIL
100
AcDbLine
 10
17.55703749597863
 20
16.04715053438775
 30
0.0
 11
17.55703749597863
 21
16.07135053438756
 31
0.0
  0
LINE
  5
36405
330
2
100
AcDbEntity
  8
DETAIL
100
AcDbLine
 10
17.72058819407795
 20
15.99893814890003
 30
0.0
 11
17.71635416264526
 21
16.02295053438794
 31
0.0
  0
LINE
  5
36406
330
2
100
AcDbEntity
  8
DETAIL
100
AcDbLine
 10
17.69598679787935
 20
15.99893814890003
 30
0.0
 11
17.70022082931204
 21
16.02295053438794
 31
0.0
  0
LINE
  5
36407
330
2
100
AcDbEntity
  8
DETAIL
100
AcDbLine
 10
17.70022082931204
 20
16.02295053438794
 30
0.0
 11
17.71635416264526
 21
16.02295053438794
 31
0.0
  0
ARC
  5
36408
330
2
100
AcDbEntity
  8
DETAIL
100
AcDbCircle
 10
17.69173630621529
 20
16.30642388796117
 30
0.0
 40
0.308836382505713
100
AcDbArc
 50
275.3604612699298
 51
302.9108624683166
  0
LINE
  5
36409
330
2
100
AcDbEntity
  8
DETAIL
100
AcDbLine
 10
17.85953749597867
 20
16.04715053438775
 30
0.0
 11
17.85953749597867
 21
16.07135053438755
 31
0.0
  0
LINE
  5
3640A
330
2
100
AcDbEntity
  8
DETAIL
100
AcDbLine
 10
17.85953749597867
 20
16.07135053438756
 30
0.0
 11
17.55703749597867
 21
16.07135053438755
 31
0.0
  0
LINE
  5
36411
330
2
100
AcDbEntity
  8
DETAIL
100
AcDbLine
 10
18.13708749599064
 20
16.32647553438789
 30
0.0
 11
17.98143749598549
 21
16.32647553438789
 31
0.0
  0
LINE
  5
36483
330
2
100
AcDbEntity
  8
DETAIL
100
AcDbLine
 10
12.60857072712333
 20
17.8089755343879
 30
0.0
 11
12.60857072712333
 21
16.80766303438773
 31
0.0
  0
LINE
  5
36486
330
2
100
AcDbEntity
  8
DETAIL
100
AcDbLine
 10
12.60857072712333
 20
16.80766303438773
 30
0.0
 11
12.2651360496915
 21
16.68266303438772
 31
0.0
  0
LINE
  5
36487
330
2
100
AcDbEntity
  8
DETAIL
100
AcDbLine
 10
12.2651360496915
 20
16.68266303438772
 30
0.0
 11
12.95200540455516
 21
16.43266303438772
 31
0.0
  0
LINE
  5
36488
330
2
100
AcDbEntity
  8
DETAIL
100
AcDbLine
 10
12.95200540455516
 20
16.43266303438772
 30
0.0
 11
12.60857072712333
 21
16.30766303438773
 31
0.0
  0
LINE
  5
36489
330
2
100
AcDbEntity
  8
DETAIL
100
AcDbLine
 10
12.60857072712333
 20
16.30766303438773
 30
0.0
 11
12.60857072712333
 21
15.30635053438756
 31
0.0
  0
TEXT
  5
36548
330
2
100
AcDbEntity
  8
DIM
100
AcDbText
 10
9.862834605297255
 20
22.56111612688435
 30
0.0
 40
0.21875
  1
*OPTIONAL NON-WOVEN
  7
STD
100
AcDbText
  0
TEXT
  5
36549
330
2
100
AcDbEntity
  8
DIM
100
AcDbText
 10
10.12418564554282
 20
22.1926531891854
 30
0.0
 40
0.21875
  1
ACOUSTICAL FABRIC
  7
STD
100
AcDbText
  0
TEXT
  5
3654A
330
2
100
AcDbEntity
  8
DIM
100
AcDbText
 10
9.720035321531906
 20
21.82419025148644
 30
0.0
 40
0.21875
  1
CAN BE APPLIED TO BACK
  7
STD
100
AcDbText
  0
TEXT
  5
3654B
330
2
100
AcDbEntity
  8
DIM
100
AcDbText
 10
9.785540949089886
 20
21.45572731378749
 30
0.0
 40
0.21875
  1
SIDE OF MARQUIS PANEL
  7
STD
100
AcDbText
  0
TEXT
  5
3654C
330
2
100
AcDbEntity
  8
DIM
100
AcDbText
 10
9.946619138039407
 20
21.08726437608853
 30
0.0
 40
0.21875
  1
IN LIEU OF INSULATION
  7
STD
100
AcDbText
  0
TEXT
  5
3654D
330
2
100
AcDbEntity
  8
DIM
100
AcDbText
 10
19.20105095812205
 20
14.34592537208732
 30
0.0
 40
0.25
  1
FACTORY PAINTED
  7
STD
100
AcDbText
  0
TEXT
  5
3654E
330
2
100
AcDbEntity
  8
DIM
100
AcDbText
 10
19.20275627872234
 20
13.92491013788995
 30
0.0
 40
0.25
  1
PANEL SCREW TYP
  7
STD
100
AcDbText
  0
SOLID
  5
3654F
330
2
100
AcDbEntity
  8
DIM
100
AcDbTrace
 10
18.32403535304029
 20
15.7643420261269
 30
0.0
 11
18.28427472168089
 21
16.0146522402713
 31
0.0
 12
18.40306782079742
 22
15.79076764787289
 32
0.0
 13
18.40306782079742
 23
15.79076764787289
 33
0.0
1001
ACAD
1000
DSTYLE
1002
{
1070
   147
1040
0.09
1070
    77
1070
     0
1002
}
  0
LWPOLYLINE
  5
36550
330
2
100
AcDbEntity
  8
DIM
100
AcDbPolyline
 90
        3
 70
     0
 43
0.0
 10
18.36355158691885
 20
15.7775548369999
 10
18.79970034420665
 20
14.47314228886767
 10
19.04970034420665
 20
14.47314228886767
1001
ACAD
1000
DSTYLE
1002
{
1070
   147
1040
0.09
1070
    77
1070
     0
1002
}
  0
TEXT
  5
36553
330
2
100
AcDbEntity
  8
DIM
100
AcDbText
 10
12.4120441365891
 20
14.47323322325692
 30
0.0
 40
0.25
  1
BUTT JOINT AT PANEL ENDS
  7
STD
100
AcDbText
  0
TEXT
  5
36554
330
2
100
AcDbEntity
  8
DIM
100
AcDbText
 10
13.8482651461389
 20
14.05221798905956
 30
0.0
 40
0.25
  1
WITH SPLICE PLATE
  7
STD
100
AcDbText
  0
TEXT
  5
36555
330
2
100
AcDbEntity
  8
DIM
100
AcDbText
 10
13.34400184463822
 20
13.6312027548622
 30
0.0
 40
0.25
  1
LOCATED AT MAIN TEE
  7
STD
100
AcDbText
  0
TEXT
  5
36556
330
2
100
AcDbEntity
  8
DIM
100
AcDbText
 10
15.24884495514299
 20
13.21010225463482
 30
0.0
 40
0.25
  1
NOMINALLY
  7
STD
100
AcDbText
  0
SOLID
  5
36557
330
2
100
AcDbEntity
  8
DIM
100
AcDbTrace
 10
17.85265807471672
 20
15.40151760529943
 30
0.0
 11
17.95393749598465
 21
15.63385053438771
 31
0.0
 12
17.93348385827335
 22
15.38122876213622
 32
0.0
 13
17.93348385827335
 23
15.38122876213622
 33
0.0
1001
ACAD
1000
DSTYLE
1002
{
1070
   147
1040
0.09
1070
    77
1070
     0
1002
}
  0
LWPOLYLINE
  5
36558
330
2
100
AcDbEntity
  8
DIM
100
AcDbPolyline
 90
        3
 70
     0
 43
0.0
 10
17.89307096649503
 20
15.39137318371782
 10
17.6945339046655
 20
14.60045014003728
 10
17.4445339046655
 20
14.60045014003728
1001
ACAD
1000
DSTYLE
1002
{
1070
   147
1040
0.09
1070
    77
1070
     0
1002
}
  0
LINE
  5
36559
330
2
100
AcDbEntity
  8
DETAIL
  6
HIDDEN2
100
AcDbLine
 10
16.95393749598466
 20
15.68618643703154
 30
0.0
 11
18.95393749598466
 21
15.68618643703154
 31
0.0
  0
LINE
  5
3655A
330
2
100
AcDbEntity
  8
DETAIL
  6
HIDDEN2
100
AcDbLine
 10
18.95393749598466
 20
15.68618643703154
 30
0.0
 11
18.95393749598466
 21
15.74918643703154
 31
0.0
  0
LINE
  5
3655B
330
2
100
AcDbEntity
  8
DETAIL
  6
HIDDEN2
100
AcDbLine
 10
18.95393749598466
 20
15.74918643703154
 30
0.0
 11
16.95393749598466
 21
15.74918643703154
 31
0.0
  0
LINE
  5
3655C
330
2
100
AcDbEntity
  8
DETAIL
  6
HIDDEN2
100
AcDbLine
 10
16.95393749598466
 20
15.74918643703154
 30
0.0
 11
16.95393749598466
 21
15.68618643703154
 31
0.0
  0
LINE
  5
3655D
330
2
100
AcDbEntity
  8
0
  6
Continuous
 62
     4
100
AcDbLine
 10
18.01643749598466
 20
17.61897553438771
 30
0.0
 11
18.01643749598466
 21
17.43097553438771
 31
0.0
  0
LINE
  5
3655E
330
2
100
AcDbEntity
  8
0
  6
Continuous
 62
     4
100
AcDbLine
 10
18.01643749598466
 20
17.43097553438771
 30
0.0
 11
17.97643749598465
 21
17.43097553438771
 31
0.0
  0
LINE
  5
3655F
330
2
100
AcDbEntity
  8
0
  6
Continuous
 62
     4
100
AcDbLine
 10
17.97643749598465
 20
17.43097553438771
 30
0.0
 11
17.97643749598465
 21
16.16897553438771
 31
0.0
  0
LINE
  5
36560
330
2
100
AcDbEntity
  8
0
  6
Continuous
 62
     4
100
AcDbLine
 10
17.97643749598465
 20
16.16897553438771
 30
0.0
 11
18.42273749598466
 21
16.16897553438771
 31
0.0
  0
LINE
  5
36561
330
2
100
AcDbEntity
  8
0
  6
Continuous
 62
     4
100
AcDbLine
 10
18.42273749598466
 20
16.16897553438771
 30
0.0
 11
18.42273749598466
 21
16.11897553438771
 31
0.0
  0
LINE
  5
36562
330
2
100
AcDbEntity
  8
0
  6
Continuous
 62
     4
100
AcDbLine
 10
18.42273749598466
 20
16.11897553438771
 30
0.0
 11
17.48513749598466
 21
16.11897553438771
 31
0.0
  0
LINE
  5
36563
330
2
100
AcDbEntity
  8
0
  6
Continuous
 62
     4
100
AcDbLine
 10
17.48513749598466
 20
16.11897553438771
 30
0.0
 11
17.48513749598466
 21
16.16897553438771
 31
0.0
  0
LINE
  5
36564
330
2
100
AcDbEntity
  8
0
  6
Continuous
 62
     4
100
AcDbLine
 10
17.48513749598466
 20
16.16897553438771
 30
0.0
 11
17.93143749598467
 21
16.16897553438771
 31
0.0
  0
LINE
  5
36565
330
2
100
AcDbEntity
  8
0
  6
Continuous
 62
     4
100
AcDbLine
 10
17.93143749598467
 20
16.16897553438771
 30
0.0
 11
17.93143749598464
 21
17.43097553438771
 31
0.0
  0
LINE
  5
36566
330
2
100
AcDbEntity
  8
0
  6
Continuous
 62
     4
100
AcDbLine
 10
17.93143749598464
 20
17.43097553438771
 30
0.0
 11
17.89143749598466
 21
17.43097553438771
 31
0.0
  0
LINE
  5
36567
330
2
100
AcDbEntity
  8
0
  6
Continuous
 62
     4
100
AcDbLine
 10
17.89143749598466
 20
17.43097553438771
 30
0.0
 11
17.89143749598466
 21
17.61897553438771
 31
0.0
  0
LINE
  5
36568
330
2
100
AcDbEntity
  8
0
  6
Continuous
 62
     4
100
AcDbLine
 10
17.89143749598466
 20
17.61897553438771
 30
0.0
 11
18.01643749598466
 21
17.61897553438771
 31
0.0
  0
LINE
  5
36569
330
2
100
AcDbEntity
  8
0
  6
Continuous
 62
     4
100
AcDbLine
 10
25.81388104084114
 20
16.11897553438771
 30
0.0
 11
25.81388104084351
 21
16.16897553438789
 31
0.0
  0
LINE
  5
3656A
330
2
100
AcDbEntity
  8
0
  6
Continuous
 62
     4
100
AcDbLine
 10
25.81388104084351
 20
16.16897553438789
 30
0.0
 11
25.81388104084114
 21
16.11897553438771
 31
0.0
  0
LINE
  5
3656B
330
2
100
AcDbEntity
  8
0
  6
Continuous
 62
     4
100
AcDbLine
 10
25.81388104084114
 20
16.11897553438771
 30
0.0
 11
24.87628104084114
 21
16.11897553438771
 31
0.0
  0
LINE
  5
3656C
330
2
100
AcDbEntity
  8
0
  6
Continuous
 62
     4
100
AcDbLine
 10
24.87628104084114
 20
16.11897553438771
 30
0.0
 11
24.87628104084114
 21
16.16897553438771
 31
0.0
  0
LINE
  5
3656D
330
2
100
AcDbEntity
  8
0
  6
Continuous
 62
     4
100
AcDbLine
 10
24.87628104084114
 20
16.16897553438771
 30
0.0
 11
25.32258104084114
 21
16.16897553438771
 31
0.0
  0
LINE
  5
3656E
330
2
100
AcDbEntity
  8
0
  6
Continuous
 62
     4
100
AcDbLine
 10
25.32258104084114
 20
16.16897553438771
 30
0.0
 11
25.32258104084113
 21
17.43097553438771
 31
0.0
  0
LINE
  5
3656F
330
2
100
AcDbEntity
  8
0
  6
Continuous
 62
     4
100
AcDbLine
 10
25.32258104084113
 20
17.43097553438771
 30
0.0
 11
25.28258104084114
 21
17.43097553438771
 31
0.0
  0
LINE
  5
36570
330
2
100
AcDbEntity
  8
0
  6
Continuous
 62
     4
100
AcDbLine
 10
25.28258104084114
 20
17.43097553438771
 30
0.0
 11
25.28258104084114
 21
17.61897553438771
 31
0.0
  0
LINE
  5
36571
330
2
100
AcDbEntity
  8
0
  6
Continuous
 62
     4
100
AcDbLine
 10
25.28258104084114
 20
17.61897553438771
 30
0.0
 11
25.40758104084114
 21
17.61897553438771
 31
0.0
  0
LINE
  5
36572
330
2
100
AcDbEntity
  8
0
  6
Continuous
 62
     4
100
AcDbLine
 10
25.40758104084114
 20
17.61897553438771
 30
0.0
 11
25.40758104084114
 21
17.43097553438771
 31
0.0
  0
LINE
  5
36573
330
2
100
AcDbEntity
  8
0
  6
Continuous
 62
     4
100
AcDbLine
 10
25.40758104084114
 20
17.43097553438771
 30
0.0
 11
25.36758104084113
 21
17.43097553438771
 31
0.0
  0
LINE
  5
36574
330
2
100
AcDbEntity
  8
0
  6
Continuous
 62
     4
100
AcDbLine
 10
25.36758104084113
 20
17.43097553438771
 30
0.0
 11
25.36758104084113
 21
16.16897553438771
 31
0.0
  0
LINE
  5
36575
330
2
100
AcDbEntity
  8
0
  6
Continuous
 62
     4
100
AcDbLine
 10
25.36758104084113
 20
16.16897553438771
 30
0.0
 11
25.81388104084114
 21
16.16897553438771
 31
0.0
  0
LINE
  5
36576
330
2
100
AcDbEntity
  8
HATCH
 62
     1
100
AcDbLine
 10
12.61824716448468
 20
17.62619035133395
 30
0.0
 11
12.66103234753809
 21
17.66897553438736
 31
0.0
1001
ACAD
1010
0.0
1020
0.0
1030
0.0
  0
LINE
  5
36577
330
2
100
AcDbEntity
  8
HATCH
 62
     1
100
AcDbLine
 10
12.60857072712333
 20
17.08618382808269
 30
0.0
 11
13.19136243342808
 21
17.66897553438744
 31
0.0
1001
ACAD
1010
0.0
1020
0.0
1030
0.0
  0
LINE
  5
36578
330
2
100
AcDbEntity
  8
HATCH
 62
     1
100
AcDbLine
 10
12.60989721662397
 20
16.55718023169342
 30
0.0
 11
13.72169251931807
 21
17.66897553438752
 31
0.0
1001
ACAD
1010
0.0
1020
0.0
1030
0.0
  0
LINE
  5
36579
330
2
100
AcDbEntity
  8
HATCH
 62
     1
100
AcDbLine
 10
12.75202260520836
 20
16.16897553438789
 30
0.0
 11
14.25202260520806
 21
17.6689755343876
 31
0.0
1001
ACAD
1010
0.0
1020
0.0
1030
0.0
  0
LINE
  5
3657A
330
2
100
AcDbEntity
  8
HATCH
 62
     1
100
AcDbLine
 10
13.28235269109827
 20
16.16897553438789
 30
0.0
 11
14.78235269109806
 21
17.66897553438769
 31
0.0
1001
ACAD
1010
0.0
1020
0.0
1030
0.0
  0
LINE
  5
3657B
330
2
100
AcDbEntity
  8
HATCH
 62
     1
100
AcDbLine
 10
13.81268277698818
 20
16.16897553438789
 30
0.0
 11
15.31268277698805
 21
17.66897553438777
 31
0.0
1001
ACAD
1010
0.0
1020
0.0
1030
0.0
  0
LINE
  5
3657C
330
2
100
AcDbEntity
  8
HATCH
 62
     1
100
AcDbLine
 10
14.34301286287809
 20
16.16897553438789
 30
0.0
 11
15.84301286287804
 21
17.66897553438785
 31
0.0
1001
ACAD
1010
0.0
1020
0.0
1030
0.0
  0
LINE
  5
3657D
330
2
100
AcDbEntity
  8
HATCH
 62
     1
100
AcDbLine
 10
14.873342948768
 20
16.16897553438789
 30
0.0
 11
16.12603488710055
 21
17.42166747272044
 31
0.0
1001
ACAD
1010
0.0
1020
0.0
1030
0.0
  0
LINE
  5
3657E
330
2
100
AcDbEntity
  8
HATCH
 62
     1
100
AcDbLine
 10
15.40367303465791
 20
16.16897553438789
 30
0.0
 11
16.28395219929648
 21
17.04925469902647
 31
0.0
1001
ACAD
1010
0.0
1020
0.0
1030
0.0
  0
LINE
  5
3657F
330
2
100
AcDbEntity
  8
HATCH
 62
     1
100
AcDbLine
 10
15.93400312054782
 20
16.16897553438789
 30
0.0
 11
16.36407463020013
 21
16.5990470440402
 31
0.0
1001
ACAD
1010
0.0
1020
0.0
1030
0.0
  0
LINE
  5
36580
330
2
100
AcDbEntity
  8
HATCH
 62
     1
100
AcDbLine
 10
19.77407155115755
 20
17.35739353554807
 30
0.0
 11
20.08565354999738
 21
17.6689755343879
 31
0.0
1001
ACAD
1010
0.0
1020
0.0
1030
0.0
  0
LINE
  5
36581
330
2
100
AcDbEntity
  8
HATCH
 62
     1
100
AcDbLine
 10
19.5439835288318
 20
16.59697542733241
 30
0.0
 11
20.61598363588728
 21
17.6689755343879
 31
0.0
1001
ACAD
1010
0.0
1020
0.0
1030
0.0
  0
LINE
  5
36582
330
2
100
AcDbEntity
  8
HATCH
 62
     1
100
AcDbLine
 10
19.6463137217772
 20
16.16897553438789
 30
0.0
 11
21.1463137217772
 21
17.6689755343879
 31
0.0
1001
ACAD
1010
0.0
1020
0.0
1030
0.0
  0
LINE
  5
36583
330
2
100
AcDbEntity
  8
HATCH
 62
     1
100
AcDbLine
 10
20.1766438076671
 20
16.16897553438789
 30
0.0
 11
21.67664380766711
 21
17.6689755343879
 31
0.0
1001
ACAD
1010
0.0
1020
0.0
1030
0.0
  0
LINE
  5
36584
330
2
100
AcDbEntity
  8
HATCH
 62
     1
100
AcDbLine
 10
20.70697389355702
 20
16.16897553438789
 30
0.0
 11
22.20697389355702
 21
17.6689755343879
 31
0.0
1001
ACAD
1010
0.0
1020
0.0
1030
0.0
  0
LINE
  5
36585
330
2
100
AcDbEntity
  8
HATCH
 62
     1
100
AcDbLine
 10
21.23730397944693
 20
16.16897553438789
 30
0.0
 11
22.73730397944693
 21
17.6689755343879
 31
0.0
1001
ACAD
1010
0.0
1020
0.0
1030
0.0
  0
LINE
  5
36586
330
2
100
AcDbEntity
  8
HATCH
 62
     1
100
AcDbLine
 10
21.76763406533684
 20
16.16897553438789
 30
0.0
 11
23.26763406533684
 21
17.6689755343879
 31
0.0
1001
ACAD
1010
0.0
1020
0.0
1030
0.0
  0
LINE
  5
36587
330
2
100
AcDbEntity
  8
HATCH
 62
     1
100
AcDbLine
 10
22.29796415122675
 20
16.16897553438789
 30
0.0
 11
23.33284266017056
 21
17.20385404333171
 31
0.0
1001
ACAD
1010
0.0
1020
0.0
1030
0.0
  0
LINE
  5
36588
330
2
100
AcDbEntity
  8
HATCH
 62
     1
100
AcDbLine
 10
22.82829423711666
 20
16.16897553438789
 30
0.0
 11
23.50211107763984
 21
16.84279237491107
 31
0.0
1001
ACAD
1010
0.0
1020
0.0
1030
0.0
  0
LINE
  5
36589
330
2
100
AcDbEntity
  8
HATCH
 62
     1
100
AcDbLine
 10
23.35862432300657
 20
16.16897553438789
 30
0.0
 11
23.49373559432896
 21
16.30408680571029
 31
0.0
1001
ACAD
1010
0.0
1020
0.0
1030
0.0
  0
LINE
  5
3658A
330
2
100
AcDbEntity
  8
HATCH
 62
     1
100
AcDbLine
 10
12.66766030941946
 20
17.32205010567545
 30
0.0
 11
12.75604865706778
 21
17.41043845332377
 31
0.0
1001
ACAD
1010
0.0
1020
0.0
1030
0.0
  0
LINE
  5
3658B
330
2
100
AcDbEntity
  8
HATCH
 62
     1
100
AcDbLine
 10
12.8444370047161
 20
17.49882680097209
 30
0.0
 11
12.93282535236441
 21
17.58721514862041
 31
0.0
1001
ACAD
1010
0.0
1020
0.0
1030
0.0
  0
LINE
  5
3658C
330
2
100
AcDbEntity
  8
HATCH
 62
     1
100
AcDbLine
 10
12.48029270557558
 20
16.60435241594167
 30
0.0
 11
12.49088361412282
 21
16.6149433244889
 31
0.0
1001
ACAD
1010
0.0
1020
0.0
1030
0.0
  0
LINE
  5
3658D
330
2
100
AcDbEntity
  8
HATCH
 62
     1
100
AcDbLine
 10
12.57927196177113
 20
16.70333167213722
 30
0.0
 11
12.66766030941945
 21
16.79172001978554
 31
0.0
1001
ACAD
1010
0.0
1020
0.0
1030
0.0
  0
LINE
  5
3658E
330
2
100
AcDbEntity
  8
HATCH
 62
     1
100
AcDbLine
 10
12.75604865706777
 20
16.88010836743386
 30
0.0
 11
12.84443700471609
 21
16.96849671508218
 31
0.0
1001
ACAD
1010
0.0
1020
0.0
1030
0.0
  0
LINE
  5
3658F
330
2
100
AcDbEntity
  8
HATCH
 62
     1
100
AcDbLine
 10
12.93282535236441
 20
17.0568850627305
 30
0.0
 11
13.02121370001273
 21
17.14527341037882
 31
0.0
1001
ACAD
1010
0.0
1020
0.0
1030
0.0
  0
LINE
  5
36590
330
2
100
AcDbEntity
  8
HATCH
 62
     1
100
AcDbLine
 10
13.10960204766105
 20
17.23366175802714
 30
0.0
 11
13.19799039530937
 21
17.32205010567546
 31
0.0
1001
ACAD
1010
0.0
1020
0.0
1030
0.0
  0
LINE
  5
36591
330
2
100
AcDbEntity
  8
HATCH
 62
     1
100
AcDbLine
 10
13.28637874295769
 20
17.41043845332377
 30
0.0
 11
13.37476709060601
 21
17.4988268009721
 31
0.0
1001
ACAD
1010
0.0
1020
0.0
1030
0.0
  0
LINE
  5
36592
330
2
100
AcDbEntity
  8
HATCH
 62
     1
100
AcDbLine
 10
13.46315543825433
 20
17.58721514862041
 30
0.0
 11
13.54491582402141
 21
17.6689755343875
 31
0.0
1001
ACAD
1010
0.0
1020
0.0
1030
0.0
  0
LINE
  5
36593
330
2
100
AcDbEntity
  8
HATCH
 62
     1
100
AcDbLine
 10
12.66766030941946
 20
16.26138993389563
 30
0.0
 11
12.75604865706778
 21
16.34977828154395
 31
0.0
1001
ACAD
1010
0.0
1020
0.0
1030
0.0
  0
LINE
  5
36594
330
2
100
AcDbEntity
  8
HATCH
 62
     1
100
AcDbLine
 10
12.86910623872076
 20
16.46283586319694
 30
0.0
 11
12.93282535236441
 21
16.52655497684058
 31
0.0
1001
ACAD
1010
0.0
1020
0.0
1030
0.0
  0
LINE
  5
36595
330
2
100
AcDbEntity
  8
HATCH
 62
     1
100
AcDbLine
 10
13.02121370001273
 20
16.6149433244889
 30
0.0
 11
13.10960204766105
 21
16.70333167213722
 31
0.0
1001
ACAD
1010
0.0
1020
0.0
1030
0.0
  0
LINE
  5
36596
330
2
100
AcDbEntity
  8
HATCH
 62
     1
100
AcDbLine
 10
13.19799039530937
 20
16.79172001978554
 30
0.0
 11
13.28637874295769
 21
16.88010836743386
 31
0.0
1001
ACAD
1010
0.0
1020
0.0
1030
0.0
  0
LINE
  5
36597
330
2
100
AcDbEntity
  8
HATCH
 62
     1
100
AcDbLine
 10
13.37476709060601
 20
16.96849671508218
 30
0.0
 11
13.46315543825433
 21
17.0568850627305
 31
0.0
1001
ACAD
1010
0.0
1020
0.0
1030
0.0
  0
LINE
  5
36598
330
2
100
AcDbEntity
  8
HATCH
 62
     1
100
AcDbLine
 10
13.55154378590264
 20
17.14527341037882
 30
0.0
 11
13.63993213355096
 21
17.23366175802714
 31
0.0
1001
ACAD
1010
0.0
1020
0.0
1030
0.0
  0
LINE
  5
36599
330
2
100
AcDbEntity
  8
HATCH
 62
     1
100
AcDbLine
 10
13.72832048119928
 20
17.32205010567546
 30
0.0
 11
13.8167088288476
 21
17.41043845332377
 31
0.0
1001
ACAD
1010
0.0
1020
0.0
1030
0.0
  0
LINE
  5
3659A
330
2
100
AcDbEntity
  8
HATCH
 62
     1
100
AcDbLine
 10
13.90509717649592
 20
17.4988268009721
 30
0.0
 11
13.99348552414424
 21
17.58721514862041
 31
0.0
1001
ACAD
1010
0.0
1020
0.0
1030
0.0
  0
LINE
  5
3659B
330
2
100
AcDbEntity
  8
HATCH
 62
     1
100
AcDbLine
 10
13.10960204766105
 20
16.17300158624731
 30
0.0
 11
13.19799039530936
 21
16.26138993389563
 31
0.0
1001
ACAD
1010
0.0
1020
0.0
1030
0.0
  0
LINE
  5
3659C
330
2
100
AcDbEntity
  8
HATCH
 62
     1
100
AcDbLine
 10
13.28637874295768
 20
16.34977828154395
 30
0.0
 11
13.374767090606
 21
16.43816662919227
 31
0.0
1001
ACAD
1010
0.0
1020
0.0
1030
0.0
  0
LINE
  5
3659D
330
2
100
AcDbEntity
  8
HATCH
 62
     1
100
AcDbLine
 10
13.46315543825432
 20
16.52655497684059
 30
0.0
 11
13.55154378590264
 21
16.61494332448891
 31
0.0
1001
ACAD
1010
0.0
1020
0.0
1030
0.0
  0
LINE
  5
3659E
330
2
100
AcDbEntity
  8
HATCH
 62
     1
100
AcDbLine
 10
13.63993213355096
 20
16.70333167213723
 30
0.0
 11
13.72832048119928
 21
16.79172001978554
 31
0.0
1001
ACAD
1010
0.0
1020
0.0
1030
0.0
  0
LINE
  5
3659F
330
2
100
AcDbEntity
  8
HATCH
 62
     1
100
AcDbLine
 10
13.8167088288476
 20
16.88010836743386
 30
0.0
 11
13.90509717649592
 21
16.96849671508218
 31
0.0
1001
ACAD
1010
0.0
1020
0.0
1030
0.0
  0
LINE
  5
365A0
330
2
100
AcDbEntity
  8
HATCH
 62
     1
100
AcDbLine
 10
13.99348552414424
 20
17.0568850627305
 30
0.0
 11
14.08187387179256
 21
17.14527341037882
 31
0.0
1001
ACAD
1010
0.0
1020
0.0
1030
0.0
  0
LINE
  5
365A1
330
2
100
AcDbEntity
  8
HATCH
 62
     1
100
AcDbLine
 10
14.17026221944088
 20
17.23366175802714
 30
0.0
 11
14.25865056708919
 21
17.32205010567546
 31
0.0
1001
ACAD
1010
0.0
1020
0.0
1030
0.0
  0
LINE
  5
365A2
330
2
100
AcDbEntity
  8
HATCH
 62
     1
100
AcDbLine
 10
14.34703891473751
 20
17.41043845332377
 30
0.0
 11
14.43542726238583
 21
17.4988268009721
 31
0.0
1001
ACAD
1010
0.0
1020
0.0
1030
0.0
  0
LINE
  5
365A3
330
2
100
AcDbEntity
  8
HATCH
 62
     1
100
AcDbLine
 10
14.52381561003415
 20
17.58721514862042
 30
0.0
 11
14.6055759958014
 21
17.66897553438767
 31
0.0
1001
ACAD
1010
0.0
1020
0.0
1030
0.0
  0
LINE
  5
365A4
330
2
100
AcDbEntity
  8
HATCH
 62
     1
100
AcDbLine
 10
13.63590608169154
 20
16.16897553438789
 30
0.0
 11
13.63993213355096
 21
16.17300158624732
 31
0.0
1001
ACAD
1010
0.0
1020
0.0
1030
0.0
  0
LINE
  5
365A5
330
2
100
AcDbEntity
  8
HATCH
 62
     1
100
AcDbLine
 10
13.72832048119928
 20
16.26138993389563
 30
0.0
 11
13.8167088288476
 21
16.34977828154395
 31
0.0
1001
ACAD
1010
0.0
1020
0.0
1030
0.0
  0
LINE
  5
365A6
330
2
100
AcDbEntity
  8
HATCH
 62
     1
100
AcDbLine
 10
13.90509717649592
 20
16.43816662919227
 30
0.0
 11
13.99348552414424
 21
16.52655497684059
 31
0.0
1001
ACAD
1010
0.0
1020
0.0
1030
0.0
  0
LINE
  5
365A7
330
2
100
AcDbEntity
  8
HATCH
 62
     1
100
AcDbLine
 10
14.08187387179256
 20
16.61494332448891
 30
0.0
 11
14.17026221944088
 21
16.70333167213723
 31
0.0
1001
ACAD
1010
0.0
1020
0.0
1030
0.0
  0
LINE
  5
365A8
330
2
100
AcDbEntity
  8
HATCH
 62
     1
100
AcDbLine
 10
14.2586505670892
 20
16.79172001978555
 30
0.0
 11
14.34703891473751
 21
16.88010836743387
 31
0.0
1001
ACAD
1010
0.0
1020
0.0
1030
0.0
  0
LINE
  5
365A9
330
2
100
AcDbEntity
  8
HATCH
 62
     1
100
AcDbLine
 10
14.43542726238583
 20
16.96849671508219
 30
0.0
 11
14.52381561003415
 21
17.05688506273051
 31
0.0
1001
ACAD
1010
0.0
1020
0.0
1030
0.0
  0
LINE
  5
365AA
330
2
100
AcDbEntity
  8
HATCH
 62
     1
100
AcDbLine
 10
14.61220395768247
 20
17.14527341037882
 30
0.0
 11
14.70059230533079
 21
17.23366175802715
 31
0.0
1001
ACAD
1010
0.0
1020
0.0
1030
0.0
  0
LINE
  5
365AB
330
2
100
AcDbEntity
  8
HATCH
 62
     1
100
AcDbLine
 10
14.78898065297911
 20
17.32205010567546
 30
0.0
 11
14.87736900062743
 21
17.41043845332377
 31
0.0
1001
ACAD
1010
0.0
1020
0.0
1030
0.0
  0
LINE
  5
365AC
330
2
100
AcDbEntity
  8
HATCH
 62
     1
100
AcDbLine
 10
14.96575734827575
 20
17.4988268009721
 30
0.0
 11
15.05414569592407
 21
17.58721514862042
 31
0.0
1001
ACAD
1010
0.0
1020
0.0
1030
0.0
  0
LINE
  5
365AD
330
2
100
AcDbEntity
  8
HATCH
 62
     1
100
AcDbLine
 10
14.17026221944087
 20
16.17300158624731
 30
0.0
 11
14.25865056708919
 21
16.26138993389563
 31
0.0
1001
ACAD
1010
0.0
1020
0.0
1030
0.0
  0
LINE
  5
365AE
330
2
100
AcDbEntity
  8
HATCH
 62
     1
100
AcDbLine
 10
14.34703891473751
 20
16.34977828154395
 30
0.0
 11
14.43542726238583
 21
16.43816662919227
 31
0.0
1001
ACAD
1010
0.0
1020
0.0
1030
0.0
  0
LINE
  5
365AF
330
2
100
AcDbEntity
  8
HATCH
 62
     1
100
AcDbLine
 10
14.52381561003415
 20
16.52655497684059
 30
0.0
 11
14.61220395768246
 21
16.61494332448891
 31
0.0
1001
ACAD
1010
0.0
1020
0.0
1030
0.0
  0
LINE
  5
365B0
330
2
100
AcDbEntity
  8
HATCH
 62
     1
100
AcDbLine
 10
14.70059230533078
 20
16.70333167213723
 30
0.0
 11
14.7889806529791
 21
16.79172001978554
 31
0.0
1001
ACAD
1010
0.0
1020
0.0
1030
0.0
  0
LINE
  5
365B1
330
2
100
AcDbEntity
  8
HATCH
 62
     1
100
AcDbLine
 10
14.87736900062742
 20
16.88010836743386
 30
0.0
 11
14.96575734827574
 21
16.96849671508218
 31
0.0
1001
ACAD
1010
0.0
1020
0.0
1030
0.0
  0
LINE
  5
365B2
330
2
100
AcDbEntity
  8
HATCH
 62
     1
100
AcDbLine
 10
15.05414569592406
 20
17.0568850627305
 30
0.0
 11
15.14253404357238
 21
17.14527341037882
 31
0.0
1001
ACAD
1010
0.0
1020
0.0
1030
0.0
  0
LINE
  5
365B3
330
2
100
AcDbEntity
  8
HATCH
 62
     1
100
AcDbLine
 10
15.23092239122069
 20
17.23366175802714
 30
0.0
 11
15.31931073886902
 21
17.32205010567546
 31
0.0
1001
ACAD
1010
0.0
1020
0.0
1030
0.0
  0
LINE
  5
365B4
330
2
100
AcDbEntity
  8
HATCH
 62
     1
100
AcDbLine
 10
15.40769908651734
 20
17.41043845332377
 30
0.0
 11
15.49608743416565
 21
17.4988268009721
 31
0.0
1001
ACAD
1010
0.0
1020
0.0
1030
0.0
  0
LINE
  5
365B5
330
2
100
AcDbEntity
  8
HATCH
 62
     1
100
AcDbLine
 10
15.58447578181398
 20
17.58721514862042
 30
0.0
 11
15.66623616758139
 21
17.66897553438783
 31
0.0
1001
ACAD
1010
0.0
1020
0.0
1030
0.0
  0
LINE
  5
365B6
330
2
100
AcDbEntity
  8
HATCH
 62
     1
100
AcDbLine
 10
14.69656625347136
 20
16.16897553438789
 30
0.0
 11
14.70059230533078
 21
16.17300158624731
 31
0.0
1001
ACAD
1010
0.0
1020
0.0
1030
0.0
  0
LINE
  5
365B7
330
2
100
AcDbEntity
  8
HATCH
 62
     1
100
AcDbLine
 10
14.7889806529791
 20
16.26138993389563
 30
0.0
 11
14.87736900062742
 21
16.34977828154395
 31
0.0
1001
ACAD
1010
0.0
1020
0.0
1030
0.0
  0
LINE
  5
365B8
330
2
100
AcDbEntity
  8
HATCH
 62
     1
100
AcDbLine
 10
14.96575734827574
 20
16.43816662919227
 30
0.0
 11
15.05414569592406
 21
16.52655497684059
 31
0.0
1001
ACAD
1010
0.0
1020
0.0
1030
0.0
  0
LINE
  5
365B9
330
2
100
AcDbEntity
  8
HATCH
 62
     1
100
AcDbLine
 10
15.14253404357237
 20
16.61494332448891
 30
0.0
 11
15.23092239122069
 21
16.70333167213723
 31
0.0
1001
ACAD
1010
0.0
1020
0.0
1030
0.0
  0
LINE
  5
365BA
330
2
100
AcDbEntity
  8
HATCH
 62
     1
100
AcDbLine
 10
15.31931073886901
 20
16.79172001978554
 30
0.0
 11
15.40769908651733
 21
16.88010836743386
 31
0.0
1001
ACAD
1010
0.0
1020
0.0
1030
0.0
  0
LINE
  5
365BB
330
2
100
AcDbEntity
  8
HATCH
 62
     1
100
AcDbLine
 10
15.49608743416565
 20
16.96849671508218
 30
0.0
 11
15.58447578181397
 21
17.0568850627305
 31
0.0
1001
ACAD
1010
0.0
1020
0.0
1030
0.0
  0
LINE
  5
365BC
330
2
100
AcDbEntity
  8
HATCH
 62
     1
100
AcDbLine
 10
15.67286412946229
 20
17.14527341037882
 30
0.0
 11
15.76125247711061
 21
17.23366175802714
 31
0.0
1001
ACAD
1010
0.0
1020
0.0
1030
0.0
  0
LINE
  5
365BD
330
2
100
AcDbEntity
  8
HATCH
 62
     1
100
AcDbLine
 10
15.84964082475893
 20
17.32205010567546
 30
0.0
 11
15.93802917240725
 21
17.41043845332377
 31
0.0
1001
ACAD
1010
0.0
1020
0.0
1030
0.0
  0
LINE
  5
365BE
330
2
100
AcDbEntity
  8
HATCH
 62
     1
100
AcDbLine
 10
16.02641752005556
 20
17.4988268009721
 30
0.0
 11
16.11480586770388
 21
17.58721514862042
 31
0.0
1001
ACAD
1010
0.0
1020
0.0
1030
0.0
  0
LINE
  5
365BF
330
2
100
AcDbEntity
  8
HATCH
 62
     1
100
AcDbLine
 10
15.23092239122069
 20
16.17300158624732
 30
0.0
 11
15.31931073886901
 21
16.26138993389563
 31
0.0
1001
ACAD
1010
0.0
1020
0.0
1030
0.0
  0
LINE
  5
365C0
330
2
100
AcDbEntity
  8
HATCH
 62
     1
100
AcDbLine
 10
15.40769908651733
 20
16.34977828154395
 30
0.0
 11
15.49608743416565
 21
16.43816662919227
 31
0.0
1001
ACAD
1010
0.0
1020
0.0
1030
0.0
  0
LINE
  5
365C1
330
2
100
AcDbEntity
  8
HATCH
 62
     1
100
AcDbLine
 10
15.58447578181397
 20
16.52655497684059
 30
0.0
 11
15.67286412946229
 21
16.61494332448891
 31
0.0
1001
ACAD
1010
0.0
1020
0.0
1030
0.0
  0
LINE
  5
365C2
330
2
100
AcDbEntity
  8
HATCH
 62
     1
100
AcDbLine
 10
15.76125247711061
 20
16.70333167213723
 30
0.0
 11
15.84964082475893
 21
16.79172001978555
 31
0.0
1001
ACAD
1010
0.0
1020
0.0
1030
0.0
  0
LINE
  5
365C3
330
2
100
AcDbEntity
  8
HATCH
 62
     1
100
AcDbLine
 10
15.93802917240725
 20
16.88010836743387
 30
0.0
 11
16.02641752005556
 21
16.96849671508219
 31
0.0
1001
ACAD
1010
0.0
1020
0.0
1030
0.0
  0
LINE
  5
365C4
330
2
100
AcDbEntity
  8
HATCH
 62
     1
100
AcDbLine
 10
16.11480586770388
 20
17.05688506273051
 30
0.0
 11
16.2031942153522
 21
17.14527341037882
 31
0.0
1001
ACAD
1010
0.0
1020
0.0
1030
0.0
  0
LINE
  5
365C5
330
2
100
AcDbEntity
  8
HATCH
 62
     1
100
AcDbLine
 10
15.75722642525118
 20
16.16897553438789
 30
0.0
 11
15.7612524771106
 21
16.17300158624731
 31
0.0
1001
ACAD
1010
0.0
1020
0.0
1030
0.0
  0
LINE
  5
365C6
330
2
100
AcDbEntity
  8
HATCH
 62
     1
100
AcDbLine
 10
15.84964082475892
 20
16.26138993389563
 30
0.0
 11
15.93802917240724
 21
16.34977828154395
 31
0.0
1001
ACAD
1010
0.0
1020
0.0
1030
0.0
  0
LINE
  5
365C7
330
2
100
AcDbEntity
  8
HATCH
 62
     1
100
AcDbLine
 10
16.02641752005555
 20
16.43816662919227
 30
0.0
 11
16.11480586770387
 21
16.52655497684059
 31
0.0
1001
ACAD
1010
0.0
1020
0.0
1030
0.0
  0
LINE
  5
365C8
330
2
100
AcDbEntity
  8
HATCH
 62
     1
100
AcDbLine
 10
16.20319421535219
 20
16.61494332448891
 30
0.0
 11
16.29158256300051
 21
16.70333167213723
 31
0.0
1001
ACAD
1010
0.0
1020
0.0
1030
0.0
  0
LINE
  5
365C9
330
2
100
AcDbEntity
  8
HATCH
 62
     1
100
AcDbLine
 10
16.29158256300051
 20
16.17300158624731
 30
0.0
 11
16.36448058434706
 21
16.24589960759386
 31
0.0
1001
ACAD
1010
0.0
1020
0.0
1030
0.0
  0
LINE
  5
365CA
330
2
100
AcDbEntity
  8
HATCH
 62
     1
100
AcDbLine
 10
19.82711646893324
 20
17.58721514862041
 30
0.0
 11
19.90887685470073
 21
17.6689755343879
 31
0.0
1001
ACAD
1010
0.0
1020
0.0
1030
0.0
  0
LINE
  5
365CB
330
2
100
AcDbEntity
  8
HATCH
 62
     1
100
AcDbLine
 10
19.56195142598829
 20
16.79172001978554
 30
0.0
 11
19.65033977363661
 21
16.88010836743386
 31
0.0
1001
ACAD
1010
0.0
1020
0.0
1030
0.0
  0
LINE
  5
365CC
330
2
100
AcDbEntity
  8
HATCH
 62
     1
100
AcDbLine
 10
19.73872812128493
 20
16.96849671508218
 30
0.0
 11
19.82711646893325
 21
17.0568850627305
 31
0.0
1001
ACAD
1010
0.0
1020
0.0
1030
0.0
  0
LINE
  5
365CD
330
2
100
AcDbEntity
  8
HATCH
 62
     1
100
AcDbLine
 10
19.91550481658157
 20
17.14527341037882
 30
0.0
 11
20.00389316422989
 21
17.23366175802714
 31
0.0
1001
ACAD
1010
0.0
1020
0.0
1030
0.0
  0
LINE
  5
365CE
330
2
100
AcDbEntity
  8
HATCH
 62
     1
100
AcDbLine
 10
20.09228151187821
 20
17.32205010567546
 30
0.0
 11
20.18066985952653
 21
17.41043845332377
 31
0.0
1001
ACAD
1010
0.0
1020
0.0
1030
0.0
  0
LINE
  5
365CF
330
2
100
AcDbEntity
  8
HATCH
 62
     1
100
AcDbLine
 10
20.26905820717485
 20
17.4988268009721
 30
0.0
 11
20.35744655482317
 21
17.58721514862041
 31
0.0
1001
ACAD
1010
0.0
1020
0.0
1030
0.0
  0
LINE
  5
365D0
330
2
100
AcDbEntity
  8
HATCH
 62
     1
100
AcDbLine
 10
19.54265816673918
 20
16.24209667464651
 30
0.0
 11
19.56195142598829
 21
16.26138993389563
 31
0.0
1001
ACAD
1010
0.0
1020
0.0
1030
0.0
  0
LINE
  5
365D1
330
2
100
AcDbEntity
  8
HATCH
 62
     1
100
AcDbLine
 10
19.65033977363661
 20
16.34977828154395
 30
0.0
 11
19.73872812128493
 21
16.43816662919227
 31
0.0
1001
ACAD
1010
0.0
1020
0.0
1030
0.0
  0
LINE
  5
365D2
330
2
100
AcDbEntity
  8
HATCH
 62
     1
100
AcDbLine
 10
19.82711646893325
 20
16.52655497684059
 30
0.0
 11
19.91550481658157
 21
16.61494332448891
 31
0.0
1001
ACAD
1010
0.0
1020
0.0
1030
0.0
  0
LINE
  5
365D3
330
2
100
AcDbEntity
  8
HATCH
 62
     1
100
AcDbLine
 10
20.00389316422989
 20
16.70333167213723
 30
0.0
 11
20.09228151187821
 21
16.79172001978554
 31
0.0
1001
ACAD
1010
0.0
1020
0.0
1030
0.0
  0
LINE
  5
365D4
330
2
100
AcDbEntity
  8
HATCH
 62
     1
100
AcDbLine
 10
20.18066985952653
 20
16.88010836743386
 30
0.0
 11
20.26905820717485
 21
16.96849671508218
 31
0.0
1001
ACAD
1010
0.0
1020
0.0
1030
0.0
  0
LINE
  5
365D5
330
2
100
AcDbEntity
  8
HATCH
 62
     1
100
AcDbLine
 10
20.35744655482317
 20
17.0568850627305
 30
0.0
 11
20.44583490247148
 21
17.14527341037882
 31
0.0
1001
ACAD
1010
0.0
1020
0.0
1030
0.0
  0
LINE
  5
365D6
330
2
100
AcDbEntity
  8
HATCH
 62
     1
100
AcDbLine
 10
20.53422325011981
 20
17.23366175802714
 30
0.0
 11
20.62261159776813
 21
17.32205010567546
 31
0.0
1001
ACAD
1010
0.0
1020
0.0
1030
0.0
  0
LINE
  5
365D7
330
2
100
AcDbEntity
  8
HATCH
 62
     1
100
AcDbLine
 10
20.71099994541644
 20
17.41043845332377
 30
0.0
 11
20.79938829306476
 21
17.4988268009721
 31
0.0
1001
ACAD
1010
0.0
1020
0.0
1030
0.0
  0
LINE
  5
365D8
330
2
100
AcDbEntity
  8
HATCH
 62
     1
100
AcDbLine
 10
20.88777664071308
 20
17.58721514862042
 30
0.0
 11
20.96953702648057
 21
17.66897553438791
 31
0.0
1001
ACAD
1010
0.0
1020
0.0
1030
0.0
  0
LINE
  5
365D9
330
2
100
AcDbEntity
  8
HATCH
 62
     1
100
AcDbLine
 10
19.99986711237047
 20
16.16897553438789
 30
0.0
 11
20.00389316422989
 21
16.17300158624731
 31
0.0
1001
ACAD
1010
0.0
1020
0.0
1030
0.0
  0
LINE
  5
365DA
330
2
100
AcDbEntity
  8
HATCH
 62
     1
100
AcDbLine
 10
20.09228151187821
 20
16.26138993389563
 30
0.0
 11
20.18066985952652
 21
16.34977828154395
 31
0.0
1001
ACAD
1010
0.0
1020
0.0
1030
0.0
  0
LINE
  5
365DB
330
2
100
AcDbEntity
  8
HATCH
 62
     1
100
AcDbLine
 10
20.26905820717484
 20
16.43816662919227
 30
0.0
 11
20.35744655482316
 21
16.52655497684059
 31
0.0
1001
ACAD
1010
0.0
1020
0.0
1030
0.0
  0
LINE
  5
365DC
330
2
100
AcDbEntity
  8
HATCH
 62
     1
100
AcDbLine
 10
20.44583490247148
 20
16.61494332448891
 30
0.0
 11
20.5342232501198
 21
16.70333167213723
 31
0.0
1001
ACAD
1010
0.0
1020
0.0
1030
0.0
  0
LINE
  5
365DD
330
2
100
AcDbEntity
  8
HATCH
 62
     1
100
AcDbLine
 10
20.62261159776812
 20
16.79172001978554
 30
0.0
 11
20.71099994541644
 21
16.88010836743386
 31
0.0
1001
ACAD
1010
0.0
1020
0.0
1030
0.0
  0
LINE
  5
365DE
330
2
100
AcDbEntity
  8
HATCH
 62
     1
100
AcDbLine
 10
20.79938829306476
 20
16.96849671508218
 30
0.0
 11
20.88777664071308
 21
17.0568850627305
 31
0.0
1001
ACAD
1010
0.0
1020
0.0
1030
0.0
  0
LINE
  5
365DF
330
2
100
AcDbEntity
  8
HATCH
 62
     1
100
AcDbLine
 10
20.9761649883614
 20
17.14527341037882
 30
0.0
 11
21.06455333600972
 21
17.23366175802714
 31
0.0
1001
ACAD
1010
0.0
1020
0.0
1030
0.0
  0
LINE
  5
365E0
330
2
100
AcDbEntity
  8
HATCH
 62
     1
100
AcDbLine
 10
21.15294168365803
 20
17.32205010567546
 30
0.0
 11
21.24133003130635
 21
17.41043845332377
 31
0.0
1001
ACAD
1010
0.0
1020
0.0
1030
0.0
  0
LINE
  5
365E1
330
2
100
AcDbEntity
  8
HATCH
 62
     1
100
AcDbLine
 10
21.32971837895468
 20
17.4988268009721
 30
0.0
 11
21.41810672660299
 21
17.58721514862042
 31
0.0
1001
ACAD
1010
0.0
1020
0.0
1030
0.0
  0
LINE
  5
365E2
330
2
100
AcDbEntity
  8
HATCH
 62
     1
100
AcDbLine
 10
20.5342232501198
 20
16.17300158624732
 30
0.0
 11
20.62261159776812
 21
16.26138993389563
 31
0.0
1001
ACAD
1010
0.0
1020
0.0
1030
0.0
  0
LINE
  5
365E3
330
2
100
AcDbEntity
  8
HATCH
 62
     1
100
AcDbLine
 10
20.71099994541644
 20
16.34977828154395
 30
0.0
 11
20.79938829306476
 21
16.43816662919227
 31
0.0
1001
ACAD
1010
0.0
1020
0.0
1030
0.0
  0
LINE
  5
365E4
330
2
100
AcDbEntity
  8
HATCH
 62
     1
100
AcDbLine
 10
20.88777664071308
 20
16.52655497684059
 30
0.0
 11
20.9761649883614
 21
16.61494332448891
 31
0.0
1001
ACAD
1010
0.0
1020
0.0
1030
0.0
  0
LINE
  5
365E5
330
2
100
AcDbEntity
  8
HATCH
 62
     1
100
AcDbLine
 10
21.06455333600972
 20
16.70333167213723
 30
0.0
 11
21.15294168365803
 21
16.79172001978555
 31
0.0
1001
ACAD
1010
0.0
1020
0.0
1030
0.0
  0
LINE
  5
365E6
330
2
100
AcDbEntity
  8
HATCH
 62
     1
100
AcDbLine
 10
21.24133003130635
 20
16.88010836743387
 30
0.0
 11
21.32971837895468
 21
16.96849671508219
 31
0.0
1001
ACAD
1010
0.0
1020
0.0
1030
0.0
  0
LINE
  5
365E7
330
2
100
AcDbEntity
  8
HATCH
 62
     1
100
AcDbLine
 10
21.41810672660299
 20
17.05688506273051
 30
0.0
 11
21.50649507425131
 21
17.14527341037882
 31
0.0
1001
ACAD
1010
0.0
1020
0.0
1030
0.0
  0
LINE
  5
365E8
330
2
100
AcDbEntity
  8
HATCH
 62
     1
100
AcDbLine
 10
21.59488342189963
 20
17.23366175802715
 30
0.0
 11
21.68327176954795
 21
17.32205010567546
 31
0.0
1001
ACAD
1010
0.0
1020
0.0
1030
0.0
  0
LINE
  5
365E9
330
2
100
AcDbEntity
  8
HATCH
 62
     1
100
AcDbLine
 10
21.77166011719627
 20
17.41043845332377
 30
0.0
 11
21.86004846484459
 21
17.4988268009721
 31
0.0
1001
ACAD
1010
0.0
1020
0.0
1030
0.0
  0
LINE
  5
365EA
330
2
100
AcDbEntity
  8
HATCH
 62
     1
100
AcDbLine
 10
21.94843681249291
 20
17.58721514862042
 30
0.0
 11
22.0301971982604
 21
17.66897553438792
 31
0.0
1001
ACAD
1010
0.0
1020
0.0
1030
0.0
  0
LINE
  5
365EB
330
2
100
AcDbEntity
  8
HATCH
 62
     1
100
AcDbLine
 10
21.06052728415029
 20
16.16897553438789
 30
0.0
 11
21.06455333600971
 21
16.17300158624732
 31
0.0
1001
ACAD
1010
0.0
1020
0.0
1030
0.0
  0
LINE
  5
365EC
330
2
100
AcDbEntity
  8
HATCH
 62
     1
100
AcDbLine
 10
21.15294168365803
 20
16.26138993389563
 30
0.0
 11
21.24133003130635
 21
16.34977828154395
 31
0.0
1001
ACAD
1010
0.0
1020
0.0
1030
0.0
  0
LINE
  5
365ED
330
2
100
AcDbEntity
  8
HATCH
 62
     1
100
AcDbLine
 10
21.32971837895468
 20
16.43816662919227
 30
0.0
 11
21.41810672660299
 21
16.52655497684059
 31
0.0
1001
ACAD
1010
0.0
1020
0.0
1030
0.0
  0
LINE
  5
365EE
330
2
100
AcDbEntity
  8
HATCH
 62
     1
100
AcDbLine
 10
21.5064950742513
 20
16.61494332448891
 30
0.0
 11
21.59488342189963
 21
16.70333167213723
 31
0.0
1001
ACAD
1010
0.0
1020
0.0
1030
0.0
  0
LINE
  5
365EF
330
2
100
AcDbEntity
  8
HATCH
 62
     1
100
AcDbLine
 10
21.68327176954794
 20
16.79172001978555
 30
0.0
 11
21.77166011719626
 21
16.88010836743387
 31
0.0
1001
ACAD
1010
0.0
1020
0.0
1030
0.0
  0
LINE
  5
365F0
330
2
100
AcDbEntity
  8
HATCH
 62
     1
100
AcDbLine
 10
21.86004846484458
 20
16.96849671508219
 30
0.0
 11
21.9484368124929
 21
17.05688506273051
 31
0.0
1001
ACAD
1010
0.0
1020
0.0
1030
0.0
  0
LINE
  5
365F1
330
2
100
AcDbEntity
  8
HATCH
 62
     1
100
AcDbLine
 10
22.03682516014122
 20
17.14527341037882
 30
0.0
 11
22.12521350778954
 21
17.23366175802715
 31
0.0
1001
ACAD
1010
0.0
1020
0.0
1030
0.0
  0
LINE
  5
365F2
330
2
100
AcDbEntity
  8
HATCH
 62
     1
100
AcDbLine
 10
22.21360185543786
 20
17.32205010567546
 30
0.0
 11
22.30199020308618
 21
17.41043845332377
 31
0.0
1001
ACAD
1010
0.0
1020
0.0
1030
0.0
  0
LINE
  5
365F3
330
2
100
AcDbEntity
  8
HATCH
 62
     1
100
AcDbLine
 10
22.39037855073449
 20
17.4988268009721
 30
0.0
 11
22.47876689838282
 21
17.58721514862042
 31
0.0
1001
ACAD
1010
0.0
1020
0.0
1030
0.0
  0
LINE
  5
365F4
330
2
100
AcDbEntity
  8
HATCH
 62
     1
100
AcDbLine
 10
21.59488342189962
 20
16.17300158624731
 30
0.0
 11
21.68327176954794
 21
16.26138993389563
 31
0.0
1001
ACAD
1010
0.0
1020
0.0
1030
0.0
  0
LINE
  5
365F5
330
2
100
AcDbEntity
  8
HATCH
 62
     1
100
AcDbLine
 10
21.77166011719626
 20
16.34977828154395
 30
0.0
 11
21.86004846484458
 21
16.43816662919227
 31
0.0
1001
ACAD
1010
0.0
1020
0.0
1030
0.0
  0
LINE
  5
365F6
330
2
100
AcDbEntity
  8
HATCH
 62
     1
100
AcDbLine
 10
21.9484368124929
 20
16.52655497684059
 30
0.0
 11
22.03682516014122
 21
16.61494332448891
 31
0.0
1001
ACAD
1010
0.0
1020
0.0
1030
0.0
  0
LINE
  5
365F7
330
2
100
AcDbEntity
  8
HATCH
 62
     1
100
AcDbLine
 10
22.12521350778954
 20
16.70333167213723
 30
0.0
 11
22.21360185543785
 21
16.79172001978554
 31
0.0
1001
ACAD
1010
0.0
1020
0.0
1030
0.0
  0
LINE
  5
365F8
330
2
100
AcDbEntity
  8
HATCH
 62
     1
100
AcDbLine
 10
22.30199020308617
 20
16.88010836743386
 30
0.0
 11
22.39037855073449
 21
16.96849671508218
 31
0.0
1001
ACAD
1010
0.0
1020
0.0
1030
0.0
  0
LINE
  5
365F9
330
2
100
AcDbEntity
  8
HATCH
 62
     1
100
AcDbLine
 10
22.47876689838281
 20
17.0568850627305
 30
0.0
 11
22.56715524603113
 21
17.14527341037882
 31
0.0
1001
ACAD
1010
0.0
1020
0.0
1030
0.0
  0
LINE
  5
365FA
330
2
100
AcDbEntity
  8
HATCH
 62
     1
100
AcDbLine
 10
22.65554359367945
 20
17.23366175802714
 30
0.0
 11
22.74393194132777
 21
17.32205010567546
 31
0.0
1001
ACAD
1010
0.0
1020
0.0
1030
0.0
  0
LINE
  5
365FB
330
2
100
AcDbEntity
  8
HATCH
 62
     1
100
AcDbLine
 10
22.83232028897609
 20
17.41043845332377
 30
0.0
 11
22.92070863662441
 21
17.4988268009721
 31
0.0
1001
ACAD
1010
0.0
1020
0.0
1030
0.0
  0
LINE
  5
365FC
330
2
100
AcDbEntity
  8
HATCH
 62
     1
100
AcDbLine
 10
23.00909698427274
 20
17.58721514862042
 30
0.0
 11
23.09085737004021
 21
17.66897553438791
 31
0.0
1001
ACAD
1010
0.0
1020
0.0
1030
0.0
  0
LINE
  5
365FD
330
2
100
AcDbEntity
  8
HATCH
 62
     1
100
AcDbLine
 10
22.12118745593011
 20
16.16897553438789
 30
0.0
 11
22.12521350778953
 21
16.17300158624731
 31
0.0
1001
ACAD
1010
0.0
1020
0.0
1030
0.0
  0
LINE
  5
365FE
330
2
100
AcDbEntity
  8
HATCH
 62
     1
100
AcDbLine
 10
22.21360185543785
 20
16.26138993389563
 30
0.0
 11
22.30199020308617
 21
16.34977828154395
 31
0.0
1001
ACAD
1010
0.0
1020
0.0
1030
0.0
  0
LINE
  5
365FF
330
2
100
AcDbEntity
  8
HATCH
 62
     1
100
AcDbLine
 10
22.39037855073449
 20
16.43816662919227
 30
0.0
 11
22.4787668983828
 21
16.52655497684059
 31
0.0
1001
ACAD
1010
0.0
1020
0.0
1030
0.0
  0
LINE
  5
36600
330
2
100
AcDbEntity
  8
HATCH
 62
     1
100
AcDbLine
 10
22.56715524603112
 20
16.61494332448891
 30
0.0
 11
22.65554359367945
 21
16.70333167213723
 31
0.0
1001
ACAD
1010
0.0
1020
0.0
1030
0.0
  0
LINE
  5
36601
330
2
100
AcDbEntity
  8
HATCH
 62
     1
100
AcDbLine
 10
22.74393194132776
 20
16.79172001978554
 30
0.0
 11
22.83232028897608
 21
16.88010836743386
 31
0.0
1001
ACAD
1010
0.0
1020
0.0
1030
0.0
  0
LINE
  5
36602
330
2
100
AcDbEntity
  8
HATCH
 62
     1
100
AcDbLine
 10
22.9207086366244
 20
16.96849671508218
 30
0.0
 11
23.00909698427272
 21
17.0568850627305
 31
0.0
1001
ACAD
1010
0.0
1020
0.0
1030
0.0
  0
LINE
  5
36603
330
2
100
AcDbEntity
  8
HATCH
 62
     1
100
AcDbLine
 10
23.09748533192104
 20
17.14527341037882
 30
0.0
 11
23.18587367956936
 21
17.23366175802714
 31
0.0
1001
ACAD
1010
0.0
1020
0.0
1030
0.0
  0
LINE
  5
36604
330
2
100
AcDbEntity
  8
HATCH
 62
     1
100
AcDbLine
 10
23.27426202721768
 20
17.32205010567546
 30
0.0
 11
23.27967796094485
 21
17.32746603940263
 31
0.0
1001
ACAD
1010
0.0
1020
0.0
1030
0.0
  0
LINE
  5
36605
330
2
100
AcDbEntity
  8
HATCH
 62
     1
100
AcDbLine
 10
22.65554359367945
 20
16.17300158624732
 30
0.0
 11
22.74393194132776
 21
16.26138993389563
 31
0.0
1001
ACAD
1010
0.0
1020
0.0
1030
0.0
  0
LINE
  5
36606
330
2
100
AcDbEntity
  8
HATCH
 62
     1
100
AcDbLine
 10
22.83232028897608
 20
16.34977828154395
 30
0.0
 11
22.9207086366244
 21
16.43816662919227
 31
0.0
1001
ACAD
1010
0.0
1020
0.0
1030
0.0
  0
LINE
  5
36607
330
2
100
AcDbEntity
  8
HATCH
 62
     1
100
AcDbLine
 10
23.00909698427272
 20
16.52655497684059
 30
0.0
 11
23.09748533192104
 21
16.61494332448891
 31
0.0
1001
ACAD
1010
0.0
1020
0.0
1030
0.0
  0
LINE
  5
36608
330
2
100
AcDbEntity
  8
HATCH
 62
     1
100
AcDbLine
 10
23.18587367956936
 20
16.70333167213723
 30
0.0
 11
23.27426202721768
 21
16.79172001978555
 31
0.0
1001
ACAD
1010
0.0
1020
0.0
1030
0.0
  0
LINE
  5
36609
330
2
100
AcDbEntity
  8
HATCH
 62
     1
100
AcDbLine
 10
23.362650374866
 20
16.88010836743387
 30
0.0
 11
23.45103872251431
 21
16.96849671508219
 31
0.0
1001
ACAD
1010
0.0
1020
0.0
1030
0.0
  0
LINE
  5
3660A
330
2
100
AcDbEntity
  8
HATCH
 62
     1
100
AcDbLine
 10
23.18184762770993
 20
16.16897553438789
 30
0.0
 11
23.18587367956935
 21
16.17300158624731
 31
0.0
1001
ACAD
1010
0.0
1020
0.0
1030
0.0
  0
LINE
  5
3660B
330
2
100
AcDbEntity
  8
HATCH
 62
     1
100
AcDbLine
 10
23.27426202721767
 20
16.26138993389563
 30
0.0
 11
23.36265037486599
 21
16.34977828154395
 31
0.0
1001
ACAD
1010
0.0
1020
0.0
1030
0.0
  0
LINE
  5
3660C
330
2
100
AcDbEntity
  8
HATCH
 62
     1
100
AcDbLine
 10
23.45103872251431
 20
16.43816662919227
 30
0.0
 11
23.49205776049993
 21
16.47918566717789
 31
0.0
1001
ACAD
1010
0.0
1020
0.0
1030
0.0
  0
LINE
  5
3660D
330
2
100
AcDbEntity
  8
HATCH
 62
     1
100
AcDbLine
 10
12.64268029431057
 20
17.4738467858632
 30
0.0
 11
12.66766030941946
 21
17.49882680097209
 31
0.0
1001
ACAD
1010
0.0
1020
0.0
1030
0.0
  0
LINE
  5
3660E
330
2
100
AcDbEntity
  8
HATCH
 62
     1
100
AcDbLine
 10
12.75604865706778
 20
17.58721514862041
 30
0.0
 11
12.83780904283475
 21
17.66897553438739
 31
0.0
1001
ACAD
1010
0.0
1020
0.0
1030
0.0
  0
LINE
  5
3660F
330
2
100
AcDbEntity
  8
HATCH
 62
     1
100
AcDbLine
 10
12.39867731188068
 20
16.69951371754341
 30
0.0
 11
12.4024952664745
 21
16.70333167213723
 31
0.0
1001
ACAD
1010
0.0
1020
0.0
1030
0.0
  0
LINE
  5
36610
330
2
100
AcDbEntity
  8
HATCH
 62
     1
100
AcDbLine
 10
12.66766030941945
 20
16.96849671508218
 30
0.0
 11
12.75604865706778
 21
17.0568850627305
 31
0.0
1001
ACAD
1010
0.0
1020
0.0
1030
0.0
  0
LINE
  5
36611
330
2
100
AcDbEntity
  8
HATCH
 62
     1
100
AcDbLine
 10
12.84443700471609
 20
17.14527341037882
 30
0.0
 11
12.93282535236441
 21
17.23366175802713
 31
0.0
1001
ACAD
1010
0.0
1020
0.0
1030
0.0
  0
LINE
  5
36612
330
2
100
AcDbEntity
  8
HATCH
 62
     1
100
AcDbLine
 10
13.02121370001273
 20
17.32205010567545
 30
0.0
 11
13.10960204766105
 21
17.41043845332377
 31
0.0
1001
ACAD
1010
0.0
1020
0.0
1030
0.0
  0
LINE
  5
36613
330
2
100
AcDbEntity
  8
HATCH
 62
     1
100
AcDbLine
 10
13.19799039530937
 20
17.49882680097209
 30
0.0
 11
13.28637874295769
 21
17.58721514862041
 31
0.0
1001
ACAD
1010
0.0
1020
0.0
1030
0.0
  0
LINE
  5
36614
330
2
100
AcDbEntity
  8
HATCH
 62
     1
100
AcDbLine
 10
12.75604865706777
 20
16.52655497684058
 30
0.0
 11
12.84443700471609
 21
16.6149433244889
 31
0.0
1001
ACAD
1010
0.0
1020
0.0
1030
0.0
  0
LINE
  5
36615
330
2
100
AcDbEntity
  8
HATCH
 62
     1
100
AcDbLine
 10
12.93282535236441
 20
16.70333167213722
 30
0.0
 11
13.02121370001273
 21
16.79172001978554
 31
0.0
1001
ACAD
1010
0.0
1020
0.0
1030
0.0
  0
LINE
  5
36616
330
2
100
AcDbEntity
  8
HATCH
 62
     1
100
AcDbLine
 10
13.10960204766105
 20
16.88010836743386
 30
0.0
 11
13.19799039530937
 21
16.96849671508218
 31
0.0
1001
ACAD
1010
0.0
1020
0.0
1030
0.0
  0
LINE
  5
36617
330
2
100
AcDbEntity
  8
HATCH
 62
     1
100
AcDbLine
 10
13.28637874295768
 20
17.0568850627305
 30
0.0
 11
13.37476709060601
 21
17.14527341037882
 31
0.0
1001
ACAD
1010
0.0
1020
0.0
1030
0.0
  0
LINE
  5
36618
330
2
100
AcDbEntity
  8
HATCH
 62
     1
100
AcDbLine
 10
13.46315543825432
 20
17.23366175802714
 30
0.0
 11
13.55154378590264
 21
17.32205010567546
 31
0.0
1001
ACAD
1010
0.0
1020
0.0
1030
0.0
  0
LINE
  5
36619
330
2
100
AcDbEntity
  8
HATCH
 62
     1
100
AcDbLine
 10
13.63993213355096
 20
17.41043845332377
 30
0.0
 11
13.72832048119928
 21
17.4988268009721
 31
0.0
1001
ACAD
1010
0.0
1020
0.0
1030
0.0
  0
LINE
  5
3661A
330
2
100
AcDbEntity
  8
HATCH
 62
     1
100
AcDbLine
 10
13.8167088288476
 20
17.58721514862041
 30
0.0
 11
13.89846921461474
 21
17.66897553438755
 31
0.0
1001
ACAD
1010
0.0
1020
0.0
1030
0.0
  0
LINE
  5
3661B
330
2
100
AcDbEntity
  8
HATCH
 62
     1
100
AcDbLine
 10
12.928799300505
 20
16.16897553438789
 30
0.0
 11
12.93282535236441
 21
16.17300158624731
 31
0.0
1001
ACAD
1010
0.0
1020
0.0
1030
0.0
  0
LINE
  5
3661C
330
2
100
AcDbEntity
  8
HATCH
 62
     1
100
AcDbLine
 10
13.02121370001273
 20
16.26138993389563
 30
0.0
 11
13.10960204766105
 21
16.34977828154395
 31
0.0
1001
ACAD
1010
0.0
1020
0.0
1030
0.0
  0
LINE
  5
3661D
330
2
100
AcDbEntity
  8
HATCH
 62
     1
100
AcDbLine
 10
13.19799039530937
 20
16.43816662919227
 30
0.0
 11
13.28637874295769
 21
16.52655497684059
 31
0.0
1001
ACAD
1010
0.0
1020
0.0
1030
0.0
  0
LINE
  5
3661E
330
2
100
AcDbEntity
  8
HATCH
 62
     1
100
AcDbLine
 10
13.37476709060601
 20
16.61494332448891
 30
0.0
 11
13.46315543825433
 21
16.70333167213723
 31
0.0
1001
ACAD
1010
0.0
1020
0.0
1030
0.0
  0
LINE
  5
3661F
330
2
100
AcDbEntity
  8
HATCH
 62
     1
100
AcDbLine
 10
13.55154378590265
 20
16.79172001978554
 30
0.0
 11
13.63993213355097
 21
16.88010836743386
 31
0.0
1001
ACAD
1010
0.0
1020
0.0
1030
0.0
  0
LINE
  5
36620
330
2
100
AcDbEntity
  8
HATCH
 62
     1
100
AcDbLine
 10
13.72832048119928
 20
16.96849671508218
 30
0.0
 11
13.8167088288476
 21
17.0568850627305
 31
0.0
1001
ACAD
1010
0.0
1020
0.0
1030
0.0
  0
LINE
  5
36621
330
2
100
AcDbEntity
  8
HATCH
 62
     1
100
AcDbLine
 10
13.90509717649592
 20
17.14527341037882
 30
0.0
 11
13.99348552414424
 21
17.23366175802714
 31
0.0
1001
ACAD
1010
0.0
1020
0.0
1030
0.0
  0
LINE
  5
36622
330
2
100
AcDbEntity
  8
HATCH
 62
     1
100
AcDbLine
 10
14.08187387179256
 20
17.32205010567546
 30
0.0
 11
14.17026221944088
 21
17.41043845332377
 31
0.0
1001
ACAD
1010
0.0
1020
0.0
1030
0.0
  0
LINE
  5
36623
330
2
100
AcDbEntity
  8
HATCH
 62
     1
100
AcDbLine
 10
14.2586505670892
 20
17.4988268009721
 30
0.0
 11
14.34703891473752
 21
17.58721514862042
 31
0.0
1001
ACAD
1010
0.0
1020
0.0
1030
0.0
  0
LINE
  5
36624
330
2
100
AcDbEntity
  8
HATCH
 62
     1
100
AcDbLine
 10
13.46315543825432
 20
16.17300158624731
 30
0.0
 11
13.55154378590264
 21
16.26138993389563
 31
0.0
1001
ACAD
1010
0.0
1020
0.0
1030
0.0
  0
LINE
  5
36625
330
2
100
AcDbEntity
  8
HATCH
 62
     1
100
AcDbLine
 10
13.63993213355096
 20
16.34977828154395
 30
0.0
 11
13.72832048119928
 21
16.43816662919227
 31
0.0
1001
ACAD
1010
0.0
1020
0.0
1030
0.0
  0
LINE
  5
36626
330
2
100
AcDbEntity
  8
HATCH
 62
     1
100
AcDbLine
 10
13.8167088288476
 20
16.52655497684059
 30
0.0
 11
13.90509717649592
 21
16.61494332448891
 31
0.0
1001
ACAD
1010
0.0
1020
0.0
1030
0.0
  0
LINE
  5
36627
330
2
100
AcDbEntity
  8
HATCH
 62
     1
100
AcDbLine
 10
13.99348552414424
 20
16.70333167213723
 30
0.0
 11
14.08187387179256
 21
16.79172001978554
 31
0.0
1001
ACAD
1010
0.0
1020
0.0
1030
0.0
  0
LINE
  5
36628
330
2
100
AcDbEntity
  8
HATCH
 62
     1
100
AcDbLine
 10
14.17026221944088
 20
16.88010836743386
 30
0.0
 11
14.25865056708919
 21
16.96849671508218
 31
0.0
1001
ACAD
1010
0.0
1020
0.0
1030
0.0
  0
LINE
  5
36629
330
2
100
AcDbEntity
  8
HATCH
 62
     1
100
AcDbLine
 10
14.34703891473751
 20
17.0568850627305
 30
0.0
 11
14.43542726238583
 21
17.14527341037882
 31
0.0
1001
ACAD
1010
0.0
1020
0.0
1030
0.0
  0
LINE
  5
3662A
330
2
100
AcDbEntity
  8
HATCH
 62
     1
100
AcDbLine
 10
14.52381561003415
 20
17.23366175802714
 30
0.0
 11
14.61220395768247
 21
17.32205010567546
 31
0.0
1001
ACAD
1010
0.0
1020
0.0
1030
0.0
  0
LINE
  5
3662B
330
2
100
AcDbEntity
  8
HATCH
 62
     1
100
AcDbLine
 10
14.70059230533079
 20
17.41043845332377
 30
0.0
 11
14.78898065297911
 21
17.4988268009721
 31
0.0
1001
ACAD
1010
0.0
1020
0.0
1030
0.0
  0
LINE
  5
3662C
330
2
100
AcDbEntity
  8
HATCH
 62
     1
100
AcDbLine
 10
14.87736900062743
 20
17.58721514862042
 30
0.0
 11
14.95912938639473
 21
17.66897553438772
 31
0.0
1001
ACAD
1010
0.0
1020
0.0
1030
0.0
  0
LINE
  5
3662D
330
2
100
AcDbEntity
  8
HATCH
 62
     1
100
AcDbLine
 10
13.98945947228481
 20
16.16897553438789
 30
0.0
 11
13.99348552414423
 21
16.17300158624731
 31
0.0
1001
ACAD
1010
0.0
1020
0.0
1030
0.0
  0
LINE
  5
3662E
330
2
100
AcDbEntity
  8
HATCH
 62
     1
100
AcDbLine
 10
14.08187387179255
 20
16.26138993389563
 30
0.0
 11
14.17026221944087
 21
16.34977828154395
 31
0.0
1001
ACAD
1010
0.0
1020
0.0
1030
0.0
  0
LINE
  5
3662F
330
2
100
AcDbEntity
  8
HATCH
 62
     1
100
AcDbLine
 10
14.25865056708919
 20
16.43816662919227
 30
0.0
 11
14.34703891473751
 21
16.52655497684059
 31
0.0
1001
ACAD
1010
0.0
1020
0.0
1030
0.0
  0
LINE
  5
36630
330
2
100
AcDbEntity
  8
HATCH
 62
     1
100
AcDbLine
 10
14.43542726238583
 20
16.61494332448891
 30
0.0
 11
14.52381561003415
 21
16.70333167213723
 31
0.0
1001
ACAD
1010
0.0
1020
0.0
1030
0.0
  0
LINE
  5
36631
330
2
100
AcDbEntity
  8
HATCH
 62
     1
100
AcDbLine
 10
14.61220395768246
 20
16.79172001978554
 30
0.0
 11
14.70059230533078
 21
16.88010836743386
 31
0.0
1001
ACAD
1010
0.0
1020
0.0
1030
0.0
  0
LINE
  5
36632
330
2
100
AcDbEntity
  8
HATCH
 62
     1
100
AcDbLine
 10
14.7889806529791
 20
16.96849671508218
 30
0.0
 11
14.87736900062742
 21
17.0568850627305
 31
0.0
1001
ACAD
1010
0.0
1020
0.0
1030
0.0
  0
LINE
  5
36633
330
2
100
AcDbEntity
  8
HATCH
 62
     1
100
AcDbLine
 10
14.96575734827574
 20
17.14527341037882
 30
0.0
 11
15.05414569592406
 21
17.23366175802714
 31
0.0
1001
ACAD
1010
0.0
1020
0.0
1030
0.0
  0
LINE
  5
36634
330
2
100
AcDbEntity
  8
HATCH
 62
     1
100
AcDbLine
 10
15.14253404357238
 20
17.32205010567546
 30
0.0
 11
15.23092239122069
 21
17.41043845332377
 31
0.0
1001
ACAD
1010
0.0
1020
0.0
1030
0.0
  0
LINE
  5
36635
330
2
100
AcDbEntity
  8
HATCH
 62
     1
100
AcDbLine
 10
15.31931073886902
 20
17.4988268009721
 30
0.0
 11
15.40769908651734
 21
17.58721514862042
 31
0.0
1001
ACAD
1010
0.0
1020
0.0
1030
0.0
  0
LINE
  5
36636
330
2
100
AcDbEntity
  8
HATCH
 62
     1
100
AcDbLine
 10
14.52381561003414
 20
16.17300158624731
 30
0.0
 11
14.61220395768246
 21
16.26138993389563
 31
0.0
1001
ACAD
1010
0.0
1020
0.0
1030
0.0
  0
LINE
  5
36637
330
2
100
AcDbEntity
  8
HATCH
 62
     1
100
AcDbLine
 10
14.70059230533078
 20
16.34977828154395
 30
0.0
 11
14.7889806529791
 21
16.43816662919227
 31
0.0
1001
ACAD
1010
0.0
1020
0.0
1030
0.0
  0
LINE
  5
36638
330
2
100
AcDbEntity
  8
HATCH
 62
     1
100
AcDbLine
 10
14.87736900062742
 20
16.52655497684059
 30
0.0
 11
14.96575734827574
 21
16.61494332448891
 31
0.0
1001
ACAD
1010
0.0
1020
0.0
1030
0.0
  0
LINE
  5
36639
330
2
100
AcDbEntity
  8
HATCH
 62
     1
100
AcDbLine
 10
15.05414569592406
 20
16.70333167213723
 30
0.0
 11
15.14253404357238
 21
16.79172001978554
 31
0.0
1001
ACAD
1010
0.0
1020
0.0
1030
0.0
  0
LINE
  5
3663A
330
2
100
AcDbEntity
  8
HATCH
 62
     1
100
AcDbLine
 10
15.23092239122069
 20
16.88010836743386
 30
0.0
 11
15.31931073886902
 21
16.96849671508218
 31
0.0
1001
ACAD
1010
0.0
1020
0.0
1030
0.0
  0
LINE
  5
3663B
330
2
100
AcDbEntity
  8
HATCH
 62
     1
100
AcDbLine
 10
15.40769908651733
 20
17.0568850627305
 30
0.0
 11
15.49608743416565
 21
17.14527341037882
 31
0.0
1001
ACAD
1010
0.0
1020
0.0
1030
0.0
  0
LINE
  5
3663C
330
2
100
AcDbEntity
  8
HATCH
 62
     1
100
AcDbLine
 10
15.58447578181397
 20
17.23366175802714
 30
0.0
 11
15.67286412946229
 21
17.32205010567546
 31
0.0
1001
ACAD
1010
0.0
1020
0.0
1030
0.0
  0
LINE
  5
3663D
330
2
100
AcDbEntity
  8
HATCH
 62
     1
100
AcDbLine
 10
15.76125247711061
 20
17.41043845332377
 30
0.0
 11
15.84964082475893
 21
17.4988268009721
 31
0.0
1001
ACAD
1010
0.0
1020
0.0
1030
0.0
  0
LINE
  5
3663E
330
2
100
AcDbEntity
  8
HATCH
 62
     1
100
AcDbLine
 10
15.93802917240725
 20
17.58721514862042
 30
0.0
 11
16.01978955817471
 21
17.66897553438788
 31
0.0
1001
ACAD
1010
0.0
1020
0.0
1030
0.0
  0
LINE
  5
3663F
330
2
100
AcDbEntity
  8
HATCH
 62
     1
100
AcDbLine
 10
15.05011964406463
 20
16.16897553438789
 30
0.0
 11
15.05414569592405
 21
16.17300158624731
 31
0.0
1001
ACAD
1010
0.0
1020
0.0
1030
0.0
  0
LINE
  5
36640
330
2
100
AcDbEntity
  8
HATCH
 62
     1
100
AcDbLine
 10
15.14253404357237
 20
16.26138993389563
 30
0.0
 11
15.23092239122069
 21
16.34977828154395
 31
0.0
1001
ACAD
1010
0.0
1020
0.0
1030
0.0
  0
LINE
  5
36641
330
2
100
AcDbEntity
  8
HATCH
 62
     1
100
AcDbLine
 10
15.31931073886901
 20
16.43816662919227
 30
0.0
 11
15.40769908651733
 21
16.52655497684059
 31
0.0
1001
ACAD
1010
0.0
1020
0.0
1030
0.0
  0
LINE
  5
36642
330
2
100
AcDbEntity
  8
HATCH
 62
     1
100
AcDbLine
 10
15.49608743416565
 20
16.61494332448891
 30
0.0
 11
15.58447578181397
 21
16.70333167213723
 31
0.0
1001
ACAD
1010
0.0
1020
0.0
1030
0.0
  0
LINE
  5
36643
330
2
100
AcDbEntity
  8
HATCH
 62
     1
100
AcDbLine
 10
15.67286412946229
 20
16.79172001978554
 30
0.0
 11
15.7612524771106
 21
16.88010836743386
 31
0.0
1001
ACAD
1010
0.0
1020
0.0
1030
0.0
  0
LINE
  5
36644
330
2
100
AcDbEntity
  8
HATCH
 62
     1
100
AcDbLine
 10
15.84964082475893
 20
16.96849671508218
 30
0.0
 11
15.93802917240724
 21
17.0568850627305
 31
0.0
1001
ACAD
1010
0.0
1020
0.0
1030
0.0
  0
LINE
  5
36645
330
2
100
AcDbEntity
  8
HATCH
 62
     1
100
AcDbLine
 10
16.02641752005556
 20
17.14527341037882
 30
0.0
 11
16.11480586770388
 21
17.23366175802714
 31
0.0
1001
ACAD
1010
0.0
1020
0.0
1030
0.0
  0
LINE
  5
36646
330
2
100
AcDbEntity
  8
HATCH
 62
     1
100
AcDbLine
 10
15.58447578181397
 20
16.17300158624731
 30
0.0
 11
15.67286412946228
 21
16.26138993389563
 31
0.0
1001
ACAD
1010
0.0
1020
0.0
1030
0.0
  0
LINE
  5
36647
330
2
100
AcDbEntity
  8
HATCH
 62
     1
100
AcDbLine
 10
15.7612524771106
 20
16.34977828154395
 30
0.0
 11
15.84964082475892
 21
16.43816662919227
 31
0.0
1001
ACAD
1010
0.0
1020
0.0
1030
0.0
  0
LINE
  5
36648
330
2
100
AcDbEntity
  8
HATCH
 62
     1
100
AcDbLine
 10
15.93802917240724
 20
16.52655497684059
 30
0.0
 11
16.02641752005556
 21
16.61494332448891
 31
0.0
1001
ACAD
1010
0.0
1020
0.0
1030
0.0
  0
LINE
  5
36649
330
2
100
AcDbEntity
  8
HATCH
 62
     1
100
AcDbLine
 10
16.11480586770388
 20
16.70333167213723
 30
0.0
 11
16.2031942153522
 21
16.79172001978554
 31
0.0
1001
ACAD
1010
0.0
1020
0.0
1030
0.0
  0
LINE
  5
3664A
330
2
100
AcDbEntity
  8
HATCH
 62
     1
100
AcDbLine
 10
16.29158256300052
 20
16.88010836743386
 30
0.0
 11
16.34110806027585
 21
16.92963386470919
 31
0.0
1001
ACAD
1010
0.0
1020
0.0
1030
0.0
  0
LINE
  5
3664B
330
2
100
AcDbEntity
  8
HATCH
 62
     1
100
AcDbLine
 10
16.11077981584446
 20
16.16897553438789
 30
0.0
 11
16.11480586770387
 21
16.17300158624731
 31
0.0
1001
ACAD
1010
0.0
1020
0.0
1030
0.0
  0
LINE
  5
3664C
330
2
100
AcDbEntity
  8
HATCH
 62
     1
100
AcDbLine
 10
16.20319421535219
 20
16.26138993389563
 30
0.0
 11
16.29158256300051
 21
16.34977828154395
 31
0.0
1001
ACAD
1010
0.0
1020
0.0
1030
0.0
  0
LINE
  5
3664D
330
2
100
AcDbEntity
  8
HATCH
 62
     1
100
AcDbLine
 10
19.65033977363661
 20
17.0568850627305
 30
0.0
 11
19.73872812128493
 21
17.14527341037882
 31
0.0
1001
ACAD
1010
0.0
1020
0.0
1030
0.0
  0
LINE
  5
3664E
330
2
100
AcDbEntity
  8
HATCH
 62
     1
100
AcDbLine
 10
19.82711646893325
 20
17.23366175802713
 30
0.0
 11
19.91550481658157
 21
17.32205010567545
 31
0.0
1001
ACAD
1010
0.0
1020
0.0
1030
0.0
  0
LINE
  5
3664F
330
2
100
AcDbEntity
  8
HATCH
 62
     1
100
AcDbLine
 10
20.00389316422989
 20
17.41043845332377
 30
0.0
 11
20.09228151187821
 21
17.49882680097209
 31
0.0
1001
ACAD
1010
0.0
1020
0.0
1030
0.0
  0
LINE
  5
36650
330
2
100
AcDbEntity
  8
HATCH
 62
     1
100
AcDbLine
 10
20.18066985952653
 20
17.58721514862041
 30
0.0
 11
20.26243024529402
 21
17.6689755343879
 31
0.0
1001
ACAD
1010
0.0
1020
0.0
1030
0.0
  0
LINE
  5
36651
330
2
100
AcDbEntity
  8
HATCH
 62
     1
100
AcDbLine
 10
19.56195142598829
 20
16.43816662919227
 30
0.0
 11
19.65033977363662
 21
16.52655497684059
 31
0.0
1001
ACAD
1010
0.0
1020
0.0
1030
0.0
  0
LINE
  5
36652
330
2
100
AcDbEntity
  8
HATCH
 62
     1
100
AcDbLine
 10
19.73872812128493
 20
16.61494332448891
 30
0.0
 11
19.82711646893325
 21
16.70333167213723
 31
0.0
1001
ACAD
1010
0.0
1020
0.0
1030
0.0
  0
LINE
  5
36653
330
2
100
AcDbEntity
  8
HATCH
 62
     1
100
AcDbLine
 10
19.91550481658157
 20
16.79172001978554
 30
0.0
 11
20.00389316422989
 21
16.88010836743386
 31
0.0
1001
ACAD
1010
0.0
1020
0.0
1030
0.0
  0
LINE
  5
36654
330
2
100
AcDbEntity
  8
HATCH
 62
     1
100
AcDbLine
 10
20.09228151187821
 20
16.96849671508218
 30
0.0
 11
20.18066985952653
 21
17.0568850627305
 31
0.0
1001
ACAD
1010
0.0
1020
0.0
1030
0.0
  0
LINE
  5
36655
330
2
100
AcDbEntity
  8
HATCH
 62
     1
100
AcDbLine
 10
20.26905820717485
 20
17.14527341037882
 30
0.0
 11
20.35744655482317
 21
17.23366175802714
 31
0.0
1001
ACAD
1010
0.0
1020
0.0
1030
0.0
  0
LINE
  5
36656
330
2
100
AcDbEntity
  8
HATCH
 62
     1
100
AcDbLine
 10
20.44583490247149
 20
17.32205010567546
 30
0.0
 11
20.53422325011981
 21
17.41043845332377
 31
0.0
1001
ACAD
1010
0.0
1020
0.0
1030
0.0
  0
LINE
  5
36657
330
2
100
AcDbEntity
  8
HATCH
 62
     1
100
AcDbLine
 10
20.62261159776813
 20
17.4988268009721
 30
0.0
 11
20.71099994541645
 21
17.58721514862042
 31
0.0
1001
ACAD
1010
0.0
1020
0.0
1030
0.0
  0
LINE
  5
36658
330
2
100
AcDbEntity
  8
HATCH
 62
     1
100
AcDbLine
 10
19.82711646893325
 20
16.17300158624731
 30
0.0
 11
19.91550481658157
 21
16.26138993389563
 31
0.0
1001
ACAD
1010
0.0
1020
0.0
1030
0.0
  0
LINE
  5
36659
330
2
100
AcDbEntity
  8
HATCH
 62
     1
100
AcDbLine
 10
20.00389316422989
 20
16.34977828154395
 30
0.0
 11
20.09228151187821
 21
16.43816662919227
 31
0.0
1001
ACAD
1010
0.0
1020
0.0
1030
0.0
  0
LINE
  5
3665A
330
2
100
AcDbEntity
  8
HATCH
 62
     1
100
AcDbLine
 10
20.18066985952653
 20
16.52655497684059
 30
0.0
 11
20.26905820717485
 21
16.61494332448891
 31
0.0
1001
ACAD
1010
0.0
1020
0.0
1030
0.0
  0
LINE
  5
3665B
330
2
100
AcDbEntity
  8
HATCH
 62
     1
100
AcDbLine
 10
20.35744655482317
 20
16.70333167213723
 30
0.0
 11
20.44583490247148
 21
16.79172001978554
 31
0.0
1001
ACAD
1010
0.0
1020
0.0
1030
0.0
  0
LINE
  5
3665C
330
2
100
AcDbEntity
  8
HATCH
 62
     1
100
AcDbLine
 10
20.53422325011981
 20
16.88010836743386
 30
0.0
 11
20.62261159776813
 21
16.96849671508218
 31
0.0
1001
ACAD
1010
0.0
1020
0.0
1030
0.0
  0
LINE
  5
3665D
330
2
100
AcDbEntity
  8
HATCH
 62
     1
100
AcDbLine
 10
20.71099994541644
 20
17.0568850627305
 30
0.0
 11
20.79938829306476
 21
17.14527341037882
 31
0.0
1001
ACAD
1010
0.0
1020
0.0
1030
0.0
  0
LINE
  5
3665E
330
2
100
AcDbEntity
  8
HATCH
 62
     1
100
AcDbLine
 10
20.88777664071308
 20
17.23366175802714
 30
0.0
 11
20.9761649883614
 21
17.32205010567546
 31
0.0
1001
ACAD
1010
0.0
1020
0.0
1030
0.0
  0
LINE
  5
3665F
330
2
100
AcDbEntity
  8
HATCH
 62
     1
100
AcDbLine
 10
21.06455333600972
 20
17.41043845332377
 30
0.0
 11
21.15294168365804
 21
17.4988268009721
 31
0.0
1001
ACAD
1010
0.0
1020
0.0
1030
0.0
  0
LINE
  5
36660
330
2
100
AcDbEntity
  8
HATCH
 62
     1
100
AcDbLine
 10
21.24133003130636
 20
17.58721514862042
 30
0.0
 11
21.32309041707385
 21
17.66897553438791
 31
0.0
1001
ACAD
1010
0.0
1020
0.0
1030
0.0
  0
LINE
  5
36661
330
2
100
AcDbEntity
  8
HATCH
 62
     1
100
AcDbLine
 10
20.35342050296375
 20
16.16897553438789
 30
0.0
 11
20.35744655482316
 21
16.17300158624731
 31
0.0
1001
ACAD
1010
0.0
1020
0.0
1030
0.0
  0
LINE
  5
36662
330
2
100
AcDbEntity
  8
HATCH
 62
     1
100
AcDbLine
 10
20.44583490247148
 20
16.26138993389563
 30
0.0
 11
20.5342232501198
 21
16.34977828154395
 31
0.0
1001
ACAD
1010
0.0
1020
0.0
1030
0.0
  0
LINE
  5
36663
330
2
100
AcDbEntity
  8
HATCH
 62
     1
100
AcDbLine
 10
20.62261159776812
 20
16.43816662919227
 30
0.0
 11
20.71099994541643
 21
16.52655497684059
 31
0.0
1001
ACAD
1010
0.0
1020
0.0
1030
0.0
  0
LINE
  5
36664
330
2
100
AcDbEntity
  8
HATCH
 62
     1
100
AcDbLine
 10
20.79938829306476
 20
16.61494332448891
 30
0.0
 11
20.88777664071308
 21
16.70333167213723
 31
0.0
1001
ACAD
1010
0.0
1020
0.0
1030
0.0
  0
LINE
  5
36665
330
2
100
AcDbEntity
  8
HATCH
 62
     1
100
AcDbLine
 10
20.97616498836139
 20
16.79172001978554
 30
0.0
 11
21.06455333600971
 21
16.88010836743386
 31
0.0
1001
ACAD
1010
0.0
1020
0.0
1030
0.0
  0
LINE
  5
36666
330
2
100
AcDbEntity
  8
HATCH
 62
     1
100
AcDbLine
 10
21.15294168365803
 20
16.96849671508218
 30
0.0
 11
21.24133003130635
 21
17.0568850627305
 31
0.0
1001
ACAD
1010
0.0
1020
0.0
1030
0.0
  0
LINE
  5
36667
330
2
100
AcDbEntity
  8
HATCH
 62
     1
100
AcDbLine
 10
21.32971837895468
 20
17.14527341037882
 30
0.0
 11
21.41810672660299
 21
17.23366175802714
 31
0.0
1001
ACAD
1010
0.0
1020
0.0
1030
0.0
  0
LINE
  5
36668
330
2
100
AcDbEntity
  8
HATCH
 62
     1
100
AcDbLine
 10
21.50649507425131
 20
17.32205010567546
 30
0.0
 11
21.59488342189963
 21
17.41043845332377
 31
0.0
1001
ACAD
1010
0.0
1020
0.0
1030
0.0
  0
LINE
  5
36669
330
2
100
AcDbEntity
  8
HATCH
 62
     1
100
AcDbLine
 10
21.68327176954795
 20
17.4988268009721
 30
0.0
 11
21.77166011719627
 21
17.58721514862042
 31
0.0
1001
ACAD
1010
0.0
1020
0.0
1030
0.0
  0
LINE
  5
3666A
330
2
100
AcDbEntity
  8
HATCH
 62
     1
100
AcDbLine
 10
20.88777664071307
 20
16.17300158624731
 30
0.0
 11
20.97616498836139
 21
16.26138993389563
 31
0.0
1001
ACAD
1010
0.0
1020
0.0
1030
0.0
  0
LINE
  5
3666B
330
2
100
AcDbEntity
  8
HATCH
 62
     1
100
AcDbLine
 10
21.06455333600971
 20
16.34977828154395
 30
0.0
 11
21.15294168365803
 21
16.43816662919227
 31
0.0
1001
ACAD
1010
0.0
1020
0.0
1030
0.0
  0
LINE
  5
3666C
330
2
100
AcDbEntity
  8
HATCH
 62
     1
100
AcDbLine
 10
21.24133003130635
 20
16.52655497684059
 30
0.0
 11
21.32971837895468
 21
16.61494332448891
 31
0.0
1001
ACAD
1010
0.0
1020
0.0
1030
0.0
  0
LINE
  5
3666D
330
2
100
AcDbEntity
  8
HATCH
 62
     1
100
AcDbLine
 10
21.41810672660299
 20
16.70333167213723
 30
0.0
 11
21.5064950742513
 21
16.79172001978554
 31
0.0
1001
ACAD
1010
0.0
1020
0.0
1030
0.0
  0
LINE
  5
3666E
330
2
100
AcDbEntity
  8
HATCH
 62
     1
100
AcDbLine
 10
21.59488342189963
 20
16.88010836743386
 30
0.0
 11
21.68327176954794
 21
16.96849671508218
 31
0.0
1001
ACAD
1010
0.0
1020
0.0
1030
0.0
  0
LINE
  5
3666F
330
2
100
AcDbEntity
  8
HATCH
 62
     1
100
AcDbLine
 10
21.77166011719626
 20
17.0568850627305
 30
0.0
 11
21.86004846484458
 21
17.14527341037882
 31
0.0
1001
ACAD
1010
0.0
1020
0.0
1030
0.0
  0
LINE
  5
36670
330
2
100
AcDbEntity
  8
HATCH
 62
     1
100
AcDbLine
 10
21.9484368124929
 20
17.23366175802714
 30
0.0
 11
22.03682516014122
 21
17.32205010567546
 31
0.0
1001
ACAD
1010
0.0
1020
0.0
1030
0.0
  0
LINE
  5
36671
330
2
100
AcDbEntity
  8
HATCH
 62
     1
100
AcDbLine
 10
22.12521350778954
 20
17.41043845332377
 30
0.0
 11
22.21360185543786
 21
17.4988268009721
 31
0.0
1001
ACAD
1010
0.0
1020
0.0
1030
0.0
  0
LINE
  5
36672
330
2
100
AcDbEntity
  8
HATCH
 62
     1
100
AcDbLine
 10
22.30199020308618
 20
17.58721514862042
 30
0.0
 11
22.38375058885367
 21
17.66897553438791
 31
0.0
1001
ACAD
1010
0.0
1020
0.0
1030
0.0
  0
LINE
  5
36673
330
2
100
AcDbEntity
  8
HATCH
 62
     1
100
AcDbLine
 10
21.41408067474356
 20
16.16897553438789
 30
0.0
 11
21.41810672660298
 21
16.17300158624731
 31
0.0
1001
ACAD
1010
0.0
1020
0.0
1030
0.0
  0
LINE
  5
36674
330
2
100
AcDbEntity
  8
HATCH
 62
     1
100
AcDbLine
 10
21.5064950742513
 20
16.26138993389563
 30
0.0
 11
21.59488342189962
 21
16.34977828154395
 31
0.0
1001
ACAD
1010
0.0
1020
0.0
1030
0.0
  0
LINE
  5
36675
330
2
100
AcDbEntity
  8
HATCH
 62
     1
100
AcDbLine
 10
21.68327176954794
 20
16.43816662919227
 30
0.0
 11
21.77166011719626
 21
16.52655497684059
 31
0.0
1001
ACAD
1010
0.0
1020
0.0
1030
0.0
  0
LINE
  5
36676
330
2
100
AcDbEntity
  8
HATCH
 62
     1
100
AcDbLine
 10
21.86004846484458
 20
16.61494332448891
 30
0.0
 11
21.9484368124929
 21
16.70333167213723
 31
0.0
1001
ACAD
1010
0.0
1020
0.0
1030
0.0
  0
LINE
  5
36677
330
2
100
AcDbEntity
  8
HATCH
 62
     1
100
AcDbLine
 10
22.03682516014122
 20
16.79172001978554
 30
0.0
 11
22.12521350778954
 21
16.88010836743386
 31
0.0
1001
ACAD
1010
0.0
1020
0.0
1030
0.0
  0
LINE
  5
36678
330
2
100
AcDbEntity
  8
HATCH
 62
     1
100
AcDbLine
 10
22.21360185543785
 20
16.96849671508218
 30
0.0
 11
22.30199020308617
 21
17.0568850627305
 31
0.0
1001
ACAD
1010
0.0
1020
0.0
1030
0.0
  0
LINE
  5
36679
330
2
100
AcDbEntity
  8
HATCH
 62
     1
100
AcDbLine
 10
22.39037855073449
 20
17.14527341037882
 30
0.0
 11
22.47876689838281
 21
17.23366175802714
 31
0.0
1001
ACAD
1010
0.0
1020
0.0
1030
0.0
  0
LINE
  5
3667A
330
2
100
AcDbEntity
  8
HATCH
 62
     1
100
AcDbLine
 10
22.56715524603113
 20
17.32205010567546
 30
0.0
 11
22.65554359367945
 21
17.41043845332377
 31
0.0
1001
ACAD
1010
0.0
1020
0.0
1030
0.0
  0
LINE
  5
3667B
330
2
100
AcDbEntity
  8
HATCH
 62
     1
100
AcDbLine
 10
22.74393194132777
 20
17.4988268009721
 30
0.0
 11
22.83232028897609
 21
17.58721514862042
 31
0.0
1001
ACAD
1010
0.0
1020
0.0
1030
0.0
  0
LINE
  5
3667C
330
2
100
AcDbEntity
  8
HATCH
 62
     1
100
AcDbLine
 10
21.94843681249289
 20
16.17300158624731
 30
0.0
 11
22.03682516014121
 21
16.26138993389563
 31
0.0
1001
ACAD
1010
0.0
1020
0.0
1030
0.0
  0
LINE
  5
3667D
330
2
100
AcDbEntity
  8
HATCH
 62
     1
100
AcDbLine
 10
22.12521350778953
 20
16.34977828154395
 30
0.0
 11
22.21360185543785
 21
16.43816662919227
 31
0.0
1001
ACAD
1010
0.0
1020
0.0
1030
0.0
  0
LINE
  5
3667E
330
2
100
AcDbEntity
  8
HATCH
 62
     1
100
AcDbLine
 10
22.30199020308617
 20
16.52655497684059
 30
0.0
 11
22.39037855073449
 21
16.61494332448891
 31
0.0
1001
ACAD
1010
0.0
1020
0.0
1030
0.0
  0
LINE
  5
3667F
330
2
100
AcDbEntity
  8
HATCH
 62
     1
100
AcDbLine
 10
22.47876689838281
 20
16.70333167213723
 30
0.0
 11
22.56715524603113
 21
16.79172001978554
 31
0.0
1001
ACAD
1010
0.0
1020
0.0
1030
0.0
  0
LINE
  5
36680
330
2
100
AcDbEntity
  8
HATCH
 62
     1
100
AcDbLine
 10
22.65554359367945
 20
16.88010836743386
 30
0.0
 11
22.74393194132777
 21
16.96849671508218
 31
0.0
1001
ACAD
1010
0.0
1020
0.0
1030
0.0
  0
LINE
  5
36681
330
2
100
AcDbEntity
  8
HATCH
 62
     1
100
AcDbLine
 10
22.83232028897609
 20
17.0568850627305
 30
0.0
 11
22.9207086366244
 21
17.14527341037882
 31
0.0
1001
ACAD
1010
0.0
1020
0.0
1030
0.0
  0
LINE
  5
36682
330
2
100
AcDbEntity
  8
HATCH
 62
     1
100
AcDbLine
 10
23.00909698427272
 20
17.23366175802714
 30
0.0
 11
23.09748533192104
 21
17.32205010567546
 31
0.0
1001
ACAD
1010
0.0
1020
0.0
1030
0.0
  0
LINE
  5
36683
330
2
100
AcDbEntity
  8
HATCH
 62
     1
100
AcDbLine
 10
23.18587367956936
 20
17.41043845332377
 30
0.0
 11
23.26658311351064
 21
17.49114788726506
 31
0.0
1001
ACAD
1010
0.0
1020
0.0
1030
0.0
  0
LINE
  5
36684
330
2
100
AcDbEntity
  8
HATCH
 62
     1
100
AcDbLine
 10
22.47474084652339
 20
16.16897553438789
 30
0.0
 11
22.4787668983828
 21
16.17300158624731
 31
0.0
1001
ACAD
1010
0.0
1020
0.0
1030
0.0
  0
LINE
  5
36685
330
2
100
AcDbEntity
  8
HATCH
 62
     1
100
AcDbLine
 10
22.56715524603112
 20
16.26138993389563
 30
0.0
 11
22.65554359367945
 21
16.34977828154395
 31
0.0
1001
ACAD
1010
0.0
1020
0.0
1030
0.0
  0
LINE
  5
36686
330
2
100
AcDbEntity
  8
HATCH
 62
     1
100
AcDbLine
 10
22.74393194132776
 20
16.43816662919227
 30
0.0
 11
22.83232028897608
 21
16.52655497684059
 31
0.0
1001
ACAD
1010
0.0
1020
0.0
1030
0.0
  0
LINE
  5
36687
330
2
100
AcDbEntity
  8
HATCH
 62
     1
100
AcDbLine
 10
22.9207086366244
 20
16.61494332448891
 30
0.0
 11
23.00909698427272
 21
16.70333167213723
 31
0.0
1001
ACAD
1010
0.0
1020
0.0
1030
0.0
  0
LINE
  5
36688
330
2
100
AcDbEntity
  8
HATCH
 62
     1
100
AcDbLine
 10
23.09748533192104
 20
16.79172001978554
 30
0.0
 11
23.18587367956936
 21
16.88010836743386
 31
0.0
1001
ACAD
1010
0.0
1020
0.0
1030
0.0
  0
LINE
  5
36689
330
2
100
AcDbEntity
  8
HATCH
 62
     1
100
AcDbLine
 10
23.27426202721768
 20
16.96849671508218
 30
0.0
 11
23.362650374866
 21
17.0568850627305
 31
0.0
1001
ACAD
1010
0.0
1020
0.0
1030
0.0
  0
LINE
  5
3668A
330
2
100
AcDbEntity
  8
HATCH
 62
     1
100
AcDbLine
 10
23.00909698427272
 20
16.17300158624732
 30
0.0
 11
23.09748533192104
 21
16.26138993389563
 31
0.0
1001
ACAD
1010
0.0
1020
0.0
1030
0.0
  0
LINE
  5
3668B
330
2
100
AcDbEntity
  8
HATCH
 62
     1
100
AcDbLine
 10
23.18587367956935
 20
16.34977828154395
 30
0.0
 11
23.27426202721767
 21
16.43816662919227
 31
0.0
1001
ACAD
1010
0.0
1020
0.0
1030
0.0
  0
LINE
  5
3668C
330
2
100
AcDbEntity
  8
HATCH
 62
     1
100
AcDbLine
 10
23.36265037486599
 20
16.52655497684059
 30
0.0
 11
23.45103872251431
 21
16.61494332448891
 31
0.0
1001
ACAD
1010
0.0
1020
0.0
1030
0.0
  0
TEXT
  5
3668D
330
2
100
AcDbEntity
  8
DIM
100
AcDbText
 10
19.28772523562388
 20
19.53845784190128
 30
0.0
 40
0.25
  1
CROSS
  7
STD
100
AcDbText
  0
TEXT
  5
3668E
330
2
100
AcDbEntity
  8
DIM
100
AcDbText
 10
19.29693396686535
 20
19.11957425845425
 30
0.0
 40
0.25
  1
TEE TYP
  7
STD
100
AcDbText
  0
SOLID
  5
3668F
330
2
100
AcDbEntity
  8
DIM
100
AcDbTrace
 10
18.54099685585791
 20
17.85524639169046
 30
0.0
 11
18.44927884726343
 21
17.61897553438771
 31
0.0
 12
18.45941073951137
 22
17.8722213751642
 32
0.0
 13
18.45941073951137
 23
17.8722213751642
 33
0.0
1001
ACAD
1000
DSTYLE
1002
{
1070
   147
1040
0.09
1070
    77
1070
     0
1002
}
  0
LWPOLYLINE
  5
36690
330
2
100
AcDbEntity
  8
DIM
100
AcDbPolyline
 90
        3
 70
     0
 43
0.0
 10
18.50020379768464
 20
17.86373388342733
 10
18.87511950574666
 20
19.66567475868163
 10
19.12511950574666
 20
19.66567475868163
1001
ACAD
1000
DSTYLE
1002
{
1070
   147
1040
0.09
1070
    77
1070
     0
1002
}
  0
TEXT
  5
36691
330
2
100
AcDbEntity
  8
DIM
100
AcDbText
 10
19.62256790338636
 20
18.39389531232682
 30
0.0
 40
0.25
  1
2WAY
  7
STD
100
AcDbText
  0
TEXT
  5
36692
330
2
100
AcDbEntity
  8
DIM
100
AcDbText
 10
19.61540555686521
 20
17.97458539872973
 30
0.0
 40
0.25
  1
CLIP
  7
STD
100
AcDbText
  0
SOLID
  5
36693
330
2
100
AcDbEntity
  8
DIM
100
AcDbTrace
 10
18.79378956546833
 20
16.98939641935126
 30
0.0
 11
18.68293749598553
 21
16.76147553438788
 31
0.0
 12
18.71387727469736
 22
17.01302839405037
 32
0.0
 13
18.71387727469736
 23
17.01302839405037
 33
0.0
1001
ACAD
1000
DSTYLE
1002
{
1070
   147
1040
0.09
1070
    77
1070
     0
1002
}
  0
LWPOLYLINE
  5
36694
330
2
100
AcDbEntity
  8
DIM
100
AcDbPolyline
 90
        3
 70
     0
 43
0.0
 10
18.75383342008285
 20
17.00121240670081
 10
19.202799826988
 20
18.51940690850691
 10
19.452799826988
 20
18.51940690850691
1001
ACAD
1000
DSTYLE
1002
{
1070
   147
1040
0.09
1070
    77
1070
     0
1002
}
  0
TEXT
  5
36695
330
2
100
AcDbEntity
  8
DIM
100
AcDbText
 10
16.16514963639206
 20
18.43064654421097
 30
0.0
 40
0.25
  1
MAIN
  7
STD
100
AcDbText
  0
TEXT
  5
36696
330
2
100
AcDbEntity
  8
DIM
100
AcDbText
 10
15.56931061865672
 20
18.0139798775443
 30
0.0
 40
0.25
  1
TEE TYP
  7
STD
100
AcDbText
  0
SOLID
  5
36697
330
2
100
AcDbEntity
  8
DIM
100
AcDbTrace
 10
17.82035176966281
 20
17.86225095572001
 30
0.0
 11
17.89143749598466
 21
17.61897553438771
 31
0.0
 12
17.74529410470757
 22
17.82604610278685
 32
0.0
 13
17.74529410470757
 23
17.82604610278685
 33
0.0
1001
ACAD
1000
DSTYLE
1002
{
1070
   147
1040
0.09
1070
    77
1070
     0
1002
}
  0
LWPOLYLINE
  5
36698
330
2
100
AcDbEntity
  8
DIM
100
AcDbPolyline
 90
        3
 70
     0
 43
0.0
 10
17.78282293718518
 20
17.84414852925343
 10
17.43962439764717
 20
18.55564654421097
 10
17.18962439764717
 20
18.55564654421097
1001
ACAD
1000
DSTYLE
1002
{
1070
   147
1040
0.09
1070
    77
1070
     0
1002
}
  0
TEXT
  5
36699
330
2
100
AcDbEntity
  8
DIM
100
AcDbText
 10
14.3275250782143
 20
20.10006286883279
 30
0.0
 40
0.25
  1
HANGER WIRE
  7
STD
100
AcDbText
  0
TEXT
  5
3669A
330
2
100
AcDbEntity
  8
DIM
100
AcDbText
 10
11.43001484629069
 20
19.67904763463543
 30
0.0
 40
0.25
  1
(BY INSTALLING CONTRACTOR)
  7
STD
100
AcDbText
  0
TEXT
  5
3669B
330
2
100
AcDbEntity
  8
DIM
100
AcDbText
 10
16.14778428694554
 20
19.26016405118841
 30
0.0
 40
0.25
  1
TYP
  7
STD
100
AcDbText
  0
SOLID
  5
3669C
330
2
100
AcDbEntity
  8
DIM
100
AcDbTrace
 10
17.84116826549545
 20
19.24331354380692
 30
0.0
 11
17.92707377894626
 21
19.00486783956828
 31
0.0
 12
17.76847806484783
 22
19.20256333921537
 32
0.0
 13
17.76847806484783
 23
19.20256333921537
 33
0.0
1001
ACAD
1000
DSTYLE
1002
{
1070
   147
1040
0.09
1070
    77
1070
     0
1002
}
  0
LWPOLYLINE
  5
3669D
330
2
100
AcDbEntity
  8
DIM
100
AcDbPolyline
 90
        3
 70
     0
 43
0.0
 10
17.80482316517164
 20
19.22293844151115
 10
17.24183612869177
 20
20.22719451958314
 10
16.99183612869179
 20
20.22719451958314
1001
ACAD
1000
DSTYLE
1002
{
1070
   147
1040
0.09
1070
    77
1070
     0
1002
}
  0
TEXT
  5
3669E
330
2
100
AcDbEntity
  8
DIM
100
AcDbText
 10
12.00406931360987
 20
18.442761274413
 30
0.0
 40
0.25
  1
*INSULATION
  7
STD
100
AcDbText
  0
TEXT
  5
3669F
330
2
100
AcDbEntity
  8
DIM
100
AcDbText
 10
13.54312115535612
 20
18.02387769096598
 30
0.0
 40
0.25
  1
TYP
  7
STD
100
AcDbText
  0
SOLID
  5
366A0
330
2
100
AcDbEntity
  8
DIM
100
AcDbTrace
 10
14.78371892033852
 20
17.92242029075262
 30
0.0
 11
14.78235269109827
 21
17.6689755343879
 31
0.0
 12
14.70144677074778
 22
17.90916367556758
 32
0.0
 13
14.70144677074778
 23
17.90916367556758
 33
0.0
1001
ACAD
1000
DSTYLE
1002
{
1070
   147
1040
0.09
1070
    77
1070
     0
1002
}
  0
LWPOLYLINE
  5
366A1
330
2
100
AcDbEntity
  8
DIM
100
AcDbPolyline
 90
        3
 70
     0
 43
0.0
 10
14.74258284554315
 20
17.9157919831601
 10
14.63717299710237
 20
18.56997819119335
 10
14.38717299710237
 20
18.56997819119335
1001
ACAD
1000
DSTYLE
1002
{
1070
   147
1040
0.09
1070
    77
1070
     0
1002
}
  0
TEXT
  5
366A2
330
2
100
AcDbEntity
  8
DIM
100
AcDbText
 10
25.10605038242812
 20
14.9258852101956
 30
0.0
 40
0.25
  1
FACE OF
  7
STD
100
AcDbText
  0
TEXT
  5
366A3
330
2
100
AcDbEntity
  8
DIM
100
AcDbText
 10
25.10877889538855
 20
14.50478470996822
 30
0.0
 40
0.25
  1
MARQUIS™
  7
STD
100
AcDbText
  0
TEXT
  5
366A4
330
2
100
AcDbEntity
  8
DIM
100
AcDbText
 10
25.10775570302838
 20
14.0859011265212
 30
0.0
 40
0.25
  1
PANEL
  7
STD
100
AcDbText
  0
SOLID
  5
366A5
330
2
100
AcDbEntity
  8
DIM
100
AcDbTrace
 10
24.55638468236351
 20
15.38295107690553
 30
0.0
 11
24.5205297894441
 21
15.63385053438771
 31
0.0
 12
24.63581937706478
 22
15.40814182366221
 32
0.0
 13
24.63581937706478
 23
15.40814182366221
 33
0.0
1001
ACAD
1000
DSTYLE
1002
{
1070
   147
1040
0.09
1070
    77
1070
     0
1002
}
  0
LWPOLYLINE
  5
366A6
330
2
100
AcDbEntity
  8
DIM
100
AcDbPolyline
 90
        3
 70
     0
 43
0.0
 10
24.59610202971414
 20
15.39554645028387
 10
24.7046997685127
 20
15.05310212697595
 10
24.9546997685127
 20
15.05310212697595
1001
ACAD
1000
DSTYLE
1002
{
1070
   147
1040
0.09
1070
    77
1070
     0
1002
}
  0
TEXT
  5
366A7
330
2
100
AcDbEntity
  8
DIM
100
AcDbText
 10
22.65713652254325
 20
18.63456592379356
 30
0.0
 40
0.25
  1
1WAY
  7
STD
100
AcDbText
  0
TEXT
  5
366A8
330
2
100
AcDbEntity
  8
DIM
100
AcDbText
 10
22.88292097001937
 20
18.21525601019647
 30
0.0
 40
0.25
  1
CLIP
  7
STD
100
AcDbText
  0
SOLID
  5
366A9
330
2
100
AcDbEntity
  8
DIM
100
AcDbTrace
 10
24.5930786704567
 20
17.01363766520017
 30
0.0
 11
24.61858104084112
 21
16.7614755343877
 31
0.0
 12
24.51267486426802
 22
16.99173624070725
 32
0.0
 13
24.51267486426802
 23
16.99173624070725
 33
0.0
1001
ACAD
1000
DSTYLE
1002
{
1070
   147
1040
0.09
1070
    77
1070
     0
1002
}
  0
LWPOLYLINE
  5
366AA
330
2
100
AcDbEntity
  8
DIM
100
AcDbPolyline
 90
        3
 70
     0
 43
0.0
 10
24.55287676736236
 20
17.00268695295372
 10
24.07417608598117
 20
18.76007751997364
 10
23.82417608598117
 20
18.76007751997364
1001
ACAD
1000
DSTYLE
1002
{
1070
   147
1040
0.09
1070
    77
1070
     0
1002
}
  0
VIEWPORT
  5
5D
102
{ACAD_XDICTIONARY
360
3671C
102
}
330
D
100
AcDbEntity
 67
     1
  8
0
100
AcDbViewport
 10
5.102836672053318
 20
3.882552595148703
 30
0.0
 40
17.85665244455305
 41
7.823286941753798
 68
     1
 69
     1
 12
5.102836672053318
 22
3.882552595148703
 13
0.0
 23
0.0
 14
0.5
 24
0.5
 15
0.5
 25
0.5
 16
0.0
 26
0.0
 36
1.0
 17
0.0
 27
0.0
 37
0.0
 42
50.0
 43
0.0
 44
0.0
 45
7.823286941753798
 50
0.0
 51
0.0
 72
   100
 90
    32800
  1

281
     0
 71
     1
 74
     0
110
0.0
120
0.0
130
0.0
111
1.0
121
0.0
131
0.0
112
0.0
122
1.0
132
0.0
 79
     0
146
0.0
  0
ENDSEC
  0
SECTION
  2
OBJECTS
  0
DICTIONARY
  5
7
330
0
100
AcDbDictionary
281
     1
  3
ACAD_2007HEADERVARS_RT
350
36718
  3
ACAD_COLOR
350
885
  3
ACAD_FIELDLIST
350
1393
  3
ACAD_GROUP
350
24
  3
ACAD_LAYOUT
350
C
  3
ACAD_MATERIAL
350
884
  3
ACAD_MLEADERSTYLE
350
3370D
  3
ACAD_MLINESTYLE
350
25
  3
ACAD_PLOTSETTINGS
350
26
  3
ACAD_PLOTSTYLENAME
350
6
  3
ACAD_SCALELIST
350
336FB
  3
ACAD_TABLESTYLE
350
886
  3
ACAD_VISUALSTYLE
350
10B2
  3
AcadDim
350
33143
  3
ACDB_RECOMPOSE_DATA
350
36716
  3
AcDbVariableDictionary
350
3AC
  3
AEC_CLASSIFICATION_SYSTEM_DEFS
350
A2E
  3
AEC_PROPERTY_SET_DEFS
350
356BC
  3
ASE_INDEX_DICTIONARY
350
1053
  3
DWGPROPS
350
36717
  0
DICTIONARY
  5
139C
330
1A
100
AcDbDictionary
280
     1
281
     1
  0
DICTIONARY
  5
899
330
11
100
AcDbDictionary
280
     1
281
     1
  3
ACAD_LAYERFILTERS
360
1092
  3
ACAD_LAYERSTATES
360
89A
  3
ACLYDICTIONARY
360
1091
  0
DICTIONARY
  5
34BB8
330
4
100
AcDbDictionary
280
     1
281
     1
  3
ADSK_XREC_LAYER_RECONCILED
360
34BB9
  0
DICTIONARY
  5
1A62
330
1A61
100
AcDbDictionary
280
     1
281
     1
  3
ADSK_XREC_LAYER_RECONCILED
360
1A63
  0
DICTIONARY
  5
1A68
330
1A67
100
AcDbDictionary
280
     1
281
     1
  3
ADSK_XREC_LAYER_RECONCILED
360
1A69
  0
DICTIONARY
  5
1A7A
330
1A79
100
AcDbDictionary
280
     1
281
     1
  3
ADSK_XREC_LAYER_RECONCILED
360
1A7B
  0
DICTIONARY
  5
1A7D
330
1A7C
100
AcDbDictionary
280
     1
281
     1
  3
ADSK_XREC_LAYER_RECONCILED
360
1A7E
  0
DICTIONARY
  5
1A80
330
1A7F
100
AcDbDictionary
280
     1
281
     1
  3
ADSK_XREC_LAYER_RECONCILED
360
1A81
  0
DICTIONARY
  5
1A92
330
1A91
100
AcDbDictionary
280
     1
281
     1
  3
ADSK_XREC_LAYER_RECONCILED
360
1A93
  0
DICTIONARY
  5
31E97
330
2
100
AcDbDictionary
280
     1
281
     1
  3
ACAD_SORTENTS
360
31E98
  0
DICTIONARY
  5
1D72
330
D
100
AcDbDictionary
280
     1
281
     1
  3
ACAD_SORTENTS
360
1D73
  0
DICTIONARY
  5
3671C
330
5D
100
AcDbDictionary
280
     1
281
     1
  3
ACAD_XREC_ROUNDTRIP
360
3671D
  0
DICTIONARY
  5
36718
102
{ACAD_REACTORS
330
7
102
}
330
7
100
AcDbDictionary
281
     1
  3
INTERFEREVPVS
350
36719
  0
DICTIONARY
  5
885
102
{ACAD_REACTORS
330
7
102
}
330
7
100
AcDbDictionary
281
     1
  0
FIELDLIST
  5
1393
102
{ACAD_REACTORS
330
7
102
}
330
7
100
AcDbIdSet
 90
        0
100
AcDbFieldList
  0
DICTIONARY
  5
24
102
{ACAD_REACTORS
330
7
102
}
330
7
100
AcDbDictionary
281
     1
  3
*A1
350
27C
  3
*A2
350
27D
  3
*A3
350
398
  3
*A4
350
399
  0
DICTIONARY
  5
C
102
{ACAD_REACTORS
330
7
102
}
330
7
100
AcDbDictionary
281
     1
  3
Layout1
350
10
  3
Model
350
B
  0
DICTIONARY
  5
884
102
{ACAD_REACTORS
330
7
102
}
330
7
100
AcDbDictionary
281
     1
  3
ByBlock
350
10B0
  3
ByLayer
350
10AF
  3
Global
350
10B1
  0
DICTIONARY
  5
3370D
102
{ACAD_REACTORS
330
7
102
}
330
7
100
AcDbDictionary
281
     1
  3
Standard
350
3370E
  0
DICTIONARY
  5
25
102
{ACAD_REACTORS
330
7
102
}
330
7
100
AcDbDictionary
281
     1
  3
STANDARD
350
28
  0
DICTIONARY
  5
26
102
{ACAD_REACTORS
330
7
102
}
330
7
100
AcDbDictionary
281
     1
  3
3010
350
1A21
  3
5000N
350
1A1F
  3
Minolta
350
1A22
  3
PDF
350
1A20
  0
ACDBDICTIONARYWDFLT
  5
6
102
{ACAD_REACTORS
330
7
102
}
330
7
100
AcDbDictionary
281
     1
  3
Normal
350
5
100
AcDbDictionaryWithDefault
340
5
  0
DICTIONARY
  5
336FB
102
{ACAD_REACTORS
330
7
102
}
330
7
100
AcDbDictionary
281
     1
  3
A0
350
336FC
  3
A1
350
336FD
  3
A2
350
336FE
  3
A3
350
336FF
  3
A4
350
33700
  3
A5
350
33701
  3
A6
350
33702
  3
A7
350
33703
  3
A8
350
33704
  3
A9
350
33705
  3
B0
350
33706
  3
B1
350
33707
  3
B2
350
33708
  3
B3
350
33709
  3
B4
350
3370A
  3
B5
350
3370B
  3
B6
350
3370C
  0
DICTIONARY
  5
886
102
{ACAD_REACTORS
330
7
102
}
330
7
100
AcDbDictionary
281
     1
  3
Standard
350
887
  0
DICTIONARY
  5
10B2
102
{ACAD_REACTORS
330
7
102
}
330
7
100
AcDbDictionary
281
     1
  3
2dWireframe
350
10B8
  3
3D Hidden
350
1D4F
  3
3dWireframe
350
1D50
  3
Basic
350
10B7
  3
Brighten
350
10BE
  3
ColorChange
350
10C2
  3
Conceptual
350
1D51
  3
Dim
350
10BD
  3
EdgeColorOff
350
336FA
  3
Facepattern
350
10C1
  3
Flat
350
10B3
  3
FlatWithEdges
350
10B4
  3
Gouraud
350
10B5
  3
GouraudWithEdges
350
10B6
  3
Hidden
350
336F2
  3
JitterOff
350
336F8
  3
Linepattern
350
10C0
  3
OverhangOff
350
336F9
  3
Realistic
350
1D52
  3
Shaded
350
336F7
  3
Shaded with edges
350
336F6
  3
Shades of Gray
350
336F3
  3
Sketchy
350
336F4
  3
Thicken
350
10BF
  3
Wireframe
350
336F1
  3
X-Ray
350
336F5
  0
XRECORD
  5
33143
102
{ACAD_REACTORS
330
7
102
}
330
7
100
AcDbXrecord
280
     1
 90
   990106
  3

 60
     0
 61
     0
 62
     1
 63
     1
 64
     0
 65
     0
 66
     1
 67
     3
 68
     0
 69
     0
 70
     0
 71
     0
 72
     0
 40
0.0
170
     2
340
36410
  0
XRECORD
  5
36716
102
{ACAD_REACTORS
330
7
102
}
330
7
100
AcDbXrecord
280
     1
 90
        1
330
887
  0
DICTIONARY
  5
3AC
102
{ACAD_REACTORS
330
7
102
}
330
7
100
AcDbDictionary
281
     1
  3
CANNOSCALE
350
34BC7
  3
CMLEADERSTYLE
350
34BC5
  3
CTABLESTYLE
350
89F
  3
DIMASSOC
350
3AD
  3
DRAWORDERCTL
350
36713
  3
INDEXCTL
350
366BD
  3
LAYEREVAL
350
34BC9
  3
LAYERNOTIFY
350
34BCA
  3
LIGHTINGUNITS
350
34BC8
  3
MSLTSCALE
350
34BC6
  3
SORTENTS
350
366BC
  3
XCLIPFRAME
350
36714
  0
DICTIONARY
  5
A2E
102
{ACAD_REACTORS
330
7
102
}
330
7
100
AcDbDictionary
281
     1
  0
DICTIONARY
  5
356BC
102
{ACAD_REACTORS
330
7
102
}
330
7
100
AcDbDictionary
281
     1
  0
DICTIONARY
  5
1053
102
{ACAD_REACTORS
330
7
102
}
330
7
100
AcDbDictionary
281
     1
  3
ASEBlockHierarchyIndexRecord
350
1054
1001
DCO15
1040
1542711923.111
  0
XRECORD
  5
36717
102
{ACAD_REACTORS
330
7
102
}
330
7
100
AcDbXrecord
280
     1
  1
DWGPROPS COOKIE
  2

  3

  4

  6

  7

  8
afrazier
  9

300
=
301
=
302
=
303
=
304
=
305
=
306
=
307
=
308
=
309
=
 40
0.6858869675925927
 41
2451225.386950695
 42
2456800.598870903
  1

 90
        0
  0
DICTIONARY
  5
1092
102
{ACAD_REACTORS
330
899
102
}
330
899
100
AcDbDictionary
281
     1
  0
DICTIONARY
  5
89A
102
{ACAD_REACTORS
330
899
102
}
330
899
100
AcDbDictionary
281
     1
  3
_LAYISO_STATE
350
335FC
1001
AcLayerTools
1000
B
1000
0
  0
DICTIONARY
  5
1091
102
{ACAD_REACTORS
330
899
102
}
330
899
100
AcDbDictionary
281
     1
1001
ACAD
1000
<All
  0
XRECORD
  5
34BB9
102
{ACAD_REACTORS
330
34BB8
102
}
330
34BB8
100
AcDbXrecord
280
     1
290
     1
  0
XRECORD
  5
1A63
102
{ACAD_REACTORS
330
1A62
102
}
330
1A62
100
AcDbXrecord
280
     1
290
     1
  0
XRECORD
  5
1A69
102
{ACAD_REACTORS
330
1A68
102
}
330
1A68
100
AcDbXrecord
280
     1
290
     1
  0
XRECORD
  5
1A7B
102
{ACAD_REACTORS
330
1A7A
102
}
330
1A7A
100
AcDbXrecord
280
     1
290
     1
  0
XRECORD
  5
1A7E
102
{ACAD_REACTORS
330
1A7D
102
}
330
1A7D
100
AcDbXrecord
280
     1
290
     1
  0
XRECORD
  5
1A81
102
{ACAD_REACTORS
330
1A80
102
}
330
1A80
100
AcDbXrecord
280
     1
290
     1
  0
XRECORD
  5
1A93
102
{ACAD_REACTORS
330
1A92
102
}
330
1A92
100
AcDbXrecord
280
     1
290
     1
  0
SORTENTSTABLE
  5
31E98
102
{ACAD_REACTORS
330
31E97
102
}
330
31E97
100
AcDbSortentsTable
330
2
331
335E4
  5
3659A
331
3365F
  5
365B9
331
3354A
  5
3655C
331
335E0
  5
36596
331
3365B
  5
365B5
331
33546
  5
36558
331
363BC
  5
36649
331
335CD
  5
36585
331
335DC
  5
36592
331
335D8
  5
3658E
331
363F7
  5
36684
331
33542
  5
36553
331
363B8
  5
36645
331
335C9
  5
36581
331
363B4
  5
36641
331
363F3
  5
36680
331
363B0
  5
3663D
331
365CF
  5
3366D
331
365CB
  5
33669
331
36645
  5
363B0
331
365C7
  5
33665
331
36606
  5
36371
331
36641
  5
363AC
331
36602
  5
362E7
331
3663D
  5
363A8
331
3369B
  5
365F5
331
3667C
  5
363E7
331
365C3
  5
33661
331
36555
  5
366A0
331
36639
  5
363A4
331
36678
  5
363E3
331
33697
  5
365F1
331
36386
  5
36613
331
36382
  5
3660F
331
3654D
  5
366A4
331
3658C
  5
335CB
331
33693
  5
365ED
331
36549
  5
366A7
331
36588
  5
335C7
331
33657
  5
365B1
331
335C5
  5
3657D
331
335D4
  5
3658A
331
33653
  5
365AD
331
3353E
  5
3654D
331
3353A
  5
36548
331
335C1
  5
36579
331
363EF
  5
3667C
331
3364F
  5
365A9
331
33536
  5
3640E
331
335BD
  5
36575
331
363AC
  5
36639
331
363EB
  5
36678
331
363E7
  5
36674
331
363A8
  5
36635
331
335B9
  5
36571
331
363A4
  5
36631
331
363E3
  5
36670
331
363A0
  5
3662D
331
365BF
  5
3365D
331
365FE
  5
362DE
331
366A7
  5
334BA
331
365BB
  5
33659
331
365FA
  5
33698
331
36635
  5
363A0
331
36674
  5
363DF
331
366A3
  5
334D9
331
36670
  5
363DB
331
365B7
  5
33655
331
365F6
  5
33694
331
3368F
  5
365E9
331
3637E
  5
3660B
331
36631
  5
3639C
331
365F2
  5
33690
331
3662D
  5
36398
331
3666C
  5
363D7
331
36584
  5
335C3
331
3368B
  5
365E5
331
3637A
  5
36607
331
365B3
  5
33651
331
36629
  5
36394
331
36668
  5
363D3
331
36489
  5
365A8
331
36580
  5
335BF
331
33687
  5
365E1
331
36376
  5
36603
331
36372
  5
365FF
331
3657C
  5
335BB
331
33683
  5
365DD
331
36578
  5
335A9
331
334DA
  5
363FD
331
335A9
  5
3656F
331
363DF
  5
3666C
331
335A5
  5
3656B
331
3639C
  5
36629
331
363DB
  5
36668
331
363D7
  5
36664
331
36398
  5
36625
331
335A1
  5
36567
331
363D3
  5
36660
331
36394
  5
36621
331
36390
  5
3661D
331
3669F
  5
334DE
331
3669B
  5
3353D
331
365EE
  5
3368C
331
365AF
  5
335FD
331
36697
  5
3353E
331
365AB
  5
335F8
331
365EA
  5
33688
331
36625
  5
36390
331
36664
  5
363CF
331
36693
  5
33542
331
36660
  5
363CB
331
365A7
  5
335E8
331
365E6
  5
33684
331
3367F
  5
365D9
331
36621
  5
3638C
331
3661D
  5
36388
331
36574
  5
335A5
331
3367B
  5
365D5
331
3665C
  5
363C7
331
365A3
  5
335E4
331
365E2
  5
33680
331
36619
  5
36384
331
36570
  5
335A1
331
33677
  5
365D1
331
36658
  5
363C3
331
36411
  5
3654B
331
3656C
  5
33552
331
33673
  5
365CD
331
36409
  5
36696
331
36568
  5
3640B
331
3359D
  5
36563
331
335F3
  5
365A1
331
363CF
  5
3665C
331
334BA
  5
3354C
331
3638C
  5
36619
331
363CB
  5
36658
331
36388
  5
36615
331
363C7
  5
36654
331
363C3
  5
36650
331
3668F
  5
33546
331
3668B
  5
363F6
331
365DE
  5
3367C
331
3659F
  5
335E0
331
36687
  5
363F2
331
3659B
  5
335DC
331
365DA
  5
33678
331
36615
  5
36380
331
36654
  5
363BF
331
36683
  5
363EE
331
36650
  5
363BB
331
36597
  5
335D8
331
365D6
  5
33674
331
3366F
  5
365C9
331
362E6
  5
365F9
331
36611
  5
3637C
331
3660D
  5
36378
331
3366B
  5
365C5
331
3664C
  5
363B7
331
36593
  5
335D4
331
365D2
  5
33670
331
36405
  5
36692
331
36564
  5
36407
331
36609
  5
36374
331
36648
  5
363B3
331
36560
  5
36403
331
33667
  5
365C1
331
362DE
  5
365F6
331
36401
  5
3668E
331
363FD
  5
3668A
331
3655C
  5
3669B
331
33663
  5
365BD
331
363F9
  5
36686
331
36558
  5
3669D
331
335E7
  5
3659D
331
335E3
  5
36599
331
3354D
  5
3655F
331
3365E
  5
365B8
331
33549
  5
3655B
331
363BF
  5
3664C
331
335DF
  5
36595
331
335DB
  5
36591
331
3365A
  5
365B4
331
33545
  5
36557
331
363BB
  5
36648
331
335CC
  5
36584
331
363F6
  5
36683
331
33541
  5
36550
331
363B7
  5
36644
331
335C8
  5
36580
331
363B3
  5
36640
331
363F2
  5
3667F
331
365CE
  5
3366C
331
365CA
  5
33668
331
36644
  5
363AF
331
36640
  5
363AB
331
3667F
  5
363EA
331
365C6
  5
33664
331
36605
  5
362F0
331
36601
  5
362E6
331
3663C
  5
363A7
331
3369A
  5
365F4
331
3667B
  5
363E6
331
365C2
  5
33660
331
36554
  5
3669F
331
36385
  5
36612
331
36638
  5
363A3
331
36550
  5
366A3
331
3658F
  5
335CE
331
33696
  5
365F0
331
36381
  5
3660E
331
3654C
  5
366AA
331
3658B
  5
335CA
331
33692
  5
365EC
331
36548
  5
366A6
331
335D7
  5
3658D
331
33656
  5
365B0
331
335C4
  5
3657C
331
335D3
  5
36589
331
33652
  5
365AC
331
3353D
  5
3654C
331
33539
  5
36411
331
335C0
  5
36578
331
363AF
  5
3663C
331
363EE
  5
3667B
331
33535
  5
3640C
331
335BC
  5
36574
331
363AB
  5
36638
331
363EA
  5
36677
331
363E6
  5
36673
331
363A7
  5
36634
331
363A3
  5
36630
331
363E2
  5
3666F
331
366AA
  5
334B9
331
365BE
  5
3365C
331
365FD
  5
3369B
331
36677
  5
363E2
331
366A6
  5
334D1
331
36673
  5
363DE
331
365BA
  5
33658
331
365F9
  5
33697
331
36634
  5
3639F
331
366A2
  5
334D8
331
3666F
  5
363DA
331
365B6
  5
33654
331
365F5
  5
33693
331
3368E
  5
365E8
331
3637D
  5
3660A
331
36587
  5
335C6
331
36630
  5
3639B
331
365F1
  5
3368F
331
3662C
  5
36397
331
3666B
  5
363D6
331
36583
  5
335C2
331
3368A
  5
365E4
331
36379
  5
36606
331
365B2
  5
33650
331
36628
  5
36393
331
36488
  5
365A7
331
3657F
  5
335BE
331
33686
  5
365E0
331
36375
  5
36602
331
36371
  5
365FE
331
3657B
  5
335BA
331
33682
  5
365DC
331
334D9
  5
363FC
331
335A8
  5
3656E
331
3639F
  5
3662C
331
363DE
  5
3666B
331
335FE
  5
363FA
331
335A4
  5
3656A
331
3639B
  5
36628
331
363DA
  5
36667
331
363D6
  5
36663
331
36397
  5
36624
331
335A0
  5
36566
331
36393
  5
36620
331
363D2
  5
3665F
331
3669E
  5
334DD
331
3669A
  5
3353B
331
365AE
  5
335FB
331
365ED
  5
3368B
331
36667
  5
363D2
331
36696
  5
33541
331
365AA
  5
335F3
331
365E9
  5
33687
331
36624
  5
3638F
331
36663
  5
363CE
331
36692
  5
33545
331
3665F
  5
363CA
331
365A6
  5
335E7
331
365E5
  5
33683
331
3367E
  5
365D8
331
36577
  5
335A8
331
36620
  5
3638B
331
365E1
  5
3367F
331
3661C
  5
36387
331
36573
  5
335A4
331
3367A
  5
365D4
331
3665B
  5
363C6
331
365A2
  5
335E3
331
36618
  5
36383
331
3656F
  5
335A0
331
33676
  5
365D0
331
362E9
  5
365FC
331
3656B
  5
33551
331
33672
  5
365CC
331
36408
  5
36695
331
3359C
  5
36562
331
335F2
  5
365A0
331
334B9
  5
3354B
331
3638F
  5
3661C
331
363CE
  5
3665B
331
3638B
  5
36618
331
363CA
  5
36657
331
363C6
  5
36653
331
33550
  5
36560
331
363C2
  5
3664F
331
3668E
  5
33549
331
3668A
  5
363F5
331
365DD
  5
3367B
331
36657
  5
363C2
331
3659E
  5
335DF
331
36686
  5
363F1
331
3659A
  5
335DB
331
365D9
  5
33677
331
36614
  5
3637F
331
36653
  5
363BE
331
36682
  5
363ED
331
3664F
  5
363BA
331
36596
  5
335D7
331
365D5
  5
33673
331
3366E
  5
365C8
331
362E5
  5
365F8
331
36567
  5
3640A
331
36610
  5
3637B
331
3660C
  5
36377
331
36563
  5
36406
331
3366A
  5
365C4
331
3664B
  5
363B6
331
36592
  5
335D3
331
36404
  5
36691
331
365D1
  5
3366F
331
36608
  5
36373
331
3655F
  5
36402
331
33666
  5
365C0
331
36400
  5
3668D
331
363FC
  5
36689
331
3655B
  5
3669A
331
33662
  5
365BC
331
363F8
  5
36685
331
335E6
  5
3659C
331
3354C
  5
3655E
331
335E2
  5
36598
331
3365D
  5
365B7
331
33548
  5
3655A
331
363BE
  5
3664B
331
335CF
  5
36587
331
335DE
  5
36594
331
335DA
  5
36590
331
33659
  5
365B3
331
33544
  5
36555
331
363BA
  5
36647
331
335CB
  5
36583
331
363F5
  5
36682
331
33540
  5
3654F
331
363B6
  5
36643
331
363B2
  5
3663F
331
363F1
  5
3667E
331
365CD
  5
3366B
331
36647
  5
363B2
331
365C9
  5
33667
331
36643
  5
363AE
331
3663F
  5
363AA
331
3667E
  5
363E9
331
365C5
  5
33663
331
36557
  5
3669C
331
36604
  5
362E9
331
36600
  5
362E5
331
3663B
  5
363A6
331
33699
  5
365F3
331
3667A
  5
363E5
331
365C1
  5
3365F
331
36553
  5
3669E
331
36384
  5
36611
331
3654F
  5
366A2
331
3658E
  5
335CD
331
33695
  5
365EF
331
33691
  5
365EB
331
36380
  5
3660D
331
3654B
  5
366A9
331
3658A
  5
335C9
331
335C7
  5
3657F
331
335D6
  5
3658C
331
33655
  5
365AF
331
335C3
  5
3657B
331
335D2
  5
36588
331
33651
  5
365AB
331
3353C
  5
3654A
331
33538
  5
36410
331
335BF
  5
36577
331
363AE
  5
3663B
331
363ED
  5
3667A
331
335BB
  5
36573
331
363AA
  5
36637
331
363E9
  5
36676
331
363E5
  5
36672
331
363A6
  5
36633
331
363A2
  5
3662F
331
363E1
  5
3666E
331
366A9
  5
334B8
331
365BD
  5
3365B
331
365FC
  5
3369A
331
36637
  5
363A2
331
36676
  5
363E1
331
366A5
  5
334D0
331
36672
  5
363DD
331
365B9
  5
33657
331
365F8
  5
33696
331
36633
  5
3639E
331
366A1
  5
334DC
331
3662F
  5
3639A
331
3666E
  5
363D9
331
3368D
  5
365E7
331
3637C
  5
36609
331
365B5
  5
33653
331
365F4
  5
33692
331
36586
  5
335C5
331
365F0
  5
3368E
331
3662B
  5
36396
331
3666A
  5
363D5
331
36582
  5
335C1
331
33689
  5
365E3
331
36378
  5
36605
331
365B1
  5
335FF
331
36374
  5
36601
331
36487
  5
365A6
331
3657E
  5
335BD
331
33685
  5
365DF
331
36483
  5
365A4
331
3657A
  5
335B9
331
33681
  5
365DB
331
334DC
  5
363FF
331
334D8
  5
363FB
331
335A7
  5
3656D
331
3639E
  5
3662B
331
363DD
  5
3666A
331
335F9
  5
365A3
331
335A3
  5
36569
331
3639A
  5
36627
331
363D9
  5
36666
331
363D5
  5
36662
331
334D0
  5
363F8
331
36396
  5
36623
331
36392
  5
3661F
331
363D1
  5
3665E
331
3669D
  5
33539
331
36699
  5
3353A
331
365AD
  5
335FA
331
365EC
  5
3368A
331
36627
  5
36392
331
36666
  5
363D1
331
36695
  5
33540
331
36662
  5
363CD
331
365A9
  5
335F2
331
365E8
  5
33686
331
36623
  5
3638E
331
36691
  5
33544
331
3665E
  5
363C9
331
365A5
  5
335E6
331
365E4
  5
33682
331
3367D
  5
365D7
331
36576
  5
335A7
331
3661F
  5
3638A
331
365E0
  5
3367E
331
3661B
  5
36386
331
3665A
  5
363C5
331
36572
  5
335A3
331
33679
  5
365D3
331
362F0
  5
365FD
331
365A1
  5
335E2
331
3656E
  5
3359F
331
33675
  5
365CF
331
362E8
  5
365FB
331
3656A
  5
3354F
331
33671
  5
365CB
331
3359F
  5
36565
331
3359B
  5
36561
331
335F1
  5
3659F
331
334B8
  5
3354A
331
3638E
  5
3661B
331
363CD
  5
3665A
331
3638A
  5
36617
331
363C9
  5
36656
331
363C5
  5
36652
331
363C1
  5
3664E
331
3668D
  5
33548
331
36689
  5
363F4
331
3659D
  5
335DE
331
365DC
  5
3367A
331
36617
  5
36382
331
36656
  5
363C1
331
36685
  5
363F0
331
36599
  5
335DA
331
365D8
  5
33676
331
36613
  5
3637E
331
36652
  5
363BD
331
36681
  5
363EC
331
3664E
  5
363B9
331
36595
  5
335D6
331
365D4
  5
33672
331
3366D
  5
365C7
331
362E4
  5
365F7
331
36407
  5
36694
331
36566
  5
36409
331
3660F
  5
3637A
331
365D0
  5
3366E
331
3660B
  5
36376
331
36562
  5
36405
331
33669
  5
365C3
331
3664A
  5
363B5
331
36591
  5
335D2
331
36403
  5
36690
331
363FF
  5
3668C
331
3655E
  5
36401
331
33665
  5
365BF
331
363FB
  5
36688
331
3655A
  5
36699
331
33661
  5
365BB
331
335E5
  5
3659B
331
3354B
  5
3655D
331
335E1
  5
36597
331
3365C
  5
365B6
331
33547
  5
36559
331
363BD
  5
3664A
331
335CE
  5
36586
331
335DD
  5
36593
331
335D9
  5
3658F
331
33658
  5
365B2
331
33543
  5
36554
331
363B9
  5
36646
331
335CA
  5
36582
331
363B5
  5
36642
331
363F4
  5
36681
331
363B1
  5
3663E
331
363F0
  5
3667D
331
365CC
  5
3366A
331
36646
  5
363B1
331
365C8
  5
33666
331
36607
  5
36372
331
36642
  5
363AD
331
36603
  5
362E8
331
3663E
  5
363A9
331
3667D
  5
363E8
331
365C4
  5
33662
331
36556
  5
366A1
331
3663A
  5
363A5
331
36679
  5
363E4
331
33698
  5
365F2
331
36387
  5
36614
331
365C0
  5
3365E
331
36383
  5
36610
331
3654E
  5
366A5
331
3658D
  5
335CC
331
33694
  5
365EE
331
33690
  5
365EA
331
3654A
  5
366A8
331
36589
  5
335C8
331
335C6
  5
3657E
331
335D5
  5
3658B
331
33654
  5
365AE
331
3353F
  5
3654E
331
3353B
  5
36549
331
335C2
  5
3657A
331
33650
  5
365AA
331
33537
  5
3640F
331
335BE
  5
36576
331
363AD
  5
3663A
331
363EC
  5
36679
331
363E8
  5
36675
331
363A9
  5
36636
331
335BA
  5
36572
331
363E4
  5
36671
331
363A5
  5
36632
331
363A1
  5
3662E
331
363E0
  5
3666D
331
365FF
  5
362E4
331
366A8
  5
334BB
331
365BC
  5
3365A
331
365FB
  5
33699
331
36636
  5
363A1
331
36675
  5
363E0
331
366A4
  5
334DA
331
36671
  5
363DC
331
365B8
  5
33656
331
365F7
  5
33695
331
3637F
  5
3660C
331
36632
  5
3639D
331
366A0
  5
334DB
331
3662E
  5
36399
331
3666D
  5
363D8
331
36585
  5
335C4
331
3368C
  5
365E6
331
3637B
  5
36608
331
365B4
  5
33652
331
365F3
  5
33691
331
3662A
  5
36395
331
36669
  5
363D4
331
36581
  5
335C0
331
33688
  5
365E2
331
36377
  5
36604
331
365B0
  5
335FE
331
36373
  5
36600
331
36486
  5
365A5
331
3657D
  5
335BC
331
33684
  5
365DE
331
33680
  5
365DA
331
36579
  5
335AA
331
335AA
  5
36570
331
33600
  5
36556
331
334DB
  5
363FE
331
334D7
  5
363F9
331
335A6
  5
3656C
331
3639D
  5
3662A
331
363DC
  5
36669
331
335F8
  5
365A2
331
335A2
  5
36568
331
36399
  5
36626
331
363D8
  5
36665
331
363D4
  5
36661
331
36395
  5
36622
331
36391
  5
3661E
331
363D0
  5
3665D
331
3669C
  5
33538
331
365EF
  5
3368D
331
36698
  5
3353F
331
365AC
  5
335F9
331
365EB
  5
33689
331
36626
  5
36391
331
36665
  5
363D0
331
36694
  5
33543
331
36661
  5
363CC
331
365A8
  5
335F1
331
365E7
  5
33685
331
36622
  5
3638D
331
36690
  5
33547
331
3661E
  5
36389
331
3367C
  5
365D6
331
3665D
  5
363C8
331
365A4
  5
335E5
331
365E3
  5
33681
331
36575
  5
335A6
331
3661A
  5
36385
331
36571
  5
335A2
331
33678
  5
365D2
331
36659
  5
363C4
331
365A0
  5
335E1
331
3656D
  5
33554
331
33674
  5
365CE
331
3640A
  5
36697
331
36569
  5
3354E
331
33670
  5
365CA
331
3359E
  5
36564
331
334BB
  5
3354D
331
3638D
  5
3661A
331
363CC
  5
36659
331
335E8
  5
3659E
331
36389
  5
36616
331
363C8
  5
36655
331
363C4
  5
36651
331
363C0
  5
3664D
331
3668C
  5
363F7
331
365DF
  5
3367D
331
36688
  5
363F3
331
3659C
  5
335DD
331
365DB
  5
33679
331
36616
  5
36381
331
36655
  5
363C0
331
36684
  5
363EF
331
36651
  5
363BC
331
36598
  5
335D9
331
365D7
  5
33675
331
362E7
  5
365FA
331
36612
  5
3637D
331
36680
  5
363EB
331
3664D
  5
363B8
331
36594
  5
335D5
331
365D3
  5
33671
331
3366C
  5
365C6
331
36406
  5
36693
331
36565
  5
36408
331
3660E
  5
36379
331
3660A
  5
36375
331
36561
  5
36404
331
33668
  5
365C2
331
36649
  5
363B4
331
36590
  5
335CF
331
36402
  5
3668F
331
363FE
  5
3668B
331
3655D
  5
36400
331
33664
  5
365BE
331
363FA
  5
36687
331
36559
  5
36698
331
33660
  5
365BA
  0
SORTENTSTABLE
  5
1D73
102
{ACAD_REACTORS
330
1D72
102
}
330
1D72
100
AcDbSortentsTable
330
D
331
5D
  5
5D
  0
XRECORD
  5
3671D
102
{ACAD_REACTORS
330
3671C
102
}
330
3671C
100
AcDbXrecord
280
     1
102
SHADEPLOT
 70
     0
  0
XRECORD
  5
36719
102
{ACAD_REACTORS
330
36718
102
}
330
36718
100
AcDbXrecord
280
     1
340
1D50
  0
GROUP
  5
27C
102
{ACAD_REACTORS
330
24
102
}
330
24
100
AcDbGroup
300

 70
     3
 71
     1
  0
GROUP
  5
27D
102
{ACAD_REACTORS
330
24
102
}
330
24
100
AcDbGroup
300

 70
     3
 71
     1
  0
GROUP
  5
398
102
{ACAD_REACTORS
330
24
102
}
330
24
100
AcDbGroup
300

 70
     3
 71
     1
  0
GROUP
  5
399
102
{ACAD_REACTORS
330
24
102
}
330
24
100
AcDbGroup
300

 70
     3
 71
     1
  0
LAYOUT
  5
10
102
{ACAD_XDICTIONARY
360
89C
102
}
102
{ACAD_REACTORS
330
C
102
}
330
C
100
AcDbPlotSettings
  1

  2
HP 5000 N
  4
Letter
  6

 40
5.027082920074462
 41
5.408084392547606
 42
5.365737915039061
 43
5.365753173828125
 44
215.8999938964844
 45
279.3999938964844
 46
4.140880409212495
 47
4.709578165054337
 48
0.0
 49
0.0
140
10.205
141
7.764780009564798
142
1.0
143
1.0
 70
   692
 72
     0
 73
     1
 74
     4
  7
GORDON-BLK.ctb
 75
    16
147
1.0
148
0.0
149
0.0
100
AcDbLayout
  1
Layout1
 70
     1
 71
     1
 10
-0.2079161059762549
 20
-0.2079166691697489
 11
10.79208365372785
 21
8.29208309053436
 12
0.0
 22
0.0
 32
0.0
 14
0.0
 24
0.0
 34
0.0
 15
10.205
 25
7.764780009564798
 35
0.0
146
0.0
 13
0.0
 23
0.0
 33
0.0
 16
1.0
 26
0.0
 36
0.0
 17
0.0
 27
1.0
 37
0.0
 76
     0
330
D
331
5D
1001
ACAD_PSEXT
1000
HP 5000 N
1000
HP LaserJet 5100 PS
1000
IP_192.168.100.208
1000

1070
     0
  0
LAYOUT
  5
B
102
{ACAD_XDICTIONARY
360
3641F
102
}
102
{ACAD_REACTORS
330
C
102
}
330
C
100
AcDbPlotSettings
  1

  2
HP 1055CM+ Roll.pc3
  4
User257
  6

 40
4.995333194732666
 41
13.2922945022583
 42
4.99530029296875
 43
13.29296875
 44
899.1599731445312
 45
15239.9150390625
 46
0.0
 47
0.0
 48
1.592118068029931
 49
1.083964621542295
140
10.45538313863936
141
6.686027752030966
142
1.0
143
1.0
 70
 11952
 72
     0
 73
     1
 74
     4
  7
5000N-BLACK.ctb
 75
    16
147
1.0
148
-40.4397989279603
149
-27.53270138717434
100
AcDbLayout
  1
Model
 70
     1
 71
     0
 10
0.0
 20
0.0
 11
12.0
 21
9.0
 12
0.0
 22
0.0
 32
0.0
 14
0.0
 24
0.0
 34
0.0
 15
0.0
 25
0.0
 35
0.0
146
0.0
 13
0.0
 23
0.0
 33
0.0
 16
1.0
 26
0.0
 36
0.0
 17
0.0
 27
1.0
 37
0.0
 76
     0
330
2
331
882
  0
MATERIAL
  5
10B0
102
{ACAD_XDICTIONARY
360
366CC
102
}
102
{ACAD_REACTORS
330
884
102
}
330
884
100
AcDbMaterial
  1
ByBlock
 73
     1
 78
     1
172
     1
176
     1
270
     1
274
     1
  0
MATERIAL
  5
10AF
102
{ACAD_XDICTIONARY
360
366CA
102
}
102
{ACAD_REACTORS
330
884
102
}
330
884
100
AcDbMaterial
  1
ByLayer
 73
     1
 78
     1
172
     1
176
     1
270
     1
274
     1
  0
MATERIAL
  5
10B1
102
{ACAD_XDICTIONARY
360
366CE
102
}
102
{ACAD_REACTORS
330
884
102
}
330
884
100
AcDbMaterial
  1
Global
 73
     1
 78
     1
172
     1
176
     1
270
     1
274
     1
  0
MLEADERSTYLE
  5
3370E
102
{ACAD_REACTORS
330
3370D
102
}
330
3370D
100
AcDbMLeaderStyle
170
     2
171
     1
172
     0
 90
        2
 40
0.0
 41
0.0
173
     1
 91
-1056964608
340
16
 92
       -2
290
     1
 42
0.09
291
     1
 43
0.36
  3
Standard
 44
0.18
300

342
13
174
     1
178
     6
175
     1
176
     0
 93
-1056964608
 45
0.18
292
     0
297
     0
 46
0.18
 94
-1056964608
 47
1.0
 49
1.0
140
1.0
293
     1
141
0.0
294
     1
177
     0
142
1.0
295
     0
296
     0
143
0.125
1001
ACAD_MLEADERVER
1070
     2
  0
MLINESTYLE
  5
28
102
{ACAD_REACTORS
330
25
102
}
330
25
100
AcDbMlineStyle
  2
STANDARD
 70
     0
  3

 62
   256
 51
90.0
 52
90.0
 71
     2
 49
0.5
 62
   256
  6
BYLAYER
 49
-0.5
 62
   256
  6
BYLAYER
  0
PLOTSETTINGS
  5
1A21
102
{ACAD_XDICTIONARY
360
3673B
102
}
102
{ACAD_REACTORS
330
26
102
}
330
26
100
AcDbPlotSettings
  1
3010
  2
\\User-server\3010
  4
Letter
  6

 40
6.000749588012695
 41
6.000745773315428
 42
6.000747680664062
 43
6.000762939453125
 44
215.8999938964844
 45
279.3999938964844
 46
3.336542192430866
 47
4.095742591857943
 48
0.0
 49
0.0
140
10.205
141
7.764780009564798
142
1.0
143
1.0
 70
  2740
 72
     0
 73
     1
 74
     4
  7
GORDON-BLK.ctb
 75
    16
147
1.0
148
0.0
149
0.0
1001
ACAD_PSEXT
1000
\\User-server\3010
1000
KONICA MINOLTA Di3010 PCL6
1000
\\User-server
1000

1070
     0
  0
PLOTSETTINGS
  5
1A1F
102
{ACAD_XDICTIONARY
360
36737
102
}
102
{ACAD_REACTORS
330
26
102
}
330
26
100
AcDbPlotSettings
  1
5000N
  2
HP 5000 N
  4
Letter
  6

 40
4.233333110809326
 41
4.233341693878172
 42
4.233322143554686
 43
4.23333740234375
 44
215.8999938964844
 45
279.3999938964844
 46
5.103963199587251
 47
5.863157400131249
 48
0.0
 49
0.0
140
10.205
141
7.764780009564798
142
1.0
143
1.0
 70
  2740
 72
     0
 73
     1
 74
     4
  7
GORDON-BLK.ctb
 75
    16
147
1.0
148
0.0
149
0.0
1001
ACAD_PSEXT
1000
HP 5000 N
1000
HP LaserJet 5100 PCL 6
1000
IP_192.168.100.208
1000

1070
     0
  0
PLOTSETTINGS
  5
1A22
102
{ACAD_XDICTIONARY
360
3673D
102
}
102
{ACAD_REACTORS
330
26
102
}
330
26
100
AcDbPlotSettings
  1
Minolta
  2
\\User-server\Minolta
  4
Letter
  6

 40
6.085416316986081
 41
6.085421085357666
 42
6.085403442382812
 43
6.085418701171875
 44
215.8999938964844
 45
279.3999938964844
 46
3.251880947084776
 47
4.011077054977445
 48
0.0
 49
0.0
140
10.205
141
7.764780009564798
142
1.0
143
1.0
 70
  2740
 72
     0
 73
     1
 74
     4
  7
GORDON-BLK.ctb
 75
    16
147
1.0
148
0.0
149
0.0
1001
ACAD_PSEXT
1000
\\User-server\Minolta
1000
CopierBW Ver 1.1
1000
\\User-server
1000

1070
     0
  0
PLOTSETTINGS
  5
1A20
102
{ACAD_XDICTIONARY
360
36739
102
}
102
{ACAD_REACTORS
330
26
102
}
330
26
100
AcDbPlotSettings
  1
PDF
  2
Acrobat PDFWriter
  4
Letter
  6

 40
3.174999952316283
 41
3.174999952316283
 42
3.175003051757812
 43
3.17498779296875
 44
215.8999938964844
 45
279.3999938964844
 46
6.162289324732188
 47
6.921503075599713
 48
0.0
 49
0.0
140
10.205
141
7.764780009564798
142
1.0
143
1.0
 70
  2740
 72
     0
 73
     1
 74
     4
  7
GORDON-BLK.ctb
 75
    16
147
1.0
148
0.0
149
0.0
1001
ACAD_PSEXT
1000
Acrobat PDFWriter
1000
Adobe PDF Converter
1000
My Documents
1000
Creates Adobe PDF
1070
     0
  0
ACDBPLACEHOLDER
  5
5
102
{ACAD_REACTORS
330
6
102
}
330
6
  0
SCALE
  5
336FC
102
{ACAD_REACTORS
330
336FB
102
}
330
336FB
100
AcDbScale
 70
     0
300
1:1
140
1.0
141
1.0
290
     1
  0
SCALE
  5
336FD
102
{ACAD_REACTORS
330
336FB
102
}
330
336FB
100
AcDbScale
 70
     0
300
1/128" = 1'-0"
140
0.0078125
141
12.0
290
     0
  0
SCALE
  5
336FE
102
{ACAD_REACTORS
330
336FB
102
}
330
336FB
100
AcDbScale
 70
     0
300
1/64" = 1'-0"
140
0.015625
141
12.0
290
     0
  0
SCALE
  5
336FF
102
{ACAD_REACTORS
330
336FB
102
}
330
336FB
100
AcDbScale
 70
     0
300
1/32" = 1'-0"
140
0.03125
141
12.0
290
     0
  0
SCALE
  5
33700
102
{ACAD_REACTORS
330
336FB
102
}
330
336FB
100
AcDbScale
 70
     0
300
1/16" = 1'-0"
140
0.0625
141
12.0
290
     0
  0
SCALE
  5
33701
102
{ACAD_REACTORS
330
336FB
102
}
330
336FB
100
AcDbScale
 70
     0
300
3/32" = 1'-0"
140
0.09375
141
12.0
290
     0
  0
SCALE
  5
33702
102
{ACAD_REACTORS
330
336FB
102
}
330
336FB
100
AcDbScale
 70
     0
300
1/8" = 1'-0"
140
0.125
141
12.0
290
     0
  0
SCALE
  5
33703
102
{ACAD_REACTORS
330
336FB
102
}
330
336FB
100
AcDbScale
 70
     0
300
3/16" = 1'-0"
140
0.1875
141
12.0
290
     0
  0
SCALE
  5
33704
102
{ACAD_REACTORS
330
336FB
102
}
330
336FB
100
AcDbScale
 70
     0
300
1/4" = 1'-0"
140
0.25
141
12.0
290
     0
  0
SCALE
  5
33705
102
{ACAD_REACTORS
330
336FB
102
}
330
336FB
100
AcDbScale
 70
     0
300
3/8" = 1'-0"
140
0.375
141
12.0
290
     0
  0
SCALE
  5
33706
102
{ACAD_REACTORS
330
336FB
102
}
330
336FB
100
AcDbScale
 70
     0
300
1/2" = 1'-0"
140
0.5
141
12.0
290
     0
  0
SCALE
  5
33707
102
{ACAD_REACTORS
330
336FB
102
}
330
336FB
100
AcDbScale
 70
     0
300
3/4" = 1'-0"
140
0.75
141
12.0
290
     0
  0
SCALE
  5
33708
102
{ACAD_REACTORS
330
336FB
102
}
330
336FB
100
AcDbScale
 70
     0
300
1" = 1'-0"
140
1.0
141
12.0
290
     0
  0
SCALE
  5
33709
102
{ACAD_REACTORS
330
336FB
102
}
330
336FB
100
AcDbScale
 70
     0
300
1-1/2" = 1'-0"
140
1.5
141
12.0
290
     0
  0
SCALE
  5
3370A
102
{ACAD_REACTORS
330
336FB
102
}
330
336FB
100
AcDbScale
 70
     0
300
3" = 1'-0"
140
3.0
141
12.0
290
     0
  0
SCALE
  5
3370B
102
{ACAD_REACTORS
330
336FB
102
}
330
336FB
100
AcDbScale
 70
     0
300
6" = 1'-0"
140
6.0
141
12.0
290
     0
  0
SCALE
  5
3370C
102
{ACAD_REACTORS
330
336FB
102
}
330
336FB
100
AcDbScale
 70
     0
300
1'-0" = 1'-0"
140
12.0
141
12.0
290
     0
  0
TABLESTYLE
  5
887
102
{ACAD_XDICTIONARY
360
366BF
102
}
102
{ACAD_REACTORS
330
886
102
}
330
886
100
AcDbTableStyle
  3
Standard
 70
     0
 71
     0
 40
0.06
 41
0.06
280
     0
281
     0
  7
STANDARD
140
0.18
170
     2
 62
     0
 63
     7
283
     0
274
    -2
284
     1
 64
     0
275
    -2
285
     1
 65
     0
276
    -2
286
     1
 66
     0
277
    -2
287
     1
 67
     0
278
    -2
288
     1
 68
     0
279
    -2
289
     1
 69
     0
  7
STANDARD
140
0.25
170
     5
 62
     0
 63
     7
283
     0
274
    -2
284
     1
 64
     0
275
    -2
285
     1
 65
     0
276
    -2
286
     1
 66
     0
277
    -2
287
     1
 67
     0
278
    -2
288
     1
 68
     0
279
    -2
289
     1
 69
     0
  7
STANDARD
140
0.18
170
     5
 62
     0
 63
     7
283
     0
274
    -2
284
     1
 64
     0
275
    -2
285
     1
 65
     0
276
    -2
286
     1
 66
     0
277
    -2
287
     1
 67
     0
278
    -2
288
     1
 68
     0
279
    -2
289
     1
 69
     0
  0
VISUALSTYLE
  5
10B8
102
{ACAD_XDICTIONARY
360
36729
102
}
102
{ACAD_REACTORS
330
10B2
102
}
330
10B2
100
AcDbVisualStyle
  2

 70
     4
 71
     0
 72
     2
 73
     0
 90
        0
 40
-0.6
 41
-30.0
 62
     5
 63
     7
 74
     1
 91
        4
 64
     7
 65
   257
 75
     1
175
     1
 42
1.0
 92
        0
 66
   257
 43
1.0
 76
     1
 77
     6
 78
     2
 67
     7
 79
     5
170
     0
171
     0
290
     0
174
     0
 93
        1
 44
0.0
173
     0
291
     0
 45
0.0
1001
ACAD
1000
AcDbSavedByObjectVersion
1070
     0
  0
VISUALSTYLE
  5
1D4F
102
{ACAD_XDICTIONARY
360
3673F
102
}
102
{ACAD_REACTORS
330
10B2
102
}
330
10B2
100
AcDbVisualStyle
  2

 70
     6
 71
     1
 72
     2
 73
     2
 90
        0
 40
-0.6
 41
-30.0
 62
     5
 63
     7
 74
     2
 91
        2
 64
     7
 65
   257
 75
     2
175
     1
 42
40.0
 92
        0
 66
   257
 43
1.0
 76
     1
 77
     6
 78
     2
 67
     7
 79
     3
170
     0
171
     0
290
     0
174
     0
 93
        1
 44
0.0
173
     0
291
     0
 45
0.0
1001
ACAD
1000
AcDbSavedByObjectVersion
1070
     0
  0
VISUALSTYLE
  5
1D50
102
{ACAD_XDICTIONARY
360
36741
102
}
102
{ACAD_REACTORS
330
10B2
102
}
330
10B2
100
AcDbVisualStyle
  2

 70
     5
 71
     0
 72
     2
 73
     0
 90
        0
 40
-0.6
 41
-30.0
 62
     5
 63
     7
 74
     1
 91
        4
 64
     7
 65
   257
 75
     1
175
     1
 42
1.0
 92
        0
 66
   257
 43
1.0
 76
     1
 77
     6
 78
     2
 67
     7
 79
     5
170
     0
171
     0
290
     0
174
     0
 93
        1
 44
0.0
173
     0
291
     0
 45
0.0
1001
ACAD
1000
AcDbSavedByObjectVersion
1070
     0
  0
VISUALSTYLE
  5
10B7
102
{ACAD_XDICTIONARY
360
36727
102
}
102
{ACAD_REACTORS
330
10B2
102
}
330
10B2
100
AcDbVisualStyle
  2

 70
     7
 71
     1
 72
     0
 73
     1
 90
        0
 40
-0.6
 41
-30.0
 62
     5
 63
     7
 74
     0
 91
        4
 64
     7
 65
   257
 75
     1
175
     1
 42
1.0
 92
        8
 66
     7
 43
1.0
 76
     1
 77
     6
 78
     2
 67
     7
 79
     5
170
     0
171
     0
290
     0
174
     0
 93
        1
 44
0.0
173
     0
291
     1
 45
0.0
1001
ACAD
1000
AcDbSavedByObjectVersion
1070
     0
  0
VISUALSTYLE
  5
10BE
102
{ACAD_XDICTIONARY
360
3672D
102
}
102
{ACAD_REACTORS
330
10B2
102
}
330
10B2
100
AcDbVisualStyle
  2

 70
    12
 71
     2
 72
     2
 73
     0
 90
        0
 40
-0.6
 41
-30.0
 62
     5
 63
     7
 74
     1
 91
        4
 64
     7
 65
   257
 75
     1
175
     1
 42
1.0
 92
        8
 66
     7
 43
1.0
 76
     1
 77
     6
 78
     2
 67
     7
 79
     5
170
     0
171
     0
290
     0
174
     0
 93
        1
 44
50.0
173
     0
291
     1
 45
0.0
1001
ACAD
1000
AcDbSavedByObjectVersion
1070
     0
  0
VISUALSTYLE
  5
10C2
102
{ACAD_XDICTIONARY
360
36735
102
}
102
{ACAD_REACTORS
330
10B2
102
}
330
10B2
100
AcDbVisualStyle
  2

 70
    16
 71
     2
 72
     2
 73
     3
 90
        0
 40
-0.6
 41
-30.0
 62
     5
 63
     8
 74
     1
 91
        4
 64
     7
 65
   257
 75
     1
175
     1
 42
1.0
 92
        8
 66
     8
 43
1.0
 76
     1
 77
     6
 78
     2
 67
     7
 79
     5
170
     0
171
     0
290
     0
174
     0
 93
        1
 44
0.0
173
     0
291
     1
 45
0.0
1001
ACAD
1000
AcDbSavedByObjectVersion
1070
     0
  0
VISUALSTYLE
  5
1D51
102
{ACAD_XDICTIONARY
360
36743
102
}
102
{ACAD_REACTORS
330
10B2
102
}
330
10B2
100
AcDbVisualStyle
  2

 70
     9
 71
     3
 72
     2
 73
     0
 90
        0
 40
-0.6
 41
-30.0
 62
     5
 63
     7
 74
     2
 91
        2
 64
     7
 65
   257
 75
     1
175
     1
 42
40.0
 92
        8
 66
     7
 43
1.0
 76
     1
 77
     6
 78
     2
 67
     7
 79
     3
170
     0
171
     0
290
     0
174
     0
 93
        1
 44
0.0
173
     0
291
     0
 45
0.0
1001
ACAD
1000
AcDbSavedByObjectVersion
1070
     0
  0
VISUALSTYLE
  5
10BD
102
{ACAD_XDICTIONARY
360
3672B
102
}
102
{ACAD_REACTORS
330
10B2
102
}
330
10B2
100
AcDbVisualStyle
  2

 70
    11
 71
     2
 72
     2
 73
     0
 90
        0
 40
-0.6
 41
-30.0
 62
     5
 63
     7
 74
     1
 91
        4
 64
     7
 65
   257
 75
     1
175
     1
 42
1.0
 92
        8
 66
     7
 43
1.0
 76
     1
 77
     6
 78
     2
 67
     7
 79
     5
170
     0
171
     0
290
     0
174
     0
 93
        1
 44
-50.0
173
     0
291
     1
 45
0.0
1001
ACAD
1000
AcDbSavedByObjectVersion
1070
     0
  0
VISUALSTYLE
  5
336FA
102
{ACAD_XDICTIONARY
360
36759
102
}
102
{ACAD_REACTORS
330
10B2
102
}
330
10B2
100
AcDbVisualStyle
  2

 70
    22
 71
     2
 72
     2
 73
     0
 90
        0
 40
-0.6
 41
-30.0
 62
     5
 63
     7
 74
     1
 91
        4
 64
     7
 65
   257
 75
     1
175
     1
 42
1.0
 92
        8
 66
     7
 43
1.0
 76
     1
 77
     6
 78
     2
 67
     7
 79
     5
170
     0
171
     0
290
     0
174
     0
 93
        1
 44
0.0
173
     0
291
     1
 45
0.0
1001
ACAD
1000
AcDbSavedByObjectVersion
1070
     0
  0
VISUALSTYLE
  5
10C1
102
{ACAD_XDICTIONARY
360
36733
102
}
102
{ACAD_REACTORS
330
10B2
102
}
330
10B2
100
AcDbVisualStyle
  2

 70
    15
 71
     2
 72
     2
 73
     0
 90
        0
 40
-0.6
 41
-30.0
 62
     5
 63
     7
 74
     1
 91
        4
 64
     7
 65
   257
 75
     1
175
     1
 42
1.0
 92
        8
 66
     7
 43
1.0
 76
     1
 77
     6
 78
     2
 67
     7
 79
     5
170
     0
171
     0
290
     0
174
     0
 93
        1
 44
0.0
173
     0
291
     1
 45
0.0
1001
ACAD
1000
AcDbSavedByObjectVersion
1070
     0
  0
VISUALSTYLE
  5
10B3
102
{ACAD_XDICTIONARY
360
3671F
102
}
102
{ACAD_REACTORS
330
10B2
102
}
330
10B2
100
AcDbVisualStyle
  2

 70
     0
 71
     2
 72
     1
 73
     1
 90
        2
 40
-0.6
 41
30.0
 62
     5
 63
     7
 74
     0
 91
        4
 64
     7
 65
   257
 75
     1
175
     1
 42
1.0
 92
        8
 66
     7
 43
1.0
 76
     1
 77
     6
 78
     2
 67
     7
 79
     5
170
     0
171
     0
290
     0
174
     0
 93
       13
 44
0.0
173
     0
291
     1
 45
0.0
1001
ACAD
1000
AcDbSavedByObjectVersion
1070
     0
  0
VISUALSTYLE
  5
10B4
102
{ACAD_XDICTIONARY
360
36721
102
}
102
{ACAD_REACTORS
330
10B2
102
}
330
10B2
100
AcDbVisualStyle
  2

 70
     1
 71
     2
 72
     1
 73
     1
 90
        2
 40
-0.6
 41
30.0
 62
     5
 63
     7
 74
     1
 91
        4
 64
     7
 65
   257
 75
     1
175
     1
 42
1.0
 92
        0
 66
   257
 43
1.0
 76
     1
 77
     6
 78
     2
 67
     7
 79
     5
170
     0
171
     0
290
     0
174
     0
 93
       13
 44
0.0
173
     0
291
     1
 45
0.0
1001
ACAD
1000
AcDbSavedByObjectVersion
1070
     0
  0
VISUALSTYLE
  5
10B5
102
{ACAD_XDICTIONARY
360
36723
102
}
102
{ACAD_REACTORS
330
10B2
102
}
330
10B2
100
AcDbVisualStyle
  2

 70
     2
 71
     2
 72
     2
 73
     1
 90
        2
 40
-0.6
 41
30.0
 62
     5
 63
     7
 74
     0
 91
        4
 64
     7
 65
   257
 75
     1
175
     1
 42
1.0
 92
        0
 66
     7
 43
1.0
 76
     1
 77
     6
 78
     2
 67
     7
 79
     5
170
     0
171
     0
290
     0
174
     0
 93
       13
 44
0.0
173
     0
291
     1
 45
0.0
1001
ACAD
1000
AcDbSavedByObjectVersion
1070
     0
  0
VISUALSTYLE
  5
10B6
102
{ACAD_XDICTIONARY
360
36725
102
}
102
{ACAD_REACTORS
330
10B2
102
}
330
10B2
100
AcDbVisualStyle
  2

 70
     3
 71
     2
 72
     2
 73
     1
 90
        2
 40
-0.6
 41
30.0
 62
     5
 63
     7
 74
     1
 91
        4
 64
     7
 65
   257
 75
     1
175
     1
 42
1.0
 92
        0
 66
   257
 43
1.0
 76
     1
 77
     6
 78
     2
 67
     7
 79
     5
170
     0
171
     0
290
     0
174
     0
 93
       13
 44
0.0
173
     0
291
     1
 45
0.0
1001
ACAD
1000
AcDbSavedByObjectVersion
1070
     0
  0
VISUALSTYLE
  5
336F2
102
{ACAD_XDICTIONARY
360
36749
102
}
102
{ACAD_REACTORS
330
10B2
102
}
330
10B2
100
AcDbVisualStyle
  2

 70
     6
 71
     1
 72
     2
 73
     2
 90
        0
 40
-0.6
 41
-30.0
 62
     5
 63
     7
 74
     2
 91
        2
 64
     7
 65
   257
 75
     2
175
     1
 42
40.0
 92
        0
 66
   257
 43
1.0
 76
     1
 77
     6
 78
     2
 67
     7
 79
     3
170
     0
171
     0
290
     0
174
     0
 93
        1
 44
0.0
173
     0
291
     0
 45
0.0
1001
ACAD
1000
AcDbSavedByObjectVersion
1070
     0
  0
VISUALSTYLE
  5
336F8
102
{ACAD_XDICTIONARY
360
36755
102
}
102
{ACAD_REACTORS
330
10B2
102
}
330
10B2
100
AcDbVisualStyle
  2

 70
    20
 71
     2
 72
     2
 73
     0
 90
        0
 40
-0.6
 41
-30.0
 62
     5
 63
     7
 74
     1
 91
        4
 64
     7
 65
   257
 75
     1
175
     1
 42
1.0
 92
       10
 66
     7
 43
1.0
 76
     1
 77
     6
 78
     2
 67
     7
 79
     5
170
     0
171
     0
290
     0
174
     0
 93
        1
 44
0.0
173
     0
291
     1
 45
0.0
1001
ACAD
1000
AcDbSavedByObjectVersion
1070
     0
  0
VISUALSTYLE
  5
10C0
102
{ACAD_XDICTIONARY
360
36731
102
}
102
{ACAD_REACTORS
330
10B2
102
}
330
10B2
100
AcDbVisualStyle
  2

 70
    14
 71
     2
 72
     2
 73
     0
 90
        0
 40
-0.6
 41
-30.0
 62
     5
 63
     7
 74
     1
 91
        4
 64
     7
 65
   257
 75
     7
175
     7
 42
1.0
 92
        8
 66
     7
 43
1.0
 76
     1
 77
     6
 78
     2
 67
     7
 79
     5
170
     0
171
     0
290
     0
174
     0
 93
        1
 44
0.0
173
     0
291
     1
 45
0.0
1001
ACAD
1000
AcDbSavedByObjectVersion
1070
     0
  0
VISUALSTYLE
  5
336F9
102
{ACAD_XDICTIONARY
360
36757
102
}
102
{ACAD_REACTORS
330
10B2
102
}
330
10B2
100
AcDbVisualStyle
  2

 70
    21
 71
     2
 72
     2
 73
     0
 90
        0
 40
-0.6
 41
-30.0
 62
     5
 63
     7
 74
     1
 91
        4
 64
     7
 65
   257
 75
     1
175
     1
 42
1.0
 92
        9
 66
     7
 43
1.0
 76
     1
 77
     6
 78
     2
 67
     7
 79
     5
170
     0
171
     0
290
     0
174
     0
 93
        1
 44
0.0
173
     0
291
     1
 45
0.0
1001
ACAD
1000
AcDbSavedByObjectVersion
1070
     0
  0
VISUALSTYLE
  5
1D52
102
{ACAD_XDICTIONARY
360
36745
102
}
102
{ACAD_REACTORS
330
10B2
102
}
330
10B2
100
AcDbVisualStyle
  2

 70
     8
 71
     2
 72
     2
 73
     0
 90
        0
 40
-0.6
 41
-30.0
 62
     5
 63
     7
 74
     1
 91
        0
 64
     7
 65
   257
 75
     1
175
     1
 42
1.0
 92
        8
 66
     8
 43
1.0
 76
     1
 77
     6
 78
     2
 67
     7
 79
     5
170
     0
171
     0
290
     0
174
     0
 93
       13
 44
0.0
173
     0
291
     0
 45
0.0
1001
ACAD
1000
AcDbSavedByObjectVersion
1070
     0
  0
VISUALSTYLE
  5
336F7
102
{ACAD_XDICTIONARY
360
36753
102
}
102
{ACAD_REACTORS
330
10B2
102
}
330
10B2
100
AcDbVisualStyle
  2

 70
    27
 71
     2
 72
     2
 73
     1
 90
        2
 40
-0.6
 41
30.0
 62
     5
 63
     7
 74
     0
 91
        4
 64
     7
 65
   257
 75
     1
175
     1
 42
1.0
 92
        8
 66
   257
 43
1.0
 76
     1
 77
     6
 78
     2
 67
     8
 79
     3
170
     0
171
     0
290
     0
174
     0
 93
        5
 44
0.0
173
     0
291
     0
 45
0.0
1001
ACAD
1000
AcDbSavedByObjectVersion
1070
     0
  0
VISUALSTYLE
  5
336F6
102
{ACAD_XDICTIONARY
360
36751
102
}
102
{ACAD_REACTORS
330
10B2
102
}
330
10B2
100
AcDbVisualStyle
  2

 70
    26
 71
     2
 72
     2
 73
     1
 90
        2
 40
-0.6
 41
30.0
 62
     5
 63
     7
 74
     1
 91
       10
 64
     7
 65
   257
 75
     2
175
     1
 42
1.0
 92
        8
 66
   257
 43
1.0
 76
     1
 77
     6
 78
     2
 67
     7
 79
     3
170
     0
171
     0
290
     0
174
     0
 93
        5
 44
0.0
173
     0
291
     0
 45
0.0
1001
ACAD
1000
AcDbSavedByObjectVersion
1070
     0
  0
VISUALSTYLE
  5
336F3
102
{ACAD_XDICTIONARY
360
3674B
102
}
102
{ACAD_REACTORS
330
10B2
102
}
330
10B2
100
AcDbVisualStyle
  2

 70
    23
 71
     2
 72
     2
 73
     3
 90
        0
 40
-0.6
 41
-30.0
 62
     5
 63
     7
 74
     2
 91
        2
 64
     7
 65
     7
 75
     1
175
     1
 42
40.0
 92
        8
 66
     7
 43
1.0
 76
     1
 77
     6
 78
     2
 67
     7
 79
     3
170
     0
171
     0
290
     0
174
     0
 93
        1
 44
0.0
173
     0
291
     0
 45
0.0
1001
ACAD
1000
AcDbSavedByObjectVersion
1070
     0
  0
VISUALSTYLE
  5
336F4
102
{ACAD_XDICTIONARY
360
3674D
102
}
102
{ACAD_REACTORS
330
10B2
102
}
330
10B2
100
AcDbVisualStyle
  2

 70
    24
 71
     1
 72
     2
 73
     2
 90
        0
 40
-0.6
 41
-30.0
 62
     5
 63
     7
 74
     2
 91
        2
 64
     7
 65
     7
 75
     1
175
     1
 42
40.0
 92
       11
 66
     7
 43
1.0
 76
     1
 77
     6
 78
     2
 67
     7
 79
     6
170
     0
171
     0
290
     0
174
     0
 93
        1
 44
0.0
173
     0
291
     0
 45
0.0
1001
ACAD
1000
AcDbSavedByObjectVersion
1070
     0
  0
VISUALSTYLE
  5
10BF
102
{ACAD_XDICTIONARY
360
3672F
102
}
102
{ACAD_REACTORS
330
10B2
102
}
330
10B2
100
AcDbVisualStyle
  2

 70
    13
 71
     2
 72
     2
 73
     0
 90
        0
 40
-0.6
 41
-30.0
 62
     5
 63
     7
 74
     1
 91
        4
 64
     7
 65
   257
 75
     1
175
     1
 42
1.0
 92
       12
 66
     7
 43
1.0
 76
     1
 77
     6
 78
     2
 67
     7
 79
     5
170
     0
171
     0
290
     0
174
     0
 93
        1
 44
0.0
173
     0
291
     1
 45
0.0
1001
ACAD
1000
AcDbSavedByObjectVersion
1070
     0
  0
VISUALSTYLE
  5
336F1
102
{ACAD_XDICTIONARY
360
36747
102
}
102
{ACAD_REACTORS
330
10B2
102
}
330
10B2
100
AcDbVisualStyle
  2

 70
     5
 71
     0
 72
     2
 73
     0
 90
        0
 40
-0.6
 41
-30.0
 62
     5
 63
     7
 74
     1
 91
        4
 64
     7
 65
   257
 75
     1
175
     1
 42
1.0
 92
        0
 66
   257
 43
1.0
 76
     1
 77
     6
 78
     2
 67
     7
 79
     3
170
     0
171
     0
290
     0
174
     0
 93
        1
 44
0.0
173
     0
291
     0
 45
0.0
1001
ACAD
1000
AcDbSavedByObjectVersion
1070
     0
  0
VISUALSTYLE
  5
336F5
102
{ACAD_XDICTIONARY
360
3674F
102
}
102
{ACAD_REACTORS
330
10B2
102
}
330
10B2
100
AcDbVisualStyle
  2

 70
    25
 71
     2
 72
     2
 73
     1
 90
        1
 40
0.5
 41
-30.0
 62
     5
 63
     7
 74
     1
 91
        0
 64
     7
 65
   257
 75
     1
175
     1
 42
1.0
 92
        8
 66
     7
 43
1.0
 76
     1
 77
     6
 78
     2
 67
     7
 79
     3
170
     0
171
     0
290
     0
174
     0
 93
       13
 44
0.0
173
     0
291
     0
 45
0.0
1001
ACAD
1000
AcDbSavedByObjectVersion
1070
     0
  0
DICTIONARYVAR
  5
34BC7
102
{ACAD_REACTORS
330
3AC
102
}
330
3AC
100
DictionaryVariables
280
     0
  1
1:1
  0
DICTIONARYVAR
  5
34BC5
102
{ACAD_REACTORS
330
3AC
102
}
330
3AC
100
DictionaryVariables
280
     0
  1
STANDARD
  0
DICTIONARYVAR
  5
89F
102
{ACAD_REACTORS
330
3AC
102
}
330
3AC
100
DictionaryVariables
280
     0
  1
STANDARD
  0
DICTIONARYVAR
  5
3AD
102
{ACAD_REACTORS
330
3AC
102
}
330
3AC
100
DictionaryVariables
280
     0
  1
1
  0
DICTIONARYVAR
  5
36713
102
{ACAD_REACTORS
330
3AC
102
}
330
3AC
100
DictionaryVariables
280
     0
  1
0
  0
DICTIONARYVAR
  5
366BD
102
{ACAD_REACTORS
330
3AC
102
}
330
3AC
100
DictionaryVariables
280
     0
  1
0
  0
DICTIONARYVAR
  5
34BC9
102
{ACAD_REACTORS
330
3AC
102
}
330
3AC
100
DictionaryVariables
280
     0
  1
1
  0
DICTIONARYVAR
  5
34BCA
102
{ACAD_REACTORS
330
3AC
102
}
330
3AC
100
DictionaryVariables
280
     0
  1
15
  0
DICTIONARYVAR
  5
34BC8
102
{ACAD_REACTORS
330
3AC
102
}
330
3AC
100
DictionaryVariables
280
     0
  1
0
  0
DICTIONARYVAR
  5
34BC6
102
{ACAD_REACTORS
330
3AC
102
}
330
3AC
100
DictionaryVariables
280
     0
  1
0
  0
DICTIONARYVAR
  5
366BC
102
{ACAD_REACTORS
330
3AC
102
}
330
3AC
100
DictionaryVariables
280
     0
  1
127
  0
DICTIONARYVAR
  5
36714
102
{ACAD_REACTORS
330
3AC
102
}
330
3AC
100
DictionaryVariables
280
     0
  1
2
  0
XRECORD
  5
1054
102
{ACAD_REACTORS
330
1053
102
}
330
1053
100
AcDbXrecord
280
     1
330
0
  0
XRECORD
  5
335FC
102
{ACAD_REACTORS
330
89A
102
}
330
89A
100
AcDbXrecord
280
     1
 91
      535
301

290
     0
302
DIM
330
31F0D
 90
       24
 62
     7
370
    -3
331
8
  1
Color_7
330
1A94
 90
        0
 62
   253
370
    -3
331
8
  1
Color_253
330
1A91
 90
        8
 62
    60
370
    -3
331
8
  1
Color_60
330
1A8E
 90
        8
 62
     2
370
    -3
331
8
  1
Color_2
330
1A8B
 90
        8
 62
     2
370
    -3
331
1A4E
  1
Color_2
330
1A88
 90
        8
 62
     3
370
    -3
331
8
  1
Color_3
330
1A85
 90
        8
 62
     6
370
    -3
331
8
  1
Color_6
330
1A82
 90
        0
 62
   251
370
    -3
331
8
  1
Color_251
330
1A7F
 90
        8
 62
     1
370
    -3
331
8
  1
Color_1
330
1A7C
 90
        8
 62
   253
370
    -3
331
1A5D
  1
Color_253
330
1A79
 90
        8
 62
     2
370
    -3
331
8
  1
Color_2
330
1A76
 90
        8
 62
     4
370
    -3
331
8
  1
Color_4
330
1A73
 90
        8
 62
     1
370
    -3
331
8
  1
Color_1
330
1A70
 90
        8
 62
     6
370
    -3
331
8
  1
Color_6
330
1A6D
 90
        8
 62
     5
370
    -3
331
8
  1
Color_5
330
1A6A
 90
        8
 62
    52
370
    -3
331
8
  1
Color_52
330
1A67
 90
        8
 62
     2
370
    -3
331
8
  1
Color_2
330
1A64
 90
        8
 62
     1
370
    -3
331
8
  1
Color_1
330
1A61
 90
        8
 62
     1
370
    -3
331
8
  1
Color_1
330
73
 90
        0
 62
   252
370
    -3
331
8
  1
Color_252
330
32
 90
        8
 62
     3
370
    -3
331
8
  1
Color_3
330
4
 90
        8
 62
     7
370
    -3
331
8
  1
Color_7
  0
DICTIONARY
  5
89C
330
10
100
AcDbDictionary
280
     1
281
     1
  3
ACAD_XREC_ROUNDTRIP
360
3671B
  3
ADSK_XREC_LAYOUTTHUMBNAIL
360
89D
  0
DICTIONARY
  5
3641F
330
B
100
AcDbDictionary
280
     1
281
     1
  3
ACAD_XREC_ROUNDTRIP
360
3671A
  3
ADSK_XREC_LAYOUTTHUMBNAIL
360
36420
  0
DICTIONARY
  5
366CC
330
10B0
100
AcDbDictionary
280
     1
281
     1
  3
ACAD_XREC_ROUNDTRIP
360
366CD
  0
DICTIONARY
  5
366CA
330
10AF
100
AcDbDictionary
280
     1
281
     1
  3
ACAD_XREC_ROUNDTRIP
360
366CB
  0
DICTIONARY
  5
366CE
330
10B1
100
AcDbDictionary
280
     1
281
     1
  3
ACAD_XREC_ROUNDTRIP
360
366CF
  0
DICTIONARY
  5
3673B
330
1A21
100
AcDbDictionary
280
     1
281
     1
  3
ACAD_XREC_ROUNDTRIP
360
3673C
  0
DICTIONARY
  5
36737
330
1A1F
100
AcDbDictionary
280
     1
281
     1
  3
ACAD_XREC_ROUNDTRIP
360
36738
  0
DICTIONARY
  5
3673D
330
1A22
100
AcDbDictionary
280
     1
281
     1
  3
ACAD_XREC_ROUNDTRIP
360
3673E
  0
DICTIONARY
  5
36739
330
1A20
100
AcDbDictionary
280
     1
281
     1
  3
ACAD_XREC_ROUNDTRIP
360
3673A
  0
DICTIONARY
  5
366BF
330
887
100
AcDbDictionary
280
     1
281
     1
  3
ACAD_ROUNDTRIP_2008_TABLESTYLE_CELLSTYLEMAP
360
36715
  3
ACAD_XREC_ROUNDTRIP
360
3671E
  0
DICTIONARY
  5
36729
330
10B8
100
AcDbDictionary
280
     1
281
     1
  3
ACAD_XREC_ROUNDTRIP
360
3672A
  0
DICTIONARY
  5
3673F
330
1D4F
100
AcDbDictionary
280
     1
281
     1
  3
ACAD_XREC_ROUNDTRIP
360
36740
  0
DICTIONARY
  5
36741
330
1D50
100
AcDbDictionary
280
     1
281
     1
  3
ACAD_XREC_ROUNDTRIP
360
36742
  0
DICTIONARY
  5
36727
330
10B7
100
AcDbDictionary
280
     1
281
     1
  3
ACAD_XREC_ROUNDTRIP
360
36728
  0
DICTIONARY
  5
3672D
330
10BE
100
AcDbDictionary
280
     1
281
     1
  3
ACAD_XREC_ROUNDTRIP
360
3672E
  0
DICTIONARY
  5
36735
330
10C2
100
AcDbDictionary
280
     1
281
     1
  3
ACAD_XREC_ROUNDTRIP
360
36736
  0
DICTIONARY
  5
36743
330
1D51
100
AcDbDictionary
280
     1
281
     1
  3
ACAD_XREC_ROUNDTRIP
360
36744
  0
DICTIONARY
  5
3672B
330
10BD
100
AcDbDictionary
280
     1
281
     1
  3
ACAD_XREC_ROUNDTRIP
360
3672C
  0
DICTIONARY
  5
36759
330
336FA
100
AcDbDictionary
280
     1
281
     1
  3
ACAD_XREC_ROUNDTRIP
360
3675A
  0
DICTIONARY
  5
36733
330
10C1
100
AcDbDictionary
280
     1
281
     1
  3
ACAD_XREC_ROUNDTRIP
360
36734
  0
DICTIONARY
  5
3671F
330
10B3
100
AcDbDictionary
280
     1
281
     1
  3
ACAD_XREC_ROUNDTRIP
360
36720
  0
DICTIONARY
  5
36721
330
10B4
100
AcDbDictionary
280
     1
281
     1
  3
ACAD_XREC_ROUNDTRIP
360
36722
  0
DICTIONARY
  5
36723
330
10B5
100
AcDbDictionary
280
     1
281
     1
  3
ACAD_XREC_ROUNDTRIP
360
36724
  0
DICTIONARY
  5
36725
330
10B6
100
AcDbDictionary
280
     1
281
     1
  3
ACAD_XREC_ROUNDTRIP
360
36726
  0
DICTIONARY
  5
36749
330
336F2
100
AcDbDictionary
280
     1
281
     1
  3
ACAD_XREC_ROUNDTRIP
360
3674A
  0
DICTIONARY
  5
36755
330
336F8
100
AcDbDictionary
280
     1
281
     1
  3
ACAD_XREC_ROUNDTRIP
360
36756
  0
DICTIONARY
  5
36731
330
10C0
100
AcDbDictionary
280
     1
281
     1
  3
ACAD_XREC_ROUNDTRIP
360
36732
  0
DICTIONARY
  5
36757
330
336F9
100
AcDbDictionary
280
     1
281
     1
  3
ACAD_XREC_ROUNDTRIP
360
36758
  0
DICTIONARY
  5
36745
330
1D52
100
AcDbDictionary
280
     1
281
     1
  3
ACAD_XREC_ROUNDTRIP
360
36746
  0
DICTIONARY
  5
36753
330
336F7
100
AcDbDictionary
280
     1
281
     1
  3
ACAD_XREC_ROUNDTRIP
360
36754
  0
DICTIONARY
  5
36751
330
336F6
100
AcDbDictionary
280
     1
281
     1
  3
ACAD_XREC_ROUNDTRIP
360
36752
  0
DICTIONARY
  5
3674B
330
336F3
100
AcDbDictionary
280
     1
281
     1
  3
ACAD_XREC_ROUNDTRIP
360
3674C
  0
DICTIONARY
  5
3674D
330
336F4
100
AcDbDictionary
280
     1
281
     1
  3
ACAD_XREC_ROUNDTRIP
360
3674E
  0
DICTIONARY
  5
3672F
330
10BF
100
AcDbDictionary
280
     1
281
     1
  3
ACAD_XREC_ROUNDTRIP
360
36730
  0
DICTIONARY
  5
36747
330
336F1
100
AcDbDictionary
280
     1
281
     1
  3
ACAD_XREC_ROUNDTRIP
360
36748
  0
DICTIONARY
  5
3674F
330
336F5
100
AcDbDictionary
280
     1
281
     1
  3
ACAD_XREC_ROUNDTRIP
360
36750
  0
XRECORD
  5
3671B
102
{ACAD_REACTORS
330
89C
102
}
330
89C
100
AcDbXrecord
280
     1
102
SHADEPLOT
 70
     0
102
SHADEPLOTRESLEVEL
 70
     2
102
SHADEPLOTCUSTOMDPI
 70
   300
  0
XRECORD
  5
89D
102
{ACAD_REACTORS
330
89C
102
}
330
89C
100
AcDbXrecord
280
     1
310
28000000B40000008B0000000100080000000000BC610000000000000000000000010000000000000000000000000000FFFFFF000000000000000000000000000000000000000000000000000000000000000000330000006600000099000000CC000000FF00000000330000333300006633000099330000CC330000FF3300
310
0000660000336600006666000099660000CC660000FF66000000990000339900006699000099990000CC990000FF99000000CC000033CC000066CC000099CC0000CCCC0000FFCC000000FF000033FF000066FF000099FF0000CCFF0000FFFF000000003300330033006600330099003300CC003300FF003300003333003333
310
33006633330099333300CC333300FF33330000663300336633006666330099663300CC663300FF66330000993300339933006699330099993300CC993300FF99330000CC330033CC330066CC330099CC3300CCCC3300FFCC330000FF330033FF330066FF330099FF3300CCFF3300FFFF330000006600330066006600660099
310
006600CC006600FF00660000336600333366006633660099336600CC336600FF33660000666600336666006666660099666600CC666600FF66660000996600339966006699660099996600CC996600FF99660000CC660033CC660066CC660099CC6600CCCC6600FFCC660000FF660033FF660066FF660099FF6600CCFF6600
310
FFFF660000009900330099006600990099009900CC009900FF00990000339900333399006633990099339900CC339900FF33990000669900336699006666990099669900CC669900FF66990000999900339999006699990099999900CC999900FF99990000CC990033CC990066CC990099CC9900CCCC9900FFCC990000FF99
310
0033FF990066FF990099FF9900CCFF9900FFFF99000000CC003300CC006600CC009900CC00CC00CC00FF00CC000033CC003333CC006633CC009933CC00CC33CC00FF33CC000066CC003366CC006666CC009966CC00CC66CC00FF66CC000099CC003399CC006699CC009999CC00CC99CC00FF99CC0000CCCC0033CCCC0066CC
310
CC0099CCCC00CCCCCC00FFCCCC0000FFCC0033FFCC0066FFCC0099FFCC00CCFFCC00FFFFCC000000FF003300FF006600FF009900FF00CC00FF00FF00FF000033FF003333FF006633FF009933FF00CC33FF00FF33FF000066FF003366FF006666FF009966FF00CC66FF00FF66FF000099FF003399FF006699FF009999FF00CC
310
99FF00FF99FF0000CCFF0033CCFF0066CCFF0099CCFF00CCCCFF00FFCCFF0000FFFF0033FFFF0066FFFF0099FFFF00CCFFFF00FFFFFF00000000000D0D0D001A1A1A00282828003535350043434300505050005D5D5D006B6B6B00787878008686860093939300A1A1A100AEAEAE00BBBBBB00C9C9C900D6D6D600E4E4E400
310
F1F1F100FFFFFF000000000000000000000000000000000000000000000000000000000000000000000000000000000000000000000000000000000000000000000000000000000000000000000000000000000000000000000000000000000000000000000000000000000000000000000000000000000000000000000000
310
00000000000000000000000000000000000000000000000000000000000000000000000000000000000000000000000000000000000000000000000000000000000000000000000000000000000000000000000000000000000000000000000000000000000000000000000000000000000000000000000000000000000000
310
00000000000000000000000000000000000000000000000000000000000000000000000000000000000000000000000000000000000000000000000000000000000000000000000000000000000000000000000000000000000000000000000000000000000000000000000000000000000000000000000000000000000000
310
00000000000000000000000000000000000000000000000000000000000000000000000000000000000000000000000000000000000000000000000000000000000000000000000000000000000000000000000000000000000000000000000000000000000000000000000000000000000000000000000000000000000000
310
00000000000000000000000000000000000000000000000000000000000000000000000000000000000000000000000000000000000000000000000000000000000000000000000000000000000000000000000000000000000000000000000000000000000000000000000000000000000000000000000000000000000000
310
00000000000000000000000000000000000000000000000000000000000000000000000000000000000000000000000000000000000000000000000000000000000000000000000000000000000000000000000000000000000000000000000000000000000000000000000000000000000000000000000000000000000000
310
00000000000000000000000000000000000000000000000000000000000000000000000000000000000000000000000000000000000000000000000000000000000000000000000000000000000000000000000000000000000000000000000000000000000000000000000000000000000000000000000000000000000000
310
00000000000000000000000000000000000000000000000000000000000000000000000000000000000000000000000000000000000000000000000000000000000000000000000000000000000000000000000000000000000000000000000000000000000000000000000000000000000000000000000000000000000000
310
00000000000000000000000000000000000000000000000000000000000000000000000000000000000000000000000000000000000000000000000000000000000000000000000000000000000000000000000000000000000000000000000000000000000000000000000000000000000000000000000000000000000000
310
00000000000000000000000000000000000000000000000000000000000000000000000000000000000000000000000000000000000000000000000000000000000000000000000000000000000000000000000000000000000000000000000000000000000000000000000000000000000000000000000000000000000000
310
00000000000000000000000000000000000000000000000000000000000000000000000000000000000000000000000000000000000000000000000000000000000000000000000000000000000000000000000000000000000000000000000000000000000000000000000000000000000000000000000000000000000000
310
00000000000000000000000000000000000000000000000000000000000000000000000000000000000000000000000000000000000000000000000000000000000000000000000000000000000000000000000000000000000000000000000000000000000000000000000000000000000000000000000000000000000000
310
00000000000000000000000000000000000000000000000000000000000000000000000000000000000000000000000000000000000000000000000000000000000000000000000000000000000000000000000000000000000000000000000000000000000000000000000000000000000000000000000000000000000000
310
00000000000000000000000000000000000000000000000000000000000000000000000000000000000000000000000000000000000000000000000000000000000000000000000000000000000000000000000000000000000000000000000000000000000000000000000000000000000000000000000000000000000000
310
00000000000000000000000000000000000000000000000000000000000000000000000000000000000000000000000000000000000000000000000000000000000000000000000000000000000000000000000000000000000000000000000000000000000000000000000000000000000000000000000000000000000000
310
00000000000000000000000000000000000000000000000000000000000000000000000000000000000000000000000000000000000000000000000000000000000000000000000000000000000000000000000000000000000000000000000000000000000000000000000000000000000000000000000000000000000000
310
00000000000000000000000000000000000000000000000000000000000000000000000000000000000000000000000000000000000000000000000000000000000000000000000000000000000000000000000000000000000000000000000000000000000000000000000000000000000000000000000000000000000000
310
00000000000000000000000000000000000000000000000000000000000000000000000000000000000000000000000000000000000000000000000000000000000000000000000000000000000000000000000000000000000000000000000000000000000000000000000000000000000000000000000000000000000000
310
00000000000000000000000000000000000000000000000000000000000000000000000000000000000000000000000000000000000000000000000000000000000000000000000000000000000000000000000000000000000000000000000000000000000000000000000000000000000000000000000000000000000000
310
00000000000000000000000000000000000000000000000000000000000000000000000000000000000000000000000000000000000000000000000000000000000000000000000000000000000000000000000000000000000000000000000000000000000000000000000000000000000000000000000000000000000000
310
00000000000000000000000000000000000000000000000000000000000000000000000000000000000000000000000000000000000000000000000000000000000000000000000000000000000000000000000000000000000000000000000000000000000000000000000000000000000000000000000000000000000000
310
00000000000000000000000000000000000000000000000000000000000000000000000000000000000000000000000000000000000000000000000000000000000000000000000000000000000000000000000000000000000000000000000000000000000000000000000000000000000000000000000000000000000000
310
00000000000000000000000000000000000000000000000000000000000000000000000000000000000000000000000000000000000000000000000000000000000000000000000000000000000000000000000000000000000000000000000000000000000000000000000000000000000000000000000000000000000000
310
00000000000000000000000000000000000000000000000000000000000000000000000000000000000000000000000000000000000000000000000000000000000000000000000000000000000000000000000000000000000000000000000000000000000000000000000000000000000000000000000000000000000000
310
00000000000000000000000000000000000000000000000000000000000000000000000000000000000000000000000000000000000000000000000000000000000000000000000000000000000000000000000000000000000000000000000000000000000000000000000000000000000000000000000000000000000000
310
00000000000000000000000000000000000000000000000000000000000000000000000000000000000000000000000000000000000000000000000000000000000000000000000000000000000000000000000000000000000000000000000000000000000000000000000000000000000000000000000000000000000000
310
00000000000000000000000000000000000000000000000000000000000000000000000000000000000000000000000000000000000000000000000000000000000000000000000000000000000000000000000000000000000000000000000000000000000000000000000000000000000000000000000000000000000000
310
00000000000000000000000000000000000000000000000000000000000000000000000000000000000000000000000000000000000000000000000000000000000000000000000000000000000000000000000000000000000000000000000000000000000000000000000000000000000000000000000000000000000000
310
00000000000000000000000000000000000000000000000000000000000000000000000000000000000000000000000000000000000000000000000000000000000000000000000000000000000000000000000000000000000000000000000000000000000000000000000000000000000000000000000000000000000000
310
00000000000000000000000000000000000000000000000000000000000000000000000000000000000000000000000000000000000000000000000000000000000000000000000000000000000000000000000000000000000000000000000000000000000000000000000000000000000000000000000000000000000000
310
00000000000000000000000000000000000000000000000000000000000000000000000000000000000000000000000000000000000000000000000000000000000000000000000000000000000000000000000000000000000000000000000000000000000000000000000000000000000000000000000000000000000000
310
00000000000000000000000000000000000000000000000000000000000000000000000000000000000000000000000000000000000000000000000000000000000000000000000000000000000000000000000000000000000000000000000000000000000000000000000000000000000000000000000000000000000000
310
00000000000000000000000000000000000000000000000000000000000000000000000000000000000000000000000000000000000000000000000000000000000000000000000000000000000000000000000000000000000000000000000000000000000000000000000000000000000000000000000000000000000000
310
00000000000000000000000000000000000000000000000000000000000000000000000000000000000000000000000000000000000000000000000000000000000000000000000000000000000000000000000000000000000000000000000000000000000000000000000000000000000000000000000000000000000000
310
00000000000000000000000000000000000000000000000000000000000000000000000000000000000000000000000000000000000000000000000000000000000000000000000000000000000000000000000000000000000000000000000000000000000000000000000000000000000000000000000000000000000000
310
00000000000000000000000000000000000000000000000000000000000000000000000000000000000000000000000000000000000000000000000000000000000000000000000000000000000000000000000000000000000000000000000000000000000000000000000000000000000000000000000000000000000000
310
00000000000000000000000000000000000000000000000000000000000000000000000000000000000000000000000000000000000000000000000000000000000000000000000000000000000000000000000000000000000000000000000000000000000000000000000000000000000000000000000000000000000000
310
00000000000000000000000000000000000000000000000000000000000000000000000000000000000000000000000000000000000000000000000000000000000000000000000000000000000000000000000000000000000000000000000000000000000000000000000000000000000000000000000000000000000000
310
00000000000000000000000000000000000000000000000000000000000000000000000000000000000000000000000000000000000000000000000000000000000000000000000000000000000000000000000000000000000000000000000000000000000000000000000000000000000000000000000000000000000000
310
00000000000000000000000000000000000000000000000000000000000000000000000000000000000000000000000000000000000000000000000000000000000000000000000000000000000000000000000000000000000000000000000000000000000000000000000000000000000000000000000000000000000000
310
00000000000000000000000000000000000000000000000000000000000000000000000000000000000000000000000000000000000000000000000000000000000000000000000000000000000000000000000000000000000000000000000000000000000000000000000000000000000000000000000000000000000000
310
00000000000000000000000000000000000000000000000000000000000000000000000000000000000000000000000000000000000000000000000000000000000000000000000000000000000000000000000000000000000000000000000000000000000000000000000000000000000000000000000000000000000000
310
00000000000000000000000000000000000000000000000000000000000000000000000000000000000000000000000000000000000000000000000000000000000000000000000000000000000000000000000000000000000000000000000000000000000000000000000000000000000000000000000000000000000000
310
00000000000000000000000000000000000000000000000000000000000000000000000000000000000000000000000000000000000000000000000000000000000000000000000000000000000000000000000000000000000000000000000000000000000000000000000000000000000000000000000000000000000000
310
00000000000000000000000000000000000000000000000000000000000000000000000000000000000000000000000000000000000000000000000000000000000000000000000000000000000000000000000000000000000000000000000000000000000000000000000000000000000000000000000000000000000000
310
00000000000000000000000000000000000000000000000000000000000000000000000000000000000000000000000000000000000000000000000000000000000000000000000000000000000000000000000000000000000000000000000000000000000000000000000000000000000000000000000000000000000000
310
00000000000000000000000000000000000000000000000000000000000000000000000000000000000000000000000000000000000000000000000000000000000000000000000000000000000000000000000000000000000000000000000000000000000000000000000000000000000000000000000000000000000000
310
00000000000000000000000000000000000000000000000000000000000000000000000000000000000000000000000000000000000000000000000000000000000000000000000000000000000000000000000000000000000000000000000000000000000000000000000000000000000000000000000000000000000000
310
00000000000000000000000000000000000000000000000000000000000000000000000000000000000000000000000000000000000000000000000000000000000000000000000000000000000000000000000000000000000000000000000000000000000000000000000000000000000000000000000000000000000000
310
00000000000000000000000000000000000000000000000000000000000000000000000000000000000000000000000000000000000000000000000000000000000000000000000000000000000000000000000000000000000000000000000000000000000000000000000000000000000000000000000000000000000000
310
00000000000000000000000000000000000000000000000000000000000000000000000000000000000000000000000000000000000000000000000000000000000000000000000000000000000000000000000000000000000000000000000000000000000000000000000000000000000000000000000000000000000000
310
00000000000000000000000000000000000000000000000000000000000000000000000000000000000000000000000000000000000000000000000000000000000000000000000000000000000000000000000000000000000000000000000000000000000000000000000000000000000000000000000000000000000000
310
00000000000000000000000000000000000000000000000000000000000000000000000000000000000000000000000000000000000000000000000000000000000000000000000000000000000000000000000000000000000000000000000000000000000000000000000000000000000000000000000000000000000000
310
00000000000000000000000000000000000000000000000000000000000000000000000000000000000000000000000000000000000000000000000000000000000000000000000000000000000000000000000000000000000000000000000000000000000000000000000000000000000000000000000000000000000000
310
00000000000000000000000000000000000000000000000000000000000000000000000000000000000000000000000000000000000000000000000000000000000000000000000000000000000000000000000000000000000000000000000000000000000000000000000000000000000000000000000000000000000000
310
00000000000000000000000000000000000000000000000000000000000000000000000000000000000000000000000000000000000000000000000000000000000000000000000000000000000000000000000000000000000000000000000000000000000000000000000000000000000000000000000000000000000000
310
00000000000000000000000000000000000000000000000000000000000000000000000000000000000000000000000000000000000000000000000000000000000000000000000000000000000000000000000000000000000000000000000000000000000000000000000000000000000000000000000000000000000000
310
00000000000000000000000000000000000000000000000000000000000000000000000000000000000000000000000000000000000000000000000000000000000000000000000000000000000000000000000000000000000000000000000000000000000000000000000000000000000000000000000000000000000000
310
00000000000000000000000000000000000000000000000000000000000000000000000000000000000000000000000000000000000000000000000000000000000000000000000000000000000000000000000000000000000000000000000000000000000000000000000000000000000000000000000000000000000000
310
00000000000000000000000000000000000000000000000000000000000000000000000000000000000000000000000000000000000000000000000000000000000000000000000000000000000000000000000000000000000000000000000000000000000000000000000000000000000000000000000000000000000000
310
00000000000000000000000000000000000000000000000000000000000000000000000000000000000000000000000000000000000000000000000000000000000000000000000000000000000000000000000000000000000000000000000000000000000000000000000000000000000000000000000000000000000000
310
00000000000000000000000000000000000000000000000000000000000000000000000000000000000000000000000000000000000000000000000000000000000000000000000000000000000000000000000000000000000000000000000000000000000000000000000000000000000000000000000000000000000000
310
00000000000000000000000000000000000000000000000000000000000000000000000000000000000000000000000000000000000000000000000000000000000000000000000000000000000000000000000000000000000000000000000000000000000000000000000000000000000000000000000000000000000000
310
00000000000000000000000000000000000000000000000000000000000000000000000000000000000000000000000000000000000000000000000000000000000000000000000000000000000000000000000000000000000000000000000000000000000000000000000000000000000000000000000000000000000000
310
00000000000000000000000000000000000000000000000000000000000000000000000000000000000000000000000000000000000000000000000000000000000000000000000000000000000000000000000000000000000000000000000000000000000000000000000000000000000000000000000000000000000000
310
00000000000000000000000000000000000000000000000000000000000000000000000000000000000000000000000000000000000000000000000000000000000000000000000000000000000000000000000000000000000000000000000000000000000000000000000000000000000000000000000000000000000000
310
00000000000000000000000000000000000000000000000000000000000000000000000000000000000000000000000000000000000000000000000000000000000000000000000000000000000000000000000000000000000000000000000000000000000000000000000000000000000000000000000000000000000000
310
00000000000000000000000000000000000000000000000000000000000000000000000000000000000000000000000000000000000000000000000000000000000000000000000000000000000000000000000000000000000000000000000000000000000000000000000000000000000000000000000000000000000000
310
00000000000000000000000000000000000000000000000000000000000000000000000000000000000000000000000000000000000000000000000000000000000000000000000000000000000000000000000000000000000000000000000000000000000000000000000000000000000000000000000000000000000000
310
00000000000000000000000000000000000000000000000000000000000000000000000000000000000000000000000000000000000000000000000000000000000000000000000000000000000000000000000000000000000000000000000000000000000000000000000000000000000000000000000000000000000000
310
00000000000000000000000000000000000000000000000000000000000000000000000000000000000000000000000000000000000000000000000000000000000000000000000000000000000000000000000000000000000000000000000000000000000000000000000000000000000000000000000000000000000000
310
00000000000000000000000000000000000000000000000000000000000000000000000000000000000000000000000000000000000000000000000000000000000000000000000000000000000000000000000000000000000000000000000000000000000000000000000000000000000000000000000000000000000000
310
00000000000000000000000000000000000000000000000000000000000000000000000000000000000000000000000000000000000000000000000000000000000000000000000000000000000000000000000000000000000000000000000000000000000000000000000000000000000000000000000000000000000000
310
00000000000000000000000000000000000000000000000000000000000000000000000000000000000000000000000000000000000000000000000000000000000000000000000000000000000000000000000000000000000000000000000000000000000000000000000000000000000000000000000000000000000000
310
00000000000000000000000000000000000000000000000000000000000000000000000000000000000000000000000000000000000000000000000000000000000000000000000000000000000000000000000000000000000000000000000000000000000000000000000000000000000000000000000000000000000000
310
00000000000000000000000000000000000000000000000000000000000000000000000000000000000000000000000000000000000000000000000000000000000000000000000000000000000000000000000000000000000000000000000000000000000000000000000000000000000000000000000000000000000000
310
00000000000000000000000000000000000000000000000000000000000000000000000000000000000000000000000000000000000000000000000000000000000000000000000000000000000000000000000000000000000000000000000000000000000000000000000000000000000000000000000000000000000000
310
00000000000000000000000000000000000000000000000000000000000000000000000000000000000000000000000000000000000000000000000000000000000000000000000000000000000000000000000000000000000000000000000000000000000000000000000000000000000000000000000000000000000000
310
00000000000000000000000000000000000000000000000000000000000000000000000000000000000000000000000000000000000000000000000000000000000000000000000000000000000000000000000000000000000000000000000000000000000000000000000000000000000000000000000000000000000000
310
00000000000000000000000000000000000000000000000000000000000000000000000000000000000000000000000000000000000000000000000000000000000000000000000000000000000000000000000000000000000000000000000000000000000000000000000000000000000000000000000000000000000000
310
00000000000000000000000000000000000000000000000000000000000000000000000000000000000000000000000000000000000000000000000000000000000000000000000000000000000000000000000000000000000000000000000000000000000000000000000000000000000000000000000000000000000000
310
00000000000000000000000000000000000000000000000000000000000000000000000000000000000000000000000000000000000000000000000000000000000000000000000000000000000000000000000000000000000000000000000000000000000000000000000000000000000000000000000000000000000000
310
00000000000000000000000000000000000000000000000000000000000000000000000000000000000000000000000000000000000000000000000000000000000000000000000000000000000000000000000000000000000000000000000000000000000000000000000000000000000000000000000000000000000000
310
00000000000000000000000000000000000000000000000000000000000000000000000000000000000000000000000000000000000000000000000000000000000000000000000000000000000000000000000000000000000000000000000000000000000000000000000000000000000000000000000000000000000000
310
00000000000000000000000000000000000000000000000000000000000000000000000000000000000000000000000000000000000000000000000000000000000000000000000000000000000000000000000000000000000000000000000000000000000000000000000000000000000000000000000000000000000000
310
00000000000000000000000000000000000000000000000000000000000000000000000000000000000000000000000000000000000000000000000000000000000000000000000000000000000000000000000000000000000000000000000000000000000000000000000000000000000000000000000000000000000000
310
00000000000000000000000000000000000000000000000000000000000000000000000000000000000000000000000000000000000000000000000000000000000000000000000000000000000000000000000000000000000000000000000000000000000000000000000000000000000000000000000000000000000000
310
00000000000000000000000000000000000000000000000000000000000000000000000000000000000000000000000000000000000000000000000000000000000000000000000000000000000000000000000000000000000000000000000000000000000000000000000000000000000000000000000000000000000000
310
00000000000000000000000000000000000000000000000000000000000000000000000000000000000000000000000000000000000000000000000000000000000000000000000000000000000000000000000000000000000000000000000000000000000000000000000000000000000000000000000000000000000000
310
00000000000000000000000000000000000000000000000000000000000000000000000000000000000000000000000000000000000000000000000000000000000000000000000000000000000000000000000000000000000000000000000000000000000000000000000000000000000000000000000000000000000000
310
00000000000000000000000000000000000000000000000000000000000000000000000000000000000000000000000000000000000000000000000000000000000000000000000000000000000000000000000000000000000000000000000000000000000000000000000000000000000000000000000000000000000000
310
00000000000000000000000000000000000000000000000000000000000000000000000000000000000000000000000000000000000000000000000000000000000000000000000000000000000000000000000000000000000000000000000000000000000000000000000000000000000000000000000000000000000000
310
00000000000000000000000000000000000000000000000000000000000000000000000000000000000000000000000000000000000000000000000000000000000000000000000000000000000000000000000000000000000000000000000000000000000000000000000000000000000000000000000000000000000000
310
00000000000000000000000000000000000000000000000000000000000000000000000000000000000000000000000000000000000000000000000000000000000000000000000000000000000000000000000000000000000000000000000000000000000000000000000000000000000000000000000000000000000000
310
00000000000000000000000000000000000000000000000000000000000000000000000000000000000000000000000000000000000000000000000000000000000000000000000000000000000000000000000000000000000000000000000000000000000000000000000000000000000000000000000000000000000000
310
00000000000000000000000000000000000000000000000000000000000000000000000000000000000000000000000000000000000000000000000000000000000000000000000000000000000000000000000000000000000000000000000000000000000000000000000000000000000000000000000000000000000000
310
00000000000000000000000000000000000000000000000000000000000000000000000000000000000000000000000000000000000000000000000000000000000000000000000000000000000000000000000000000000000000000000000000000000000000000000000000000000000000000000000000000000000000
310
00000000000000000000000000000000000000000000000000000000000000000000000000000000000000000000000000000000000000000000000000000000000000000000000000000000000000000000000000000000000000000000000000000000000000000000000000000000000000000000000000000000000000
310
00000000000000000000000000000000000000000000000000000000000000000000000000000000000000000000000000000000000000000000000000000000000000000000000000000000000000000000000000000000000000000000000000000000000000000000000000000000000000000000000000000000000000
310
00000000000000000000000000000000000000000000000000000000000000000000000000000000000000000000000000000000000000000000000000000000000000000000000000000000000000000000000000000000000000000000000000000000000000000000000000000000000000000000000000000000000000
310
00000000000000000000000000000000000000000000000000000000000000000000000000000000000000000000000000000000000000000000000000000000000000000000000000000000000000000000000000000000000000000000000000000000000000000000000000000000000000000000000000000000000000
310
00000000000000000000000000000000000000000000000000000000000000000000000000000000000000000000000000000000000000000000000000000000000000000000000000000000000000000000000000000000000000000000000000000000000000000000000000000000000000000000000000000000000000
310
00000000000000000000000000000000000000000000000000000000000000000000000000000000000000000000000000000000000000000000000000000000000000000000000000000000000000000000000000000000000000000000000000000000000000000000000000000000000000000000000000000000000000
310
00000000000000000000000000000000000000000000000000000000000000000000000000000000000000000000000000000000000000000000000000000000000000000000000000000000000000000000000000000000000000000000000000000000000000000000000000000000000000000000000000000000000000
310
00000000000000000000000000000000000000000000000000000000000000000000000000000000000000000000000000000000000000000000000000000000000000000000000000000000000000000000000000000000000000000000000000000000000000000000000000000000000000000000000000000000000000
310
00000000000000000000000000000000000000000000000000000000000000000000000000000000000000000000000000000000000000000000000000000000000000000000000000000000000000000000000000000000000000000000000000000000000000000000000000000000000000000000000000000000000000
310
00000000000000000000000000000000000000000000000000000000000000000000000000000000000000000000000000000000000000000000000000000000000000000000000000000000000000000000000000000000000000000000000000000000000000000000000000000000000000000000000000000000000000
310
00000000000000000000000000000000000000000000000000000000000000000000000000000000000000000000000000000000000000000000000000000000000000000000000000000000000000000000000000000000000000000000000000000000000000000000000000000000000000000000000000000000000000
310
00000000000000000000000000000000000000000000000000000000000000000000000000000000000000000000000000000000000000000000000000000000000000000000000000000000000000000000000000000000000000000000000000000000000000000000000000000000000000000000000000000000000000
310
00000000000000000000000000000000000000000000000000000000000000000000000000000000000000000000000000000000000000000000000000000000000000000000000000000000000000000000000000000000000000000000000000000000000000000000000000000000000000000000000000000000000000
310
00000000000000000000000000000000000000000000000000000000000000000000000000000000000000000000000000000000000000000000000000000000000000000000000000000000000000000000000000000000000000000000000000000000000000000000000000000000000000000000000000000000000000
310
00000000000000000000000000000000000000000000000000000000000000000000000000000000000000000000000000000000000000000000000000000000000000000000000000000000000000000000000000000000000000000000000000000000000000000000000000000000000000000000000000000000000000
310
00000000000000000000000000000000000000000000000000000000000000000000000000000000000000000000000000000000000000000000000000000000000000000000000000000000000000000000000000000000000000000000000000000000000000000000000000000000000000000000000000000000000000
310
00000000000000000000000000000000000000000000000000000000000000000000000000000000000000000000000000000000000000000000000000000000000000000000000000000000000000000000000000000000000000000000000000000000000000000000000000000000000000000000000000000000000000
310
00000000000000000000000000000000000000000000000000000000000000000000000000000000000000000000000000000000000000000000000000000000000000000000000000000000000000000000000000000000000000000000000000000000000000000000000000000000000000000000000000000000000000
310
00000000000000000000000000000000000000000000000000000000000000000000000000000000000000000000000000000000000000000000000000000000000000000000000000000000000000000000000000000000000000000000000000000000000000000000000000000000000000000000000000000000000000
310
00000000000000000000000000000000000000000000000000000000000000000000000000000000000000000000000000000000000000000000000000000000000000000000000000000000000000000000000000000000000000000000000000000000000000000000000000000000000000000000000000000000000000
310
00000000000000000000000000000000000000000000000000000000000000000000000000000000000000000000000000000000000000000000000000000000000000000000000000000000000000000000000000000000000000000000000000000000000000000000000000000000000000000000000000000000000000
310
00000000000000000000000000000000000000000000000000000000000000000000000000000000000000000000000000000000000000000000000000000000000000000000000000000000000000000000000000000000000000000000000000000000000000000000000000000000000000000000000000000000000000
310
00000000000000000000000000000000000000000000000000000000000000000000000000000000000000000000000000000000000000000000000000000000000000000000000000000000000000000000000000000000000000000000000000000000000000000000000000000000000000000000000000000000000000
310
00000000000000000000000000000000000000000000000000000000000000000000000000000000000000000000000000000000000000000000000000000000000000000000000000000000000000000000000000000000000000000000000000000000000000000000000000000000000000000000000000000000000000
310
00000000000000000000000000000000000000000000000000000000000000000000000000000000000000000000000000000000000000000000000000000000000000000000000000000000000000000000000000000000000000000000000000000000000000000000000000000000000000000000000000000000000000
310
00000000000000000000000000000000000000000000000000000000000000000000000000000000000000000000000000000000000000000000000000000000000000000000000000000000000000000000000000000000000000000000000000000000000000000000000000000000000000000000000000000000000000
310
00000000000000000000000000000000000000000000000000000000000000000000000000000000000000000000000000000000000000000000000000000000000000000000000000000000000000000000000000000000000000000000000000000000000000000000000000000000000000000000000000000000000000
310
00000000000000000000000000000000000000000000000000000000000000000000000000000000000000000000000000000000000000000000000000000000000000000000000000000000000000000000000000000000000000000000000000000000000000000000000000000000000000000000000000000000000000
310
00000000000000000000000000000000000000000000000000000000000000000000000000000000000000000000000000000000000000000000000000000000000000000000000000000000000000000000000000000000000000000000000000000000000000000000000000000000000000000000000000000000000000
310
00000000000000000000000000000000000000000000000000000000000000000000000000000000000000000000000000000000000000000000000000000000000000000000000000000000000000000000000000000000000000000000000000000000000000000000000000000000000000000000000000000000000000
310
00000000000000000000000000000000000000000000000000000000000000000000000000000000000000000000000000000000000000000000000000000000000000000000000000000000000000000000000000000000000000000000000000000000000000000000000000000000000000000000000000000000000000
310
00000000000000000000000000000000000000000000000000000000000000000000000000000000000000000000000000000000000000000000000000000000000000000000000000000000000000000000000000000000000000000000000000000000000000000000000000000000000000000000000000000000000000
310
00000000000000000000000000000000000000000000000000000000000000000000000000000000000000000000000000000000000000000000000000000000000000000000000000000000000000000000000000000000000000000000000000000000000000000000000000000000000000000000000000000000000000
310
00000000000000000000000000000000000000000000000000000000000000000000000000000000000000000000000000000000000000000000000000000000000000000000000000000000000000000000000000000000000000000000000000000000000000000000000000000000000000000000000000000000000000
310
00000000000000000000000000000000000000000000000000000000000000000000000000000000000000000000000000000000000000000000000000000000000000000000000000000000000000000000000000000000000000000000000000000000000000000000000000000000000000000000000000000000000000
310
00000000000000000000000000000000000000000000000000000000000000000000000000000000000000000000000000000000000000000000000000000000000000000000000000000000000000000000000000000000000000000000000000000000000000000000000000000000000000000000000000000000000000
310
00000000000000000000000000000000000000000000000000000000000000000000000000000000000000000000000000000000000000000000000000000000000000000000000000000000000000000000000000000000000000000000000000000000000000000000000000000000000000000000000000000000000000
310
00000000000000000000000000000000000000000000000000000000000000000000000000000000000000000000000000000000000000000000000000000000000000000000000000000000000000000000000000000000000000000000000000000000000000000000000000000000000000000000000000000000000000
310
00000000000000000000000000000000000000000000000000000000000000000000000000000000000000000000000000000000000000000000000000000000000000000000000000000000000000000000000000000000000000000000000000000000000000000000000000000000000000000000000000000000000000
310
00000000000000000000000000000000000000000000000000000000000000000000000000000000000000000000000000000000000000000000000000000000000000000000000000000000000000000000000000000000000000000000000000000000000000000000000000000000000000000000000000000000000000
310
00000000000000000000000000000000000000000000000000000000000000000000000000000000000000000000000000000000000000000000000000000000000000000000000000000000000000000000000000000000000000000000000000000000000000000000000000000000000000000000000000000000000000
310
00000000000000000000000000000000000000000000000000000000000000000000000000000000000000000000000000000000000000000000000000000000000000000000000000000000000000000000000000000000000000000000000000000000000000000000000000000000000000000000000000000000000000
310
00000000000000000000000000000000000000000000000000000000000000000000000000000000000000000000000000000000000000000000000000000000000000000000000000000000000000000000000000000000000000000000000000000000000000000000000000000000000000000000000000000000000000
310
00000000000000000000000000000000000000000000000000000000000000000000000000000000000000000000000000000000000000000000000000000000000000000000000000000000000000000000000000000000000000000000000000000000000000000000000000000000000000000000000000000000000000
310
00000000000000000000000000000000000000000000000000000000000000000000000000000000000000000000000000000000000000000000000000000000000000000000000000000000000000000000000000000000000000000000000000000000000000000000000000000000000000000000000000000000000000
310
00000000000000000000000000000000000000000000000000000000000000000000000000000000000000000000000000000000000000000000000000000000000000000000000000000000000000000000000000000000000000000000000000000000000000000000000000000000000000000000000000000000000000
310
00000000000000000000000000000000000000000000000000000000000000000000000000000000000000000000000000000000000000000000000000000000000000000000000000000000000000000000000000000000000000000000000000000000000000000000000000000000000000000000000000000000000000
310
00000000000000000000000000000000000000000000000000000000000000000000000000000000000000000000000000000000000000000000000000000000000000000000000000000000000000000000000000000000000000000000000000000000000000000000000000000000000000000000000000000000000000
310
00000000000000000000000000000000000000000000000000000000000000000000000000000000000000000000000000000000000000000000000000000000000000000000000000000000000000000000000000000000000000000000000000000000000000000000000000000000000000000000000000000000000000
310
00000000000000000000000000000000000000000000000000000000000000000000000000000000000000000000000000000000000000000000000000000000000000000000000000000000000000000000000000000000000000000000000000000000000000000000000000000000000000000000000000000000000000
310
00000000000000000000000000000000000000000000000000000000000000000000000000000000000000000000000000000000000000000000000000000000000000000000000000000000000000000000000000000000000000000000000000000000000000000000000000000000000000000000000000000000000000
310
00000000000000000000000000000000000000000000000000000000000000000000000000000000000000000000000000000000000000000000000000000000000000000000000000000000000000000000000000000000000000000000000000000000000000000000000000000000000000000000000000000000000000
310
00000000000000000000000000000000000000000000000000000000000000000000000000000000000000000000000000000000000000000000000000000000000000000000000000000000000000000000000000000000000000000000000000000000000000000000000000000000000000000000000000000000000000
310
00000000000000000000000000000000000000000000000000000000000000000000000000000000000000000000000000000000000000000000000000000000000000000000000000000000000000000000000000000000000000000000000000000000000000000000000000000000000000000000000000000000000000
310
00000000000000000000000000000000000000000000000000000000000000000000000000000000000000000000000000000000000000000000000000000000000000000000000000000000000000000000000000000000000000000000000000000000000000000000000000000000000000000000000000000000000000
310
00000000000000000000000000000000000000000000000000000000000000000000000000000000000000000000000000000000000000000000000000000000000000000000000000000000000000000000000000000000000000000000000000000000000000000000000000000000000000000000000000000000000000
310
00000000000000000000000000000000000000000000000000000000000000000000000000000000000000000000000000000000000000000000000000000000000000000000000000000000000000000000000000000000000000000000000000000000000000000000000000000000000000000000000000000000000000
310
00000000000000000000000000000000000000000000000000000000000000000000000000000000000000000000000000000000000000000000000000000000000000000000000000000000000000000000000000000000000000000000000000000000000000000000000000000000000000000000000000000000000000
310
00000000000000000000000000000000000000000000000000000000000000000000000000000000000000000000000000000000000000000000000000000000000000000000000000000000000000000000000000000000000000000000000000000000000000000000000000000000000000000000000000000000000000
310
00000000000000000000000000000000000000000000000000000000000000000000000000000000000000000000000000000000000000000000000000000000000000000000000000000000000000000000000000000000000000000000000000000000000000000000000000000000000000000000000000000000000000
310
00000000000000000000000000000000000000000000000000000000000000000000000000000000000000000000000000000000000000000000000000000000000000000000000000000000000000000000000000000000000000000000000000000000000000000000000000000000000000000000000000000000000000
310
00000000000000000000000000000000000000000000000000000000000000000000000000000000000000000000000000000000000000000000000000000000000000000000000000000000000000000000000000000000000000000000000000000000000000000000000000000000000000000000000000000000000000
310
00000000000000000000000000000000000000000000000000000000000000000000000000000000000000000000000000000000000000000000000000000000000000000000000000000000000000000000000000000000000000000000000000000000000000000000000000000000000000000000000000000000000000
310
00000000000000000000000000000000000000000000000000000000000000000000000000000000000000000000000000000000000000000000000000000000000000000000000000000000000000000000000000000000000000000000000000000000000000000000000000000000000000000000000000000000000000
310
00000000000000000000000000000000000000000000000000000000000000000000000000000000000000000000000000000000000000000000000000000000000000000000000000000000000000000000000000000000000000000000000000000000000000000000000000000000000000000000000000000000000000
310
00000000000000000000000000000000000000000000000000000000000000000000000000000000000000000000000000000000000000000000000000000000000000000000000000000000000000000000000000000000000000000000000000000000000000000000000000000000000000000000000000000000000000
310
00000000000000000000000000000000000000000000000000000000000000000000000000000000000000000000000000000000000000000000000000000000000000000000000000000000000000000000000000000000000000000000000000000000000000000000000000000000000000000000000000000000000000
310
00000000000000000000000000000000000000000000000000000000000000000000000000000000000000000000000000000000000000000000000000000000000000000000000000000000000000000000000000000000000000000000000000000000000000000000000000000000000000000000000000000000000000
310
00000000000000000000000000000000000000000000000000000000000000000000000000000000000000000000000000000000000000000000000000000000000000000000000000000000000000000000000000000000000000000000000000000000000000000000000000000000000000000000000000000000000000
310
00000000000000000000000000000000000000000000000000000000000000000000000000000000000000000000000000000000000000000000000000000000000000000000000000000000000000000000000000000000000000000000000000000000000000000000000000000000000000000000000000000000000000
310
00000000000000000000000000000000000000000000000000000000000000000000000000000000000000000000000000000000000000000000000000000000000000000000000000000000000000000000000000000000000000000000000000000000000000000000000000000000000000000000000000000000000000
310
00000000000000000000000000000000000000000000000000000000000000000000000000000000000000000000000000000000000000000000000000000000000000000000000000000000000000000000000000000000000000000000000000000000000000000000000000000000000000000000000000000000000000
310
00000000000000000000000000000000000000000000000000000000000000000000000000000000000000000000000000000000000000000000000000000000000000000000000000000000000000000000000000000000000000000000000000000000000000000000000000000000000000000000000000000000000000
310
00000000000000000000000000000000000000000000000000000000000000000000000000000000000000000000000000000000000000000000000000000000000000000000000000000000000000000000000000000000000000000000000000000000000000000000000000000000000000000000000000000000000000
310
00000000000000000000000000000000000000000000000000000000000000000000000000000000000000000000000000000000000000000000000000000000000000000000000000000000000000000000000000000000000000000000000000000000000000000000000000000000000000000000000000000000000000
310
00000000000000000000000000000000000000000000000000000000000000000000000000000000000000000000000000000000000000000000000000000000000000000000000000000000000000000000000000000000000000000000000000000000000000000000000000000000000000000000000000000000000000
310
00000000000000000000000000000000000000000000000000000000000000000000000000000000000000000000000000000000000000000000000000000000000000000000000000000000000000000000000000000000000000000000000000000000000000000000000000000000000000000000000000000000000000
310
00000000000000000000000000000000000000000000000000000000000000000000000000000000000000000000000000000000000000000000000000000000000000000000000000000000000000000000000000000000000000000000000000000000000000000000000000000000000000000000000000000000000000
310
00000000000000000000000000000000000000000000000000000000000000000000000000000000000000000000000000000000000000000000000000000000000000000000000000000000000000000000000000000000000000000000000000000000000000000000000000000000000000000000000000000000000000
310
00000000000000000000000000000000000000000000000000000000000000000000000000000000000000000000000000000000000000000000000000000000000000000000000000000000000000000000000000000000000000000000000000000000000000000000000000000000000000000000000000000000000000
310
00000000000000000000000000000000000000000000000000000000000000000000000000000000000000000000000000000000000000000000000000000000000000000000000000000000000000000000000000000000000000000000000000000000000000000000000000000000000000000000000000000000000000
310
00000000000000000000000000000000000000000000000000000000000000000000000000000000000000000000000000000000000000000000000000000000000000000000000000000000000000000000000000000000000000000000000000000000000000000000000000000000000000000000000000000000000000
310
00000000000000000000000000000000000000000000000000000000000000000000000000000000000000000000000000000000000000000000000000000000000000000000000000000000000000000000000000000000000000000000000000000000000000000000000000000000000000000000000000000000000000
310
00000000000000000000000000000000000000000000000000000000000000000000000000000000000000000000000000000000000000000000000000000000000000000000000000000000000000000000000000000000000000000000000000000000000000000000000000000000000000000000000000000000000000
310
00000000000000000000000000000000000000000000000000000000000000000000000000000000000000000000000000000000000000000000000000000000000000000000000000000000000000000000000000000000000000000000000000000000000000000000000000000000000000000000000000000000000000
310
00000000000000000000000000000000000000000000000000000000000000000000000000000000000000000000000000000000000000000000000000000000000000000000000000000000000000000000000000000000000000000000000000000000000000000000000000000000000000000000000000000000000000
310
00000000000000000000000000000000000000000000000000000000000000000000000000000000000000000000000000000000000000000000000000000000000000000000000000000000000000000000000000000000000000000000000000000000000000000000000000000000000000000000000000000000000000
310
00000000000000000000000000000000000000000000000000000000000000000000000000000000000000000000000000000000000000000000000000000000000000000000000000000000000000000000000000000000000000000000000000000000000000000000000000000000000000000000000000000000000000
310
00000000000000000000000000000000000000000000000000000000000000000000000000000000000000000000000000000000000000000000000000000000000000000000000000000000000000000000000000000000000000000000000000000000000000000000000000000000000000000000000000000000000000
310
00000000000000000000000000000000000000000000000000000000000000000000000000000000000000000000000000000000000000000000000000000000000000000000000000000000000000000000000000000000000000000000000000000000000000000000000000000000000000000000000000000000000000
310
00000000000000000000000000000000000000000000000000000000000000000000000000000000000000000000000000000000000000000000000000000000000000000000000000000000000000000000000000000000000000000000000000000000000000000000000000000000000000000000000000000000000000
310
00000000000000000000000000000000000000000000000000000000000000000000000000000000000000000000000000000000000000000000000000000000000000000000000000000000000000000000000000000000000000000000000000000000000000000000000000000000000000000000000000000000000000
310
00000000000000000000000000000000000000000000000000000000000000000000000000000000000000000000000000000000000000000000000000000000000000000000000000000000000000000000000000000000000000000000000000000000000000000000000000000000000000000000000000000000000000
310
00000000000000000000000000000000000000000000000000000000000000000000000000000000000000000000000000000000000000000000000000000000000000000000000000000000000000000000000000000000000000000000000000000000000000000000000000000000000000000000000000000000000000
310
00000000000000000000000000000000000000000000000000000000000000000000000000000000000000000000000000000000000000000000000000000000000000000000000000000000000000000000000000000000000000000000000000000000000000000000000000000000000000000000000000000000000000
310
00000000000000000000000000000000000000000000000000000000000000000000000000000000000000000000000000000000000000000000000000000000000000000000000000000000000000000000000000000000000000000000000000000000000000000000000000000000000000000000000000000000000000
310
00000000000000000000000000000000000000000000000000000000000000000000000000000000000000000000000000000000000000000000000000000000000000000000000000000000000000000000000000000000000000000000000000000000000000000000000000000000000000000000000000000000000000
310
00000000000000000000000000000000000000000000000000000000000000000000000000000000000000000000000000000000000000000000000000000000000000000000000000000000000000000000000000000000000000000000000000000000000000000000000000000000000000000000000000000000000000
310
00000000000000000000000000000000000000000000000000000000000000000000000000000000000000000000000000000000000000000000000000000000000000000000000000000000000000000000000000000000000000000000000000000000000000000000000000000000000000000000000000000000000000
310
00000000000000000000000000000000000000000000000000000000000000000000000000000000000000000000000000000000000000000000000000000000000000000000000000000000000000000000000000000000000000000000000000000000000000000000000000000000000000000000000000000000000000
310
00000000000000000000000000000000000000000000000000000000000000000000000000000000000000000000000000
  0
XRECORD
  5
3671A
102
{ACAD_REACTORS
330
3641F
102
}
330
3641F
100
AcDbXrecord
280
     1
102
SHADEPLOT
 70
     0
102
SHADEPLOTRESLEVEL
 70
     2
102
SHADEPLOTCUSTOMDPI
 70
   300
  0
XRECORD
  5
36420
102
{ACAD_REACTORS
330
3641F
102
}
330
3641F
100
AcDbXrecord
280
     1
310
280000000001000070000000010008000000000000700000000000000000000000010000000000000000000000000000FFFFFF000000000000000000000000000000000000000000000000000000000000000000330000006600000099000000CC000000FF00000000330000333300006633000099330000CC330000FF3300
310
0000660000336600006666000099660000CC660000FF66000000990000339900006699000099990000CC990000FF99000000CC000033CC000066CC000099CC0000CCCC0000FFCC000000FF000033FF000066FF000099FF0000CCFF0000FFFF000000003300330033006600330099003300CC003300FF003300003333003333
310
33006633330099333300CC333300FF33330000663300336633006666330099663300CC663300FF66330000993300339933006699330099993300CC993300FF99330000CC330033CC330066CC330099CC3300CCCC3300FFCC330000FF330033FF330066FF330099FF3300CCFF3300FFFF330000006600330066006600660099
310
006600CC006600FF00660000336600333366006633660099336600CC336600FF33660000666600336666006666660099666600CC666600FF66660000996600339966006699660099996600CC996600FF99660000CC660033CC660066CC660099CC6600CCCC6600FFCC660000FF660033FF660066FF660099FF6600CCFF6600
310
FFFF660000009900330099006600990099009900CC009900FF00990000339900333399006633990099339900CC339900FF33990000669900336699006666990099669900CC669900FF66990000999900339999006699990099999900CC999900FF99990000CC990033CC990066CC990099CC9900CCCC9900FFCC990000FF99
310
0033FF990066FF990099FF9900CCFF9900FFFF99000000CC003300CC006600CC009900CC00CC00CC00FF00CC000033CC003333CC006633CC009933CC00CC33CC00FF33CC000066CC003366CC006666CC009966CC00CC66CC00FF66CC000099CC003399CC006699CC009999CC00CC99CC00FF99CC0000CCCC0033CCCC0066CC
310
CC0099CCCC00CCCCCC00FFCCCC0000FFCC0033FFCC0066FFCC0099FFCC00CCFFCC00FFFFCC000000FF003300FF006600FF009900FF00CC00FF00FF00FF000033FF003333FF006633FF009933FF00CC33FF00FF33FF000066FF003366FF006666FF009966FF00CC66FF00FF66FF000099FF003399FF006699FF009999FF00CC
310
99FF00FF99FF0000CCFF0033CCFF0066CCFF0099CCFF00CCCCFF00FFCCFF0000FFFF0033FFFF0066FFFF0099FFFF00CCFFFF00FFFFFF00000000000D0D0D001A1A1A00282828003535350043434300505050005D5D5D006B6B6B00787878008686860093939300A1A1A100AEAEAE00BBBBBB00C9C9C900D6D6D600E4E4E400
310
F1F1F100FFFFFF000000000000000000000000000000000000000000000000000000000000000000000000000000000000000000000000000000000000000000000000000000000000000000000000000000000000000000000000000000000000000000000000000000000000000000000000000000000000000000000000
310
00000000000000000000000000000000000000000000000000000000000000000000000000000000000000000000000000000000000000000000000000000000000000000000000000000000000000000000000000000000000000000000000000000000000000000000000000000000000000000000000000000000000000
310
00000000000000000000000000000000000000000000000000000000000000000000000000000000000000000000000000000000000000000000000000000000000000000000000000000000000000000000000000000000000000000000000000000000000000000000000000000000000000000000000000000000000000
310
00000000000000000000000000000000000000000000000000000000000000000000000000000000000000000000000000000000000000000000000000000000000000000000000000000000000000000000000000000000000000000000000000000000000000000000000000000000000000000000000000000000000000
310
00000000000000000000000000000000000000000000000000000000000000000000000000000000000000000000000000000000000000000000000000000000000000000000000000000000000000000000000000000000000000000000000000000000000000000000000000000000000000000000000000000000000000
310
00000000000000000000000000000000000000000000000000000000000000000000000000000000000000000000000000000000000000000000000000000000000000000000000000000000000000000000000000000000000000000000000000000000000000000000000000000000000000000000000000000000000000
310
00000000000000000000000000000000000000000000000000000000000000000000000000000000000000000000000000000000000000000000000000000000000000000000000000000000000000000000000000000000000000000000000000000000000000000000000000000000000000000000000000000000000000
310
00000000000000000000000000000000000000000000000000000000000000000000000000000000000000000000000000000000000000000000000000000000000000000000000000000000000000000000000000000000000000000000000000000000000000000000000000000000000000000000000000000000000000
310
00000000000000000000000000000000000000000000000000000000000000000000000000000000000000000000000000000000000000000000000000000000000000000000000000000000000000000000000000000000000000000000000000000000000000000000000000000000000000000000000000000000000000
310
00000000000000000000000000000000000000000000000000000000000000000000000000000000000000000000000000000000000000000000000000000000000000000000000000000000000000000000000000000000000000000000000000000000000000000000000000000000000000000000000000000000000000
310
00000000000000000000000000000000000000000000000000000000000000000000000000000000000000000000000000000000000000000000000000000000000000000000000000000000000000000000000000000000000000000000000000000000000000000000000000000000000000000000000000000000000000
310
00000000000000000000000000000000000000000000000000000000000000000000000000000000000000000000000000000000000000000000000000000000000000000000000000000000000000000000000000000000000000000000000000000000000000000000000000000000000000000000000000000000000000
310
00000000000000000000000000000000000000000000000000000000000000000000000000000000000000000000000000000000000000000000000000000000000000000000000000000000000000000000000000000000000000000000000000000000000000000000000000000000000000000000000000000000000000
310
00000000BEBEBEBEBEBEBEBEBEBEBEBEBEBEBEBEBEBEBEBEBEBEBEBEBEBEBE000000000000000000000000000000000000000000000000000000000000000000000000000000000000000000000000000000000000000000000000000000000000000000000000000000000000000000000000000000000000000000000000
310
00000000000000000000000000000000000000000000000000000000000000000000000000000000000000000000000000000000000000000000000000000000000000000000000000000000000000000000000000000000000000000000000000000000000000000000000000000000000000000000000000000000000000
310
000000000000BEBEBEBEBEBEBEBEBEBEBEBEBEBEBEBEBEBEBEBEBEBEBEBEBEBEBE00000000000000000000000000000000000000000000000000000000000000000000000000000000000000000000000000000000000000000000000000000000000000000000000000000000000000000000000000000000000000000000
310
00000000000000000000000000000000000000000000000000000000000000000000000000000000000000000000000000000000000000000000000000000000000000000000000000000000000000000000000000000000000000000000000000000000000000000000000000000000000000000000000000000000000000
310
0000000000000000BEBEBEBEBEBEBEBEBEBEBEBEBEBEBEBEBEBEBEBEBEBEBEBEBEBEBE0000000000000000000000000000000000000000000000000000000000000000000000000000000000000000000000000000000000000000000000000000000000000000000000000000000000000000000000000000000000000000
310
00000000000000000000000000000000000000000000000000000000000000000000000000000000000000000000000000000000000000000000000000000000000000000000000000000000000000000000000000000000000000000000000000000000000000000000000000000000000000000000000000000000000000
310
00000000000000000000BEBEBEBEBEBEBEBEBEBEBEBEBEBEBEBEBEBEBEBEBEBEBEBEBEBEBE000000000000000000000000000000000000000000000000000000000000000000000000000000000000000000000000000000000000000000000000000000000000000000000000000000000000000000000000000000000000
310
00000000000000000000000000000000000000000000000000000000000000000000000000000000000000000000000000000000000000000000000000000000000000000000000000000000000000000000000000000000000000000000000000000000000000000000000000000000000000000000000000000000000000
310
000000000000000000000000BEBEBEBEBEBEBEBEBEBEBEBEBEBEBEBEBEBEBEBEBEBEBEBEBEBEBE00000000000000000000000000000000000000000000000000000000000000000000000000000000000000000000000000000000000000000000000000000000000000000000000000000000000000000000000000000000
310
00000000000000000000000000000000000000000000000000000000000000000000000000000000000000000000000000000000000000000000000000000000000000000000000000000000000000000000000000000000000000000000000000000000000000000000000000000000000000000000000000000000000000
310
00000000000000000000000000000000000000000000000000000000000000000000000000000000000000000000000000000000000000000000000000000000000000000000000000000000000000000000000000000000000000000000000000000000000000000000000000000000000000000000000000000000000000
310
0000000000000000000000000000000000000000000000000000000000000000000000000000000000000000000000000000000000000000000000000000000000000000000000000000000000000000000000000000000000000000000000000000000000000000000000000000000000000000BEBEBEBEBEBEBEBEBEBEBE
310
BEBEBEBEBEBEBEBEBEBEBEBEBEBEBEBEBEBEBEBEBEBEBEBEBEBEBEBEBEBEBEBEBEBEBEBEBEBEBEBEBEBEBE000000000000000000000000000000000000000000000000000000000000000000000000000000000000000000000000000000000000000000000000000000000000000000000000000000000000000000000000
310
00000000000000000000000000000000000000000000000000000000000000000000000000000000000000000000000000000000000000000000000000000000000000000000000000000000000000000000000000000000000000000000000000000000000000000000000000000000000000000000BEBEBEBEBEBEBEBEBE
310
BEBEBEBEBEBEBEBEBEBEBEBEBEBEBEBEBEBEBEBEBEBEBEBEBEBEBEBEBEBEBEBEBEBEBEBEBEBEBEBEBEBEBEBEBE00000000000000000000000000000000000000000000000000000000000000000000000000000000000000000000000000000000000000000000000000000000000000000000000000000000000000000000
310
000000000000000000000000000000000000000000000000000000000000000000000000000000000000000000000000000000000000000000000000000000000000000000000000000000000000000000000000000000000000000000000000000000000000000000000000000000000000000000000000BEBEBEBEBEBEBE
310
BEBEBEBEBEBEBEBEBEBEBEBEBEBEBEBEBEBEBEBEBEBEBEBEBEBEBEBEBEBEBEBEBEBEBEBEBEBEBEBEBEBEBEBEBEBEBE0000000000000000000000000000000000000000000000000000000000000000000000000000000000000000000000000000000000000000000000000000000000000000000000000000000000000000
310
0000000000000000000000000000000000000000000000000000000000000000000000000000000000000000000000000000000000000000000000000000000000000000000000000000000000000000000000000000000000000000000000000000000000000000000000000000000000000000000000000000BEBEBEBEBE
310
BEBEBEBEBEBEBEBEBEBEBEBEBEBEBEBEBEBEBEBEBEBEBEBEBEBEBEBEBEBEBEBEBEBEBEBEBEBEBEBEBEBEBEBEBEBEBEBEBE000000000000000000000000000000000000000000000000000000000000000000000000000000000000000000000000000000000000000000000000000000000000000000000000000000000000
310
00000000000000000000000000000000000000000000000000000000000000000000000000000000000000000000000000000000000000000000000000000000000000000000000000000000000000000000000000000000000000000000000000000000000000000000000000000000000000000000000000000000BEBEBE
310
BEBEBEBEBEBEBEBEBEBEBEBEBEBEBEBEBEBEBEBEBEBEBEBEBEBEBEBEBEBEBEBEBEBEBEBEBEBEBEBEBEBEBEBEBEBEBEBEBEBEBE000000000000000000000000000000000000000000000000000000BEBEBEBEBEBEBEBEBEBEBEBEBEBEBEBEBEBEBEBEBEBEBEBEBEBEBEBEBEBEBEBEBEBEBEBEBEBEBEBEBEBEBEBEBE00000000
310
00000000000000000000000000000000000000000000000000000000000000000000000000000000000000000000000000000000000000000000000000000000000000000000000000000000000000000000000000000000000000000000000000000000000000000000000000000000000000000000000000000000000000
310
000000000000BEBEBEBEBEBEBEBEBEBEBEBE0000BEBEBEBEBEBEBEBEBEBEBEBEBEBEBEBEBEBE0000BEBEBEBEBEBEBEBEBEBEBEBEBEBE0000000000000000000000000000000000000000000000000000BEBEBEBEBEBEBEBEBEBEBEBEBEBEBEBEBEBEBEBEBEBEBEBEBEBEBEBEBEBEBEBEBEBEBEBEBEBEBEBEBEBEBEBEBE0000
310
00000000000000000000000000000000000000000000000000000000000000000000000000000000000000000000000000000000000000000000000000000000000000000000000000000000000000000000000000000000000000000000000000000000000000000000000000000000000000000000000000000000000000
310
0000000000000000BEBEBEBEBEBEBEBEBEBEBEBE0000BEBEBEBEBEBEBEBEBEBEBEBEBEBEBEBEBEBE0000BEBEBEBEBEBEBEBEBEBEBEBEBEBE0000000000000000000000000000000000000000000000000000BEBEBEBEBEBEBEBEBEBEBEBEBEBEBEBEBEBEBEBEBEBEBEBEBEBEBEBEBEBEBEBEBEBEBEBEBEBEBEBEBEBEBEBEBE
310
000000000000000000000000000000000000000000000000000000000000000000000000BEBEBEBEBEBEBEBEBEBEBEBEBEBEBE00000000000000000000000000000000000000000000000000000000000000000000000000000000000000000000000000000000000000000000000000000000000000000000000000000000
310
00000000000000000000BEBEBEBEBEBEBEBEBEBEBEBE0000BEBEBEBEBEBEBEBEBEBEBEBEBEBEBEBEBEBE0000BEBEBEBEBEBEBEBEBEBEBEBEBEBE0000000000000000000000000000000000000000000000000000BEBEBEBEBEBEBEBEBEBEBEBEBEBEBEBEBEBEBEBEBEBEBEBEBEBEBEBEBEBEBEBEBEBEBEBEBEBEBEBEBEBEBE
310
BEBE000000000000000000000000000000000000000000000000000000000000000000000000BEBEBEBEBEBEBEBEBEBEBEBEBEBEBE0000000000000000000000000000000000000000000000000000000000000000000000000000000000000000000000000000000000000000000000000000000000000000000000000000
310
000000000000000000000000BEBEBEBEBEBEBEBEBEBEBEBE0000BEBEBEBEBEBEBEBEBEBEBEBEBEBEBEBEBEBE0000BEBEBEBEBEBEBEBEBEBEBEBEBEBE0000000000000000000000000000000000000000000000000000BEBEBEBEBEBEBEBEBEBEBEBEBEBEBEBEBEBEBEBEBEBEBEBEBEBEBEBEBEBEBEBEBEBEBEBEBEBEBEBEBE
310
BEBEBEBE000000000000000000000000000000000000000000000000000000000000000000000000BEBEBEBEBEBEBEBEBEBEBEBEBEBEBE000000000000000000000000000000000000000000000000000000000000000000000000000000000000000000000000000000000000000000000000000000000000000000000000
310
0000000000000000000000000000BEBEBEBEBEBEBEBEBEBEBEBE0000BEBEBEBEBEBEBEBEBEBEBEBEBEBEBEBEBEBE0000BEBEBEBEBEBEBEBEBEBEBEBEBEBE0000000000000000000000000000000000000000000000000000BEBEBEBEBEBEBEBEBEBEBEBEBEBEBEBEBEBEBEBEBEBE0000BEBEBEBEBEBEBEBEBEBEBEBEBEBEBE
310
BEBEBEBEBEBEBE0000000000000000000000000000000000000000000000000000000000000000000000BEBEBEBEBEBEBEBEBEBEBEBEBEBEBE00000000000000000000000000000000000000000000000000000000000000000000000000000000000000000000000000000000000000000000000000000000000000000000
310
000000000000000000000000000000000000000000000000000000000000000000000000000000000000000000000000000000000000000000000000000000000000000000000000000000000000000000000000000000000000BEBEBEBEBEBEBEBEBEBEBEBEBEBEBEBEBEBEBEBEBEBE0000BEBEBEBEBEBEBEBEBEBEBEBEBE
310
BEBEBEBEBEBEBEBEBE0000000000000000000000000000000000000000000000000000000000000000000000BEBEBEBEBEBEBEBEBEBEBEBEBEBEBE00000000000000000000000000000000000000000000000000000000000000000000000000000000000000000000000000000000000000000000000000000000000000BE
310
BEBEBEBEBEBEBEBEBEBEBEBEBEBEBEBEBEBEBEBEBEBEBEBEBEBEBEBEBEBEBEBEBEBEBEBEBEBEBEBEBEBEBEBEBEBEBEBEBEBEBEBEBEBEBEBEBEBEBEBEBEBEBEBEBE000000000000000000000000000000000000000000000000000000BEBEBEBEBEBEBEBEBEBEBEBEBEBEBEBEBEBEBEBEBEBE0000BEBEBEBEBEBEBEBEBEBEBE
310
BEBEBEBEBEBEBEBEBEBEBE0000000000000000000000000000000000000000000000000000000000000000000000000000000000000000000000000000000000000000000000000000000000000000000000000000000000000000000000000000000000000000000000000000000000000000000000000000000000000000
310
00BEBEBEBEBEBEBEBEBEBEBEBEBEBEBEBEBEBEBEBEBEBEBEBEBEBEBEBEBEBEBEBEBEBEBEBEBEBEBEBEBEBEBEBEBEBEBEBEBEBEBEBEBEBEBEBEBEBEBEBEBEBEBEBEBEBE000000000000000000000000000000000000000000BEBEBEBEBE00BEBEBEBEBEBEBEBEBEBEBEBEBEBEBEBEBEBEBEBEBEBE0000BEBEBEBEBEBEBEBEBE
310
BEBEBEBEBEBEBEBEBEBEBEBEBE0000000000000000000000000000000000000000000000000000000000000000000000BEBEBEBEBEBEBEBEBEBEBEBEBEBEBEBEBEBEBEBEBEBEBEBEBEBEBE00000000000000000000000000000000000000000000000000000000000000000000000000000000000000000000000000000000
310
000000BEBEBEBEBEBEBEBEBEBEBEBEBEBEBEBEBEBEBEBEBEBEBEBEBEBEBEBEBEBEBEBEBEBEBEBEBEBEBEBEBEBEBEBEBEBEBEBEBEBEBEBEBEBEBEBEBEBEBEBEBEBEBEBEBEBE000000000000000000000000000000000000000000BE0000000000BEBEBEBEBEBEBEBEBEBEBEBEBEBEBEBEBEBEBEBEBEBE0000BEBEBEBEBEBEBE
310
BEBEBEBEBEBEBEBEBEBEBEBEBEBEBE0000000000000000000000000000000000000000000000000000000000000000000000BEBEBEBEBEBEBEBEBEBEBEBEBEBEBEBEBEBEBEBEBEBEBEBEBEBEBE0000000000000000000000000000000000000000000000000000000000000000000000000000000000000000000000000000
310
0000000000BEBEBEBEBEBEBEBEBEBEBEBEBEBEBEBEBEBEBEBEBEBEBEBEBEBEBEBEBEBEBEBEBEBEBEBEBEBEBEBEBEBEBEBEBEBEBEBEBEBEBEBEBEBEBEBEBEBEBEBEBEBEBEBEBEBE000000BEBEBEBE00000000000000000000000000BE0000000000000000000000000000000000000000000000000000000000000000000000
310
00000000000000000000000000000000000000000000000000000000000000000000000000000000000000000000000000000000BEBEBEBEBEBEBEBEBEBEBEBEBEBEBEBEBEBEBEBEBEBEBEBEBEBEBE000000000000000000000000000000000000000000000000000000000000000000000000000000000000000000000000
310
00000000000000BEBEBEBEBEBEBEBEBEBEBEBEBEBEBEBEBEBEBEBEBEBEBEBEBEBEBEBEBEBEBEBEBEBEBEBEBEBEBEBEBEBEBEBEBEBEBEBEBEBEBEBEBEBEBEBEBEBEBEBEBEBEBEBEBEBE000000000000BE00000000000000000000000000BE000000000000000000000000000000000000000000000000000000000000000000
310
000000000000000000000000000000000000000000000000000000000000000000000000000000000000000000000000000000000000BEBEBEBEBEBEBEBEBEBEBEBEBEBEBEBEBEBEBEBEBEBEBEBEBEBEBE00000000000000000000000000000000000000000000000000000000000000000000000000000000000000000000
310
00000000000000000000000000000000000000000000000000000000000000000000000000000000000000000000000000000000000000000000000000000000000000000000000000000000000000000000BE000000000000000000000000BE00000000000000000000000000000000000000000000000000000000000000
310
0000000000000000000000000000000000000000000000000000000000000000000000000000000000000000000000000000000000000000BEBEBEBEBEBEBEBEBEBEBEBEBEBEBEBEBEBEBEBEBEBEBEBEBEBEBE0000000000000000000000000000000000000000000000000000000000000000000000000000000000000000
310
000000000000000000000000000000000000000000000000000000000000000000000000000000000000000000000000000000000000000000000000000000000000000000000000000000000000000000000000BE0000000000000000000000BE000000000000000000000000000000000000000000000000000000000000
310
00000000000000000000000000000000000000000000000000000000000000000000000000000000000000000000000000000000000000000000BEBEBEBEBEBEBEBEBEBEBEBEBE00BEBEBEBEBEBEBE000000000000000000000000000000000000000000000000000000000000000000000000000000000000000000000000
310
0000000000000000000000000000000000000000000000000000000000000000000000000000000000000000000000000000000000000000000000000000000000000000000000000000000000000000000000000000BE0000000000000000000000BE00000000000000000000000000000000000000000000000000000000
310
000000000000000000000000000000000000000000000000000000000000000000000000000000000000000000000000000000000000000000000000BEBEBEBEBEBEBEBEBEBEBEBEBE00BEBEBEBEBEBEBE00000000000000000000000000000000000000000000000000000000000000000000000000000000000000000000
310
00000000000000000000000000000000000000000000000000000000000000000000000000000000000000000000000000000000000000000000000000000000000000000000000000000000000000000000000000000000BE0000000000000000000000BE0000000000000000000000000000000000000000000000000000
310
0000000000000000000000000000000000000000000000000000000000000000000000000000000000000000000000000000000000000000000000000000BEBEBEBEBEBEBEBEBEBEBEBEBE00BEBEBEBEBEBEBE0000000000000000000000000000000000000000000000000000000000000000000000000000000000000000
310
00000000000000000000000000000000000000000000000000000000000000000000000000000000000000000000000000000000000000000000000000000000000000000000000000000000000000000000000000000000000000BE000000000000000000BE00000000000000000000000000000000000000000000000000
310
00000000000000000000000000000000000000000000000000000000000000000000000000000000000000000000000000000000000000000000BEBEBEBEBE00BEBEBEBEBEBEBEBEBEBEBEBEBE00BEBEBEBEBEBEBE000000000000000000000000000000000000000000000000000000000000000000000000000000000000
310
000000000000000000000000000000000000000000000000000000000000000000000000000000000000000000000000000000000000000000000000000000000000000000000000000000000000000000000000000000000000000000BE000000000000000000BE0000000000000000000000000000000000000000000000
310
000000000000000000000000000000000000000000000000000000000000000000000000000000000000000000000000000000000000000000000000BE0000000000BEBEBEBEBEBEBEBEBEBEBEBEBE00BEBEBEBEBEBEBE00000000000000000000000000000000000000000000000000000000000000000000000000000000
310
0000000000000000000000000000000000000000000000000000000000000000000000000000000000000000000000000000000000000000000000000000000000000000000000000000000000000000000000000000000000000000000000BE000000000000000000BE000000000000000000000000000000000000000000
310
0000000000000000000000000000000000000000000000000000000000000000000000000000000000000000000000000000000000000000000000000000BE00000000000000000000000000000000000000000000000000000000000000000000000000000000000000000000000000000000000000000000000000000000
310
00000000000000000000000000000000000000000000000000BE0000000000000000000000000000000000000000000000000000000000000000000000000000000000000000000000000000000000000000000000000000000000000000000000BE0000000000000000BE0000000000000000000000000000000000000000
310
000000000000000000000000000000000000000000000000000000000000000000000000000000000000000000000000000000000000000000000000000000BE000000000000000000000000000000000000000000000000000000000000000000000000000000000000000000000000000000000000000000000000000000
310
000000000000000000000000000000000000000000000000000000BE000000000000000000000000000000000000000000000000000000000000000000000000000000000000000000000000000000000000000000000000000000000000000000000000BE00000000000000BE000000000000000000000000000000000000
310
0000000000000000000000000000000000000000000000000000000000000000000000000000000000000000000000000000000000000000000000000000000000BE00000000000000000000000000000000000000000000000000000000000000000000000000000000000000000000000000000000000000000000000000
310
0000000000000000000000000000000000000000000000000000000000BE0000000000000000000000000000000000000000000000000000000000000000000000000000000000000000000000000000000000000000000000000000000000000000000000BEBE00000000000000BE00000000000000000000000000000000
310
000000000000000000000000000000000000000000000000000000000000000000000000000000000000000000000000000000000000000000000000000000000000BEBE0000000000000000000000000000000000000000000000000000000000000000000000000000000000000000000000000000000000000000000000
310
00000000000000000000000000000000000000000000000000000000000000BE000000000000000000000000000000000000000000000000000000000000000000000000000000000000000000000000000000000000000000000000000000000000000000000000BE000000000000BE000000000000000000000000000000
310
0000000000000000000000000000000000000000000000000000000000000000000000000000000000000000000000000000000000000000000000000000000000000000BEBE000000000000000000000000000000000000000000000000000000000000000000000000000000000000000000000000000000000000000000
310
000000000000000000000000000000000000000000000000000000000000000000BE000000000000000000000000000000000000000000000000000000000000000000000000000000000000000000000000000000000000000000000000000000000000000000000000BEBE0000000000BE00000000000000000000000000
310
00000000000000000000000000000000000000000000000000000000000000000000000000000000000000000000000000000000000000000000000000000000000000000000BE0000000000000000000000000000000000000000000000000000000000000000000000000000000000000000000000000000000000000000
310
0000000000000000000000000000000000000000000000000000000000000000000000BEBEBEBEB8BEBEBEBEB8BEBEBEBEB8BEBEBEBEB8BEBEBEBEBEBEBEBEBEBEBEBEBEBEBEB8BEBEBEBEB8BEBEBEBEB8BEBEBEBEB8BEBEBEBEB8BEBEBEBEBEBEBEBEBEBEBEBEBEBEBEB8BEBEBEBEB8BEBEBEBEB8BEBEBEBEB8BEBEBEBEB8
310
BEBEBEBEBEBEBEBEBEBEBEBEBEBEBEB8BEBEBEBEB8BEBEBEBEB8BEBEBEBEB8BEBEBEBEB8BEBEBEBEBEBEBEBEBEBEBEBEBEBEBEB8BEBEBEBEB8BEBEBEBEB8BEBEBEBEB8BEBEBEBEB8BEBEBEBEBEBEBEBEBEBEBEBEBEBEBEB8BEBEBEBEB8BEBEBEBEB8BEBEBEBEB8BEBEBEBEB8BEBEBEBE000000000000000000000000000000
310
00000000000000000000000000000000000000000000000000000000000000000000000000BE0000000000000000000000000000000000000000000000000000000000000000000000000000000000000000000000000000000000000000000000BEBEBEBEBEBEBEBEBEBEBEBEBEBEBEBEBEBEBEBEBEBEBEBEBEBEBEBE0000
310
0000000000000000000000000000000000000000000000000000000000000000000000000000000000000000000000000000000000000000000000000000000000000000000000000000000000000000000000000000000000000000000000000000000000000000000000000000000000B800000000000000000000000000
310
000000000000000000000000000000000000000000000000000000000000000000000000000000BE0000000000000000000000000000000000000000000000000000000000000000000000000000000000000000000000000000000000000000000000BEBEBEBEBEBEBEBEBEBEBEBEBEBEBEBEBEBEBEBEBEBEBEBEBEBEBEBE
310
00000000000000000000000000000000000000000000000000000000000000000000000000000000000000000000000000000000000000000000000000000000000000000000000000000000000000000000000000000000000000000000000000000000000000000000000000000000000000B80000000000000000000000
310
0000000000000000000000000000000000000000000000000000000000000000000000000000000000BE00000000000000000000000000000000000000000000000000000000000000000000000000000000000000000000000000000000000000000000000000000000000000000000000000B800000000BE000000000000
310
000000000000000000000000000000000000000000000000000000000000000000000000000000000000000000000000000000000000000000000000000000000000000000000000000000000000000000000000000000000000000000000000000000000000000000000000000000000000000000B8000000000000000000
310
00000000000000000000000000000000000000000000000000000000000000000000000000000000000000BE00000000000000000000000000000000000000000000000000000000000000000000000000000000000000000000000000000000000000000000000000000000000000000000000000B8000000BEBE00000000
310
0000000000000000000000000000000000000000000000000000000000000000000000000000000000000000000000000000000000000000000000000000000000000000000000000000000000000000000000000000000000000000000000000000000000000000000000000000000000000000000000B800000000000000
310
000000000000000000000000000000000000000000000000000000000000000000000000000000000000000000BE00000000000000000000000000000000000000000000000000000000000000000000000000000000000000000000000000000000000000000000000000000000000000BEBEBEBEBE00B8BEBEBEBEBE0000
310
00000000000000000000000000000000000000000000000000000000000000000000000000000000000000000000000000000000000000000000000000000000000000000000000000000000000000000000000000000000000000000000BEBEBEBEBE00000000000000000000000000000000000000000000B80000000000
310
0000000000000000000000000000000000000000000000000000000000000000000000000000000000000000000000B8B8B8B8B8B8B8B8B8B8B8B8B8B8B8B8B8B8B8B8B8B8B8B8B8B8B8B8B8B8B8B8B8B8B8B8B8B8B8B8B8B8B8B8B8B8B8B8B8B8B8B8B8B8B8B8B8B8B8B8B8B8B8B8B8B8B8B8BEBEBEBEBEB8B8BEBEBEBEBE
310
B8B8B8B8B8B8B8B8B8B8B8B8B8B8B8B8B8B8B8B8B8B8B8B8B8B8B8B8B8B8B8B8B8B8B8B8B8B8B8B8B8B8B8B8B8B8B8B8B8B8B8B8B8B8B8B8B8B8B8B8B8B8B8B8B8B8B8B8B8B8B8B8B8B8B8B8B8B8B8B8B8B8B8B8B8B8B8B8B8B8B8B8B8B8B8B8B8B8B8B8B8B8B8B8B8B8B8B8B8B8B8B8B8B8B8B8B8B8B8B8B8B8B8B8000000
310
00000000000000000000000000000000000000000000000000000000000000000000000000000000000000000000000000BEBEBEBEBEBEBEBEBEBEBEBEBEBEBEBEBEBEBEBEBEBEBEBEBEBEBEBEBEBEBEBEBEBEBEBEBEBEBEBEBEBEBEBEBEBEBEBEBEBEBEBEEFDCDCDCDCDCDCDCDCDCDCDCDCDCDCDC2DBEBEBE2D2D2D2DBEBE
310
BE2D2DDCDCDCDCDCDCDCDCDCDCDCDCDCDCBEBEBEBEBEBEBEBEBEBEBEBEBEBEBEBEBEBEBEBEBEBEBEBEBEBEBEBEBEBEBEBEBEBEBEBEBEBEBEBEBEBEBEBEBEBEBEBEBEBEBEBEBEBEBEBEDCDCDCDCDCDCDCDCDCDCDCDCDCDCDCDCDCDCDCDCDCDC2D2D2D2DBEBEBEBE2D0000000000000000000000000000000000000000000000
310
000000000000000000000000000000000000000000000000000000000000000000000000000000000000000000000000000000BEBE00BE0000BE00BE0000BE00BE0000BE00BE0000BE00BE00BE0000BE00BE00BE0000BE00BEBE00BE00BE0000BE00BE0000BE00EF00000000000000000000000000000000BEBEBE002D2D00
310
BEBEBE00000000000000000000000000000000EFBE00BE00BEBE00BE00BE0000BE00BE00BE0000BE0000BE00BE00BE0000BE00BE00BEBE00BE00BE0000BE00BE00BE0000BE0000BE00BEEF000000000000000000000000000000000000000000DC00002D00BEBEBEBE00000000000000000000000000000000000000000000
310
0000000000000000000000000000000000000000000000000000000000000000000000000000000000000000000000000000000000BEBEBE00BE0000BE00000000BE00000000BE00BE0000BE000000BE00000000BE00BE0000BE00000000BE00000000BE00BE0000BEEF00BEBEBEBEBEBEBEBEBEBEBEBEBEBEBEBEBEBEBEBE
310
BEBEBEBEBEBEBEBEBEBEBEBEBEBEBEBEBEBEBEBE0000EF0000BE00000000BE00BE0000BE000000BE0000000000BE00BE00BE00000000BE00000000BE00BE0000BE000000BE0000000000BE00EF00000000BEBEBEBEBEBEBEBEBEBEBEBEBEBEBEBEBEBEBEBEBEBEBEBEBEBE0000000000000000000000000000000000000000
310
000000000000000000000000000000000000000000000000000000000000000000000000000000000000000000000000000000000000000000BEBE00BE00BE0000BE0000BE00BE00BE0000BE00BE00BE0000BE00BE0000BE00BE00BE0000BE0000BE00BE00BE0000BE00BEEF00BE00BEBE0000000000000000000000BE00BE
310
00BE2D00BEBEBE0000000000000000000000BEBE00BE0000EFBE0000BE00BE00BE0000BE00BE00BE0000BE00BE0000BE0000BE00BE00BE0000BE00BE00BE0000BE00BE0000BE00BE00BE0000BE00EF00000000BE0000BEBE00000000000000000000000000BE002DBEBEBEBE00000000000000000000000000000000000000
310
00000000000000000000000000000000000000000000000000000000000000000000000000000000000000000000000000000000000000000000000000BEBEBE00BE0000BE0000BE00BE00BE0000BE00BE00BE0000BE00BE0000BE00BE0000BE00BE0000BE00BE00BE0000BE00EF00BE00BEBE0000000000000000000000BE
310
BEBE00BE2D00BEBEBE0000000000000000000000BEBE00BE0000EF00BE0000BE00BE00BE0000BE00BE00BEBE00BE00BEBE00BE0000BE00BE00BE0000BE00BE00BE0000BE00BE0000BE00BE00BEBE00BEEF00000000BE0000BEBE00000000000000000000000000BE002DBEBEBEBE0000000000000000000000000000000000
310
000000000000000000000000000000000000000000000000000000000000000000000000000000000000000000000000000000000000000000000000BEBEBE00BE00BE00BEBE00BE0000BE00BE00BE0000BE00BE0000BE00BE0000BE00BE00BE0000BE00BE0000BE00BE00BE0000BEEF00BE00BEBE00000000000000000000
310
0000BE0000BE2D00BEBE000000000000000000000000BEBE00BE0000EFBE00BE0000BE00BE00BEBE00BE00BE0000BE00BE0000BE00BE0000BE00BE00BE0000BE00BE00BEBE00BE00BEBE00BE00BEBE00BE00EF00000000BE0000BEBE00000000000000000000000000BE002DBE00BE00000000000000000000000000000000
310
0000000000000000000000000000000000000000000000000000000000000000000000000000000000000000000000000000000000000000000000BEBEBE0000BEBE00BE00BE0000BE00BE0000BE00BE0000BE00BE00BE0000BE00BE0000BE00BE00BE0000BE00BE0000BE00BE0000BE00EF00BE00BEBE0000000000000000
310
00000000000000BE2D00BE00000000000000000000000000BEBE00BE00EFEF00BE00BEBE00BE00BE0000BE00BE0000BE00BE00BE0000BE00BE0000BE00BE00BEBE00BE00BE0000BE00BE0000BE00BE0000BE00BEEF00000000BE0000BEBE00000000000000000000000000BE002DBE00000000000000000000000000000000
310
0000000000000000000000000000000000000000000000000000000000000000000000000000000000000000000000000000000000000000000000BEBEBE0000BE0000000000BE00BE0000BE00000000BE00000000BE00BE00BE00000000BE00000000BE00BE0000BE00000000BE00000000BEEF00BE00BEBE000000000000
310
000000000000000000BE2D00BE00000000000000000000000000BEBE00BE00EFBE0000BE00000000BE00000000BE00BE0000BE000000BE00000000BE0000BE00BE00000000BE00000000BE00BE0000BE00000000BE00EF00000000BE0000BEBE00000000000000000000000000BE002DBE0000000000000000000000000000
310
0000000000000000000000000000000000000000000000000000000000000000000000000000000000000000000000000000000000000000000000000000BEBE00BE00BE0000BE00BE0000BE00BE0000BE0000BEBE0000BE0000BE00BE00BE0000BE00BE00BE0000BE00BE0000BE0000BEBE0000BEEF00BEBEBEBEBEBEBEBE
310
BEBEBEBEBEBEBEBEBEDCBEBEBEBEBEBEBEBEBEBEBEBEBEBEBEBEBEBEBEBEBEBE00EF00BE00BE0000BE0000BE00BE00BE0000BE00BE00BE0000BE00BE0000BE0000BEBE0000BE0000BE00BE00BE0000BE00BE00BE000000BEEF00000000BEBEBEBEBEBEBEBEBEBEBEBEBEBEBEBEBEBEBEBEBEBE000000000000000000000000
310
000000000000000000000000000000000000000000000000000000000000000000000000000000000000000000000000000000000000000000000000000000000000BEBEBE00BE0000BE00BE0000BE00BE0000BE0000BEBEBE00BE0000BE00BE00BE0000BE00BE0000BE00BEBEBE0000BE0000BEBEBE00EF000000BEBE0000
310
0000000000000000000000DC002D2D0000DC000000000000BE0000000000BEBE000000EFBE00BE0000BE00BE0000BE00BE00BE0000BE00BE00BEBE00BE00BE0000BE0000BE00BE00BE0000BE00BE00BE0000BE00BE00BEBE0000EF00000000000000BEBE0000000000BE000000000000DC00002D0000000000000000000000
310
000000000000000000000000000000000000000000000000000000000000000000000000000000000000000000000000000000000000000000000000000000000000000000BE00BE00BE0000BE00BEBE00BE00BEBE00BE0000BE00BE00BE0000BE00BE0000BE00BE00BE0000BE0000BEBEBE00BE0000BE00BEEF0000000000
310
00000000000000000000000000DC002D2D0000DC000000000000BEBE000000000000000000EFEFBE00BE0000BE00BE0000BE00BE00BE0000BE00BE0000BE00BE0000BE00BE0000BE00BE00BE0000BE00BE00BEBE00BE00BE0000BEEFEF00000000000000000000000000BEBE000000000000DC00002D000000000000000000
310
0000000000000000000000000000000000000000000000000000000000000000000000000000000000000000000000000000000000000000000000000000000000000000000000BEBE00BEBEBE0000BE0000BE00BE0000BE00BE00BE0000BE00BE00BE0000BE0000BE00BE00BEBE00BE0000BE00BE00BE0000BEEFEF000000
310
000000000000000000000000000000DC002D2D0000DC000000000000BEBE00000000000000000000EF00BE00BE0000BE00BE00BE0000BE0000BE00BE0000BE00BE00BE0000BE00BE00BE0000BE00BE00BE0000BE0000BE00BE0000BE00EF0000000000000000000000000000BEBE000000000000DC00002D00000000000000
310
00000000000000000000000000000000000000000000000000000000000000000000000000000000000000000000000000000000000000000000000000000000000000000000000000BE00BE0000BEBE000000BE00BE00BE0000BE00BE00BE0000BE00BEBEBE0000BEBE00BE00BE0000BE00BE0000BE00BE00BE0000EF0000
310
0000000000000000000000000000000000DC002D2D0000DC000000000000BEBE00000000000000000000EFEF00BE00BE0000BE0000BEBE0000BE0000BE00BE0000BE00BE00BE0000BE00BE00BE0000BE0000BEBE000000BE00BE00BE0000BEEF0000000000000000000000000000BEBE000000000000DC00002D0000000000
310
000000000000000000000000000000000000000000000000000000000000000000000000000000000000000000000000000000000000000000000000000000000000000000000000000000BE0000000000BEBE000000BE000000BE00000000BE00BE0000BE000000BE0000000000BE00BE0000BE00000000BE000000BEEFEF
310
00000000000000000000000000000000000000DC00BEBEBE00DC00000000000000BE0000000000000000000000EFBE000000BE0000000000BEBE0000BE00000000BE00000000BE00BE0000BE000000BE0000000000BEBE000000BE000000BE00EF000000000000000000000000000000BE00000000000000DC00BEBEBE0000
310
0000000000000000000000000000000000000000000000000000000000000000000000000000000000000000000000000000000000000000000000000000000000000000000000000000000000BEBE0000BE00BE00BEBE00BE00BE0000BE00BE0000BE00BE00BE0000BE00BE0000BE00BE0000BE00BE00BE000000BEBE00EF
310
EF0000000000000000000000000000000000000000BEBEBEBEBEBEDC0000000000000000BE00000000000000000000EFEF0000BE00BE00BE0000BE00BE0000BE00BE0000BE00BE00BE0000BE00BE0000BE00BE00BE0000BE00BE0000BE00BE0000EFEF000000000000000000000000000000BE00000000000000DCBEBEBEBE
310
BE000000000000000000000000000000000000000000000000000000000000000000000000000000000000000000000000000000000000000000000000000000000000000000000000000000000000BE00BE0000BE00BE0000BE00BE00BEBE00BE00BE0000BE00BE0000BE00BE00BE0000BE00BE0000BE00BE00BEBE0000BE
310
BEEF000000000000000000000000000000000000000000BEBE2D2DBEBEDC0000000000000000BE0000000000000000000000EFBE0000BE00BE00BEBE00BE00BE0000BE00BE0000BE00BE0000BE00BE00BE0000BE00BE00BEBE00BE00BE0000BE00BE00EF000000000000000000000000000000BE0000000000000000BEBEBE
310
2DBEBEBE0000000000000000000000000000000000000000000000000000000000000000000000000000000000000000000000000000000000000000000000000000000000000000000000000000000000BEBE00BE0000BE00BE0000BE00BE0000BE00BE0000BE00BE00BE0000BE00BE00BE0000BE00BEBE00BE00BE0000BE
310
0000BEEF000000000000000000000000000000000000000000BEBE2D2D00BEDC0000000000000000BE0000000000000000000000EFEFBEBE00BE00BE0000BE00BE00BE0000BE0000BE00BE00BE0000BE00BE00BEBE00BE00BE0000BE00BE00BE0000BE0000EF000000000000000000000000000000BE0000000000000000BE
310
BE002D00BEBE0000000000000000000000000000000000000000000000000000000000000000000000000000000000000000000000000000000000000000000000000000000000000000000000000000000000BE00BE00BE0000BE0000BE00BE0000BE00BE00BE0000BE00BE00BE0000BE00BEBEBE0000BE0000BE00BE0000
310
BE00BE0000EFDCDCDCDCDCDCDCDCDCDCDCDCDCDCDCDCDCDCDCDCDCBEBE2D2D2DBEDCDCDCDCDCDCDCDCDCDCDCDCDCDCDCDCDCDCDCDCDCDCEFBE00BE00BE00BE0000BE00BE00BE0000BE0000BE00BE00BEBE00BE00BE0000BE00BE00BE0000BE0000BEBE0000BEEFEFDCDCDCDCDCDCDCDCDCDCDCDCDCDCDCDCDCDCDCDCDCDCDC
310
DCBEBE2D2D2DBEBE0000000000000000000000000000000000000000000000000000000000000000000000000000000000000000000000000000000000000000000000000000000000000000000000000000000000BEBE0000BEBE0000BE0000BE00BE0000BE00BE00BE0000BE00BE00BE0000BE0000BEBE000000BE00BE00
310
BE0000BE00BE00EF000000000000000000000000000000000000000000BEBE2D002DBEDC000000000000000000BE0000000000000000000000EF00BE00BE00BE00BE0000BE00BEBEBE0000BEBE00BE00BE0000BE00BE00BE0000BE00BE00BE0000BE0000BEBE0000EFEF000000000000000000000000000000BE0000000000
310
000000BEBE2D002DBEBE0000000000000000000000000000000000000000000000000000000000000000000000000000000000000000000000000000000000000000000000000000000000000000000000000000000000BE00000000BEBE0000BE00000000BE00000000BE00BE0000BE000000BE0000000000BEBE000000BE
310
000000BE00000000BEEF000000000000000000000000000000000000000000DCBEBE00BEBEDC000000000000000000BE0000000000000000000000EF00BE00000000BE00BE0000BE000000BE0000000000BE00BE0000BE000000BE00000000BE00BE0000BE000000BE0000EF0000000000000000000000000000BE00000000
310
0000000000DCBEBE00BEBE000000000000000000000000000000000000000000000000000000000000000000000000000000000000000000000000000000000000000000000000000000000000000000000000000000000000BEBEBE0000BE00BE0000BE00BE0000BE00BE00BE0000BE00BE0000BE00BE0000BE00BE00BE00
310
00BE00BE0000BE00BE00BEEFDCDCDCDCDCDCDCDCDCDCDCDCDCDCDCDCDCDCDCDCDCDCBEBE2DBE00DCDCDCDCDCDCDCDCDCDCDCDCDCDCDCDCDCDCDCDCDCDCBE0000BE00BE0000BE00BE00BE0000BE00BE0000BE00BE0000BE00BE00BE0000BE00BE0000BE00BE0000BE00BE00BE00EFDCDCDCDCDCDCDCDCDCDCDCDCDCDCDCDCDC
310
DCDCDCDCDCDCDCDCBEBE2DBEBE000000000000000000000000000000000000000000000000000000000000000000000000000000000000000000000000000000000000000000000000000000000000000000000000000000000000BEBEBEBEBEBEBEBEBEBEBEBEBEBEBEBEBEBEBEBEBEBEBEBEBEBEBEBEBEBEBEBEBEBEBEBE
310
BEBEBEBEBEBEBEBEBEBEBEBEBEEF00000000000000000000000000000000000000000000BEBE00BE00000000BEBE000000000000BE000000000000000000BEBEBEBEBEBEBEBEBEBEBEBEBEBEBEBEBEBEBEBEBEBEBEBEBEBEBEBEBEBEBEBEBEBEBEBEBEBEBEBEBEBEBEBEBEBEBEBEBEBE0000000000000000000000000000BE
310
0000000000000000000000BE00BEBE000000000000000000000000000000000000000000000000000000000000000000000000000000000000000000000000000000000000000000000000000000000000000000000000000000000000BE0000000000000000000000000000000000000000000000000000000000BE000000
310
0000000000000000000000000000000000000000000000000000000000000000000000000000BEBEBEBE0000000000BE000000000000BE000000000000000000000000000000000000000000000000000000000000000000000000000000000000000000000000000000000000000000000000000000000000000000000000
310
00BE0000000000000000000000BEBEBE00000000000000000000000000000000000000000000000000000000000000000000000000000000000000000000000000000000000000000000000000000000000000000000000000000000000000BE00000000000000000000000000000000000000000000000000000000BEBE00
310
000000000000000000000000000000000000000000000000000000000000000000000000000000BEBEBEBEBE0000000000BEBE0000000000BE00000000000000000000000000000000000000000000000000000000000000000000000000000000000000000000000000000000000000000000000000000000000000000000
310
0000BE000000000000000000000000BEBEBE0000000000000000000000000000000000000000000000000000000000000000000000000000000000000000000000000000000000000000000000000000000000000000000000000000000000000000000000000000000000000000BEBEBEBEBEBEBEBEBEBE000000000000BE
310
BE00000000000000000000BEBEBEBEBEBEBEBEBEBE00BEBEBEBEBEBEBEBEBEBE000000000000000000BE00BEBE000000000000BE00000000000000BE000000000000BEBEBEBEBEBEBEBEBEBEBE0000000000000000000000000000000000000000000000000000000000000000000000000000000000000000000000000000
310
00000000BE00000000000000000000000000BE000000000000000000000000000000000000000000000000000000000000000000000000000000000000000000000000000000000000000000000000000000000000000000000000000000000000000000000000000000000000000000BEBEBEBEBEBEBEBEBEBE0000000000
310
0000BE00000000000000000000BEBEBEBEBEBEBEBEBEBE00BEBEBEBEBEBEBEBEBEBE0000000000000000BE0000BEBEBE0000000000BE00000000000000BE000000000000BEBEBEBEBEBEBEBEBEBEBE000000000000000000000000000000000000000000000000000000000000000000000000000000000000000000000000
310
000000000000BE000000000000000000000000BEBEBE0000000000000000000000000000000000000000000000000000000000000000000000000000000000000000000000000000000000000000000000000000000000000000000000000000000000000000000000000000000000000000BEBEBEBEBEBEBEBEBEBE000000
310
00000000BE00000000000000000000BEBEBEBEBEBEBEBEBEBE00BEBEBEBEBEBEBEBEBEBE0000000000000000BE0000BEBEBE000000000000BE000000000000BE000000000000BEBEBEBEBEBEBEBEBEBEBE00000000000000000000000000000000000000000000000000000000000000000000000000000000000000000000
310
0000000000000000BE000000000000000000000000BEBEBE0000000000000000000000000000000000000000000000000000000000000000000000000000000000000000000000000000000000000000000000000000000000000000000000000000000000000000000000000000000000000000BEBEBEBEBEBEBEBEBEBE00
310
0000000000BE0000000000000000000000BEBEBEBEBEBEBEBEBEBE00BEBEBEBEBEBEBEBEBEBE00000000000000BE000000BEBEBE000000000000BE000000000000BE000000000000BEBEBEBEBEBEBEBEBEBEBE00000000000000000000000000000000000000000000000000000000000000000000BEBEBEBEBEBEBEBEBEBE
310
BE0000000000000000BE00000000000000000000000000BEBEBE0000000000000000000000000000000000000000000000000000000000000000000000000000000000000000000000000000000000000000000000000000000000000000000000000000000000000000000000000000000000000000BEBEBEBEBEBEBEBEBE
310
BE000000000000BE0000000000000000000000BEBEBEBEBEBEBEBEBEBE00BEBEBEBEBEBEBEBEBEBE00000000000000BE000000BEBE00BE0000000000BE00000000000000BE0000000000BEBEBEBEBEBEBEBEBEBEBE00000000000000000000000000000000000000000000000000000000000000000000BEBEBEBEBEBEBEBE
310
BEBEBE0000000000000000BE00000000000000000000000000BEBE00BE0000000000000000000000000000000000000000000000000000000000000000000000000000000000000000000000000000000000000000000000000000000000000000000000000000000000000000000000000000000000000000000000000000
310
000000000000000000BE000000000000000000000000000000000000000000000000000000000000000000000000000000BE000000BEBEBE000000000000BE00000000000000BE0000000000000000000000000000000000000000000000000000000000000000000000000000000000000000000000000000BEBEBEBEBEBE
310
BEBEBEBEBE0000000000000000BE0000000000000000000000000000BEBEBE00000000000000000000000000000000000000000000000000000000000000000000000000000000000000000000000000000000000000000000000000000000000000000000BEBEBEBEBEBEBEBEBEBEBEBEBEBEBEBEBEBEBEBEBEBEBEBEBEBE
310
BEBEBEBEBEBE0000000000BE00000000000000000000000000000000000000BEBEBEBEBEBEBEBEBEBEBEBE00000000000000BE00000000BEBE00000000000000BE00000000000000BE000000000000BEBEBEBEBEBEBEBEBEBEBEBEBE00000000000000000000000000000000000000000000000000000000000000BEBEBEBE
310
BEBEBEBEBEBEBE0000000000000000BE0000000000000000000000000000BE000000000000000000000000000000000000000000000000000000000000000000000000000000000000000000000000000000000000000000000000000000000000000000000000BEBEBEBEBEBEBEBEBEBEBEBEBEBEBEBEBEBEBEBEBEBEBEBE
310
BEBEBEBEBEBEBEBE00000000BE0000000000000000000000000000000000000000BEBEBEBEBEBEBEBEBEBEBEBE00000000000000BE00000000BEBE0000000000000000BE00000000000000BE0000000000BEBEBEBEBEBEBEBEBEBEBEBEBE00000000000000000000000000000000000000000000000000000000000000BEBE
310
BEBEBEBEBEBEBEBEBE00000000000000BE000000000000000000000000000000BE000000000000000000000000000000000000000000000000000000000000000000000000000000000000000000000000000000000000000000000000000000000000000000000000BEBEBEBEBEBEBEBEBEBEBEBEBEBEBEBEBEBEBEBEBEBE
310
BEBEBEBEBEBEBEBEBEBE00000000BE0000000000000000000000000000000000000000BEBEBEBEBEBEBEBEBEBEBEBE000000000000BE0000000000BEBE0000000000000000BE00000000000000BEBEBEBE0000BEBEBEBEBEBEBEBEBEBEBEBEBE00000000000000000000000000000000000000000000000000000000000000
310
000000000000000000000000000000000000BE000000000000000000000000000000BE000000000000000000000000000000000000000000000000000000000000000000000000000000000000000000000000000000000000000000000000000000000000000000000000BEBEBEBEBEBEBEBEBEBEBEBEBEBEBEBEBEBEBEBE
310
BEBEBEBEBEBEBEBEBEBEBEBE00BEBEBEBE0000000000000000000000000000000000000000BEBEBEBEBEBEBEBEBEBEBEBE0000BEBEBEBEBE0000000000BEBE0000000000000000BE00000000000000000000000000BEBEBEBEBEBEBEBEBEBEBEBEBE00000000000000000000000000000000000000000000000000000000BE
310
BEBEBEBEBEBEBEBEBEBEBEBEBE00000000000000BE000000000000000000000000000000BE000000000000000000000000000000000000000000000000000000000000000000000000000000000000000000000000000000000000000000000000000000000000000000000000BEBEBEBEBEBEBEBEBEBEBEBEBEBEBEBEBEBE
310
BEBEBEBEBEBEBEBEBEBEBEBEBEBE00000000000000000000000000000000000000000000000000BEBEBEBEBEBEBEBEBEBEBEBE000000000000000000000000BEBE0000000000000000BE00000000000000000000000000BEBEBEBEBEBEBEBEBEBEBEBEBE000000000000000000000000000000000000000000000000000000
310
00BEBEBEBEBEBEBEBEBEBEBEBEBEBE00000000000000BE000000000000000000000000000000BE00000000000000000000000000000000000000000000000000000000000000000000000000000000000000000000000000000000000000000000000000000000000000000000000000000000000000000000000000000000
310
0000000000000000000000000000000000000000000000000000000000000000000000000000000000000000000000000000000000000000000000000000000000BEBE0000000000000000BE000000000000000000000000000000000000000000000000000000000000000000000000000000000000000000000000000000
310
000000BEBEBEBEBEBEBEBEBEBEBEBEBEBE000000000000BE00000000000000000000000000000000BE0000000000000000000000000000000000000000000000000000000000000000000000000000000000000000000000000000000000000000000000000000000000000000000000000000000000000000000000000000
310
00000000000000000000000000000000000000000000000000000000000000000000000000000000000000000000000000000000000000000000000000000000000000BEBE000000000000000000BE000000000000000000000000000000000000000000000000000000000000000000000000000000000000000000000000
310
0000000000BEBEBEBEBEBEBEBEBEBEBEBEBEBE0000BEBEBEBEBE00000000000000000000000000000000BE000000000000000000000000000000000000000000000000000000000000000000000000000000000000000000000000000000000000000000000000000000000000000000000000000000000000000000000000
310
000000000000000000000000000000000000000000000000000000000000000000000000000000000000000000000000000000000000000000000000000000000000000000BEBE000000000000000000BE00000000000000000000000000000000000000000000000000000000000000000000000000000000000000000000
310
00000000000000BEBEBEBEBEBEBEBEBEBEBEBEBEBE0000000000000000000000000000000000000000000000BE00000000000000000000000000000000000000000000000000000000000000000000000000000000000000000000000000000000000000000000000000000000000000000000000000000000000000000000
310
0000000000000000000000000000000000000000000000000000000000000000000000000000000000000000000000000000000000000000000000000000000000000000000000BEBE000000000000000000BE0000000000000000000000000000000000000000000000000000000000000000000000000000000000000000
310
00000000000000000000000000000000000000000000000000000000000000000000000000000000000000000000BE0000000000000000000000000000000000000000000000000000000000000000000000000000000000000000000000000000000000000000000000000000000000000000000000000000000000000000
310
00000000000000000000000000000000000000000000000000000000000000000000000000000000000000000000000000000000000000000000000000000000000000000000000000BEBE000000000000000000BE00000000000000BEBEBEBEBEBEBEBEBEBE00BEBEBEBEBEBEBEBEBEBE0000000000000000000000000000
310
000000000000000000000000000000000000000000000000000000000000000000000000000000000000000000000000BE000000000000000000000000000000000000000000000000000000000000000000000000000000000000000000000000000000000000000000000000000000000000000000000000000000000000
310
0000000000000000000000000000000000000000000000000000000000000000000000000000000000000000000000000000000000000000000000000000000000000000000000000000BEBEBE000000000000000000BE00000000000000BEBEBEBEBEBEBEBEBEBE00BEBEBEBEBEBEBEBEBEBE000000000000000000000000
310
0000000000000000000000000000000000000000000000000000000000000000000000000000000000000000000000000000BE00000000000000000000000000000000000000000000000000000000000000000000000000000000000000000000000000000000000000000000000000000000000000000000000000000000
310
0000000000000000000000000000000000000000000000000000000000000000000000000000000000000000000000000000000000BEBEBEBEBEBEBEBEBEBE00000000000000000000000000BEBEBE00000000000000000000BE000000000000BEBEBEBEBEBEBEBEBEBE00BEBEBEBEBEBEBEBEBEBE00000000000000000000
310
00000000000000000000000000000000000000000000000000000000000000000000000000000000000000000000000000000000BE0000000000000000000000000000000000000000000000000000000000000000000000000000000000000000000000000000000000000000000000000000000000000000000000000000
310
00000000000000000000000000000000000000000000000000000000000000000000000000000000000000000000000000000000000000BEBEBEBEBEBEBEBEBEBE000000000000000000000000BEBEBEBE00000000000000000000BE000000000000BEBEBEBEBEBEBEBEBEBE00BEBEBEBEBEBEBEBEBEBE0000000000000000
310
000000000000000000000000000000000000000000000000000000000000000000000000000000000000000000000000000000000000BE000000000000000000000000000000000000000000000000000000000000000000000000000000000000000000000000000000000000000000000000000000000000000000000000
310
000000000000000000000000000000000000000000000000000000000000000000000000000000000000000000000000000000000000000000BEBEBEBEBEBEBEBEBEBE000000000000000000000000BE00BEBE00000000000000000000BE000000000000BEBEBEBEBEBEBEBEBEBE00BEBEBEBEBEBEBEBEBEBE000000000000
310
0000000000000000000000000000000000000000000000000000000000000000000000000000000000000000000000000000000000000000BE00000000000000000000000000000000000000000000000000000000000000000000000000000000000000000000000000000000000000000000000000000000000000000000
310
0000000000000000000000000000000000000000000000000000000000000000000000000000000000000000000000000000000000000000000000BEBEBEBEBEBEBEBEBEBE000000000000000000000000BE00BEBE00000000000000000000BE00000000000000000000000000000000000000000000000000000000000000
310
00000000000000000000000000000000000000000000000000000000000000000000000000000000000000000000000000000000000000000000BE0000000000000000000000000000000000000000000000000000000000000000000000000000000000000000000000000000000000000000000000000000000000000000
310
00000000000000000000000000000000000000000000000000000000000000000000000000000000000000000000000000000000000000000000000000BEBEBEBEBEBEBEBEBEBE0000000000000000000000BE0000BEBE00000000000000000000BE000000000000BEBEBEBEBEBEBEBEBEBEBEBEBEBEBEBEBE000000000000
310
000000000000000000000000000000000000000000000000000000000000000000000000000000000000000000000000000000000000000000000000BE000000000000000000000000000000000000000000000000000000000000000000000000000000000000000000000000000000000000000000000000000000000000
310
000000000000000000000000000000000000000000000000000000000000000000000000000000000000000000000000000000000000000000000000000000000000000000000000000000000000000000000000BE0000BEBE0000000000000000000000BE0000000000BEBEBEBEBEBEBEBEBEBEBEBEBEBEBEBEBE00000000
310
0000000000000000000000000000000000000000000000000000000000000000000000000000000000000000000000000000000000000000000000000000BE00000000000000000000000000000000000000000000000000000000000000000000000000000000000000000000000000000000000000000000000000000000
310
BEBEBEBEBEBEBEBEBEBEBEBEBEBEBEBEBEBEBEBEBEBEBEBEBEBEBEBEBEBEBEBEBEBEBEBEBEBEBEBEBEBEBEBEBEBEBEBEBEBEBEBEBEBEBEBEBEBEBEBEBEBEBEBEBEBEBEBEBEBEBEBEBEBE0000000000000000000000BE000000BEBE0000000000000000000000BE0000000000BEBEBEBEBEBEBEBEBEBEBEBEBEBEBEBEBE0000
310
00000000000000000000000000000000000000000000000000000000000000000000000000000000000000000000000000000000000000000000000000000000BE0000000000000000000000000000000000000000000000000000000000000000000000000000000000000000000000000000000000000000000000000000
310
0000BEBEBEBEBEBEBEBEBEBEBEBEBEBEBEBEBEBEBEBEBEBEBEBEBEBEBEBEBEBEBEBEBEBEBEBEBEBEBEBEBEBEBEBEBEBEBEBEBEBEBEBEBEBEBEBEBEBEBEBEBEBEBEBEBEBEBEBEBEBEBEBEBEBE00000000000000000000BE00000000BEBE0000000000000000000000BEBEBEBEBE00BEBEBEBEBEBEBEBEBEBEBEBEBEBEBEBEBE
310
000000000000000000000000000000000000000000000000000000000000000000000000000000000000000000000000000000000000000000000000000000000000BE000000000000000000000000000000000000000000000000000000000000000000000000000000000000000000000000000000000000000000000000
310
00000000BEBEBEBEBEBEBEBEBEBEBEBEBEBEBEBEBEBEBEBEBEBEBEBEBEBEBEBEBEBEBEBEBEBEBEBEBEBEBEBEBEBEBEBEBEBEBEBEBEBEBEBEBEBEBEBEBEBEBEBEBEBEBEBEBEBEBEBEBEBEBEBEBEBE00000000000000000000BE00000000BEBE0000000000000000000000000000000000BEBEBEBEBEBEBEBEBEBEBEBEBEBEBE
310
BEBE000000000000000000000000000000000000000000000000000000000000000000000000000000000000000000000000000000000000000000000000000000000000BE00000000000000000000000000000000000000000000000000000000000000000000000000000000000000000000000000000000000000000000
310
000000000000BEBEBEBEBEBEBEBEBEBEBEBEBEBEBEBEBEBEBEBEBEBEBEBEBEBEBEBEBEBEBEBEBEBEBEBEBEBEBEBEBEBEBEBEBEBEBEBEBEBEBEBEBEBEBEBEBEBEBEBEBEBEBEBEBEBEBEBEBEBEBEBEBEBE000000000000000000BE0000000000BEBE000000000000000000000000000000000000000000000000000000000000
310
00000000000000000000000000000000000000000000000000000000000000000000000000000000000000000000000000000000000000000000000000000000000000000000BE0000000000000000000000000000000000000000000000000000000000000000000000000000000000000000000000000000000000000000
310
0000000000000000BEBEBEBEBEBEBEBEBEBEBEBEBEBEBEBEBEBEBEBEBEBEBEBEBEBEBEBEBEBEBEBEBEBEBEBEBEBEBEBEBEBEBEBEBEBEBEBEBEBEBEBEBEBEBEBEBEBEBEBEBEBEBEBEBEBEBEBEBEBEBEBEBEBE0000000000000000BE000000000000000000000000000000000000000000000000000000000000000000000000
310
00000000000000000000000000000000000000000000000000000000000000000000000000000000000000000000000000000000000000000000000000000000000000000000000000000000000000000000000000000000000000000000000000000000000000000000000000000000000000000000000000000000000000
310
0000000000000000000000000000000000000000000000000000000000000000000000000000000000000000000000000000000000000000000000000000000000000000000000000000000000000000000000000000000000000000BE00000000000000000000000000000000000000000000000000000000000000000000
310
00000000000000000000000000000000000000000000000000000000000000000000000000000000000000000000000000000000000000000000000000000000000000000000000000000000000000000000000000000000000000000000000000000000000000000000000000000000000000000000000000000000000000
310
00000000000000000000000000000000000000000000000000000000000000000000000000000000000000000000000000000000BEBEBEBEBEBEBEBEBEBEBEBEBEBEBEBEBEBEBEBEBEBEBEBEBEBEBEBEBEBEBEBEBEBE00000000000000BE000000000000000000000000000000000000000000000000000000000000000000
310
00000000000000000000000000000000000000000000000000000000000000000000000000000000000000000000000000000000000000000000000000000000000000000000000000000000000000000000000000000000000000000000000000000000000000000000000000000000000000000000000000000000000000
310
000000000000000000000000000000000000000000000000000000000000000000000000000000000000000000000000000000000000BEBEBEBEBEBEBEBEBEBEBEBEBEBEBEBEBEBEBEBEBEBEBEBEBEBEBEBEBEBEBEBEBEBE00000000000000BE00000000000000000000000000000000000000000000000000000000000000
310
00000000000000000000000000000000000000000000000000000000000000000000000000000000000000000000000000000000000000000000000000000000000000000000000000000000000000000000000000000000000000000000000000000000000000000000000000000000000000000000000000000000000000
310
0000000000000000000000000000000000000000000000000000000000000000000000000000000000000000000000000000000000000000BEBEBEBEBEBEBEBEBEBEBEBEBEBEBEBEBEBEBEBEBEBEBEBEBEBEBEBEBEBEBEBEBEBE0000BEBEBEBEBE000000000000000000000000000000000000000000000000000000000000
310
00000000000000000000000000000000000000000000000000000000000000000000000000000000000000000000000000000000000000000000000000000000000000000000000000000000000000000000000000000000000000000000000000000000000000000000000000000000000000000000000000000000000000
310
00000000000000000000000000000000000000000000000000000000000000000000000000000000000000000000000000000000000000000000BEBEBEBEBEBEBEBEBEBEBEBEBEBEBEBEBEBEBEBEBEBEBEBEBEBEBEBEBEBEBEBEBEBE0000000000000000000000000000000000000000000000000000000000000000000000
310
00000000000000000000000000000000000000000000000000000000000000000000000000000000000000000000000000000000000000000000000000000000000000000000000000000000000000000000000000000000000000000000000000000000000000000000000000000000000000000000000000000000000000
310
000000000000000000000000000000000000000000000000000000000000000000000000000000000000000000000000000000000000000000000000BEBEBEBEBEBEBEBEBEBEBEBEBEBEBEBEBEBEBEBEBEBEBEBEBEBEBEBEBEBEBEBEBEBE000000000000000000000000000000000000000000000000000000000000000000
310
00000000000000000000000000000000000000000000000000000000000000000000000000000000000000000000000000000000000000000000000000000000000000000000000000000000000000000000000000000000000000000000000000000000000000000000000000000000000000000000000000000000000000
310
00000000000000000000000000000000000000000000000000000000000000000000000000000000000000000000000000000000000000000000000000000000000000000000000000000000000000000000000000000000000000000000000000000000000000000000000000000000000000000000000000000000000000
310
00000000000000000000000000000000000000000000000000000000000000000000000000000000000000000000000000000000000000000000000000000000000000000000000000000000000000000000000000000000000000000000000000000000000000000000000000000000000000000000000000000000000000
310
00000000000000000000000000000000000000000000000000000000000000000000000000000000000000000000000000000000000000000000000000000000000000000000000000000000000000000000000000000000000000000000000000000000000000000000000000000000000000000000000000000000000000
310
00000000000000000000000000000000000000000000000000000000000000000000000000000000000000000000000000000000000000000000000000000000000000000000000000000000000000000000000000000000000000000000000000000000000000000000000000000000000000000000000000000000000000
310
00000000000000000000000000000000000000000000000000000000000000000000000000000000000000000000000000000000000000000000000000000000000000000000000000000000000000000000000000000000000000000000000000000000000000000000000000000000000000000000000000000000000000
310
00000000000000000000000000000000000000000000000000000000000000000000000000000000000000000000000000000000000000000000000000000000000000000000000000000000000000000000000000000000000000000000000000000000000000000000000000000000000000000000000000000000000000
310
00000000000000000000000000000000000000000000000000000000000000000000000000000000000000000000000000000000000000000000000000000000000000000000000000000000000000000000000000000000000000000000000000000000000000000000000000000000000000000000000000000000000000
310
00000000000000000000000000000000000000000000000000000000000000000000000000000000000000000000000000000000000000000000000000000000000000000000000000000000000000000000000000000000000000000000000000000000000000000000000000000000000000000000000000000000000000
310
00000000000000000000000000000000000000000000000000000000000000000000000000000000000000000000000000000000000000000000000000000000000000000000000000000000000000000000000000000000000000000000000000000000000000000000000000000000000000000000000000000000000000
310
00000000000000000000000000000000000000000000000000000000000000000000000000000000000000000000000000000000000000000000000000000000000000000000000000000000000000000000000000000000000000000000000000000000000000000000000000000000000000000000000000000000000000
310
00000000000000000000000000000000000000000000000000000000000000000000000000000000000000000000000000000000000000000000000000000000000000000000000000000000000000000000000000000000000000000000000000000000000000000000000000000000000000000000000000000000000000
310
00000000000000000000000000000000000000000000000000000000000000000000000000000000000000000000000000000000000000000000000000000000000000000000000000000000000000000000000000000000000000000000000000000000000000000000000000000000000000000000000000000000000000
310
00000000000000000000000000000000000000000000000000000000000000000000000000000000000000000000000000000000000000000000000000000000000000000000000000000000000000000000000000000000000000000000000000000000000000000000000000000000000000000000000000000000000000
310
00000000000000000000000000000000000000000000000000000000000000000000000000000000000000000000000000000000000000000000000000000000000000000000000000000000000000000000000000000000000000000000000000000000000000000000000000000000000000000000000000000000000000
310
000000000000000000000000000000000000
  0
XRECORD
  5
366CD
102
{ACAD_REACTORS
330
366CC
102
}
330
366CC
100
AcDbXrecord
280
     1
102
MATERIAL
148
0.0
149
0.0
149
0.0
 93
        0
 94
      127
282
     0
 72
     1
 77
     1
171
     1
175
     1
179
     1
273
     0
  0
XRECORD
  5
366CB
102
{ACAD_REACTORS
330
366CA
102
}
330
366CA
100
AcDbXrecord
280
     1
102
MATERIAL
148
0.0
149
0.0
149
0.0
 93
        0
 94
      127
282
     0
 72
     1
 77
     1
171
     1
175
     1
179
     1
273
     0
  0
XRECORD
  5
366CF
102
{ACAD_REACTORS
330
366CE
102
}
330
366CE
100
AcDbXrecord
280
     1
102
MATERIAL
148
0.0
149
0.0
149
0.0
 93
        0
 94
      127
282
     0
 72
     1
 77
     1
171
     1
175
     1
179
     1
273
     0
  0
XRECORD
  5
3673C
102
{ACAD_REACTORS
330
3673B
102
}
330
3673B
100
AcDbXrecord
280
     1
102
SHADEPLOT
 70
     0
102
SHADEPLOTRESLEVEL
 70
     2
102
SHADEPLOTCUSTOMDPI
 70
   300
  0
XRECORD
  5
36738
102
{ACAD_REACTORS
330
36737
102
}
330
36737
100
AcDbXrecord
280
     1
102
SHADEPLOT
 70
     0
102
SHADEPLOTRESLEVEL
 70
     2
102
SHADEPLOTCUSTOMDPI
 70
   300
  0
XRECORD
  5
3673E
102
{ACAD_REACTORS
330
3673D
102
}
330
3673D
100
AcDbXrecord
280
     1
102
SHADEPLOT
 70
     0
102
SHADEPLOTRESLEVEL
 70
     2
102
SHADEPLOTCUSTOMDPI
 70
   300
  0
XRECORD
  5
3673A
102
{ACAD_REACTORS
330
36739
102
}
330
36739
100
AcDbXrecord
280
     1
102
SHADEPLOT
 70
     0
102
SHADEPLOTRESLEVEL
 70
     2
102
SHADEPLOTCUSTOMDPI
 70
   300
  0
CELLSTYLEMAP
  5
36715
102
{ACAD_REACTORS
330
366BF
102
}
330
366BF
100
AcDbCellStyleMap
 90
        3
300
CELLSTYLE
  1
TABLEFORMAT_BEGIN
 90
        5
170
     1
 91
        0
 92
    32768
 62
   257
 93
        1
300
CONTENTFORMAT
  1
CONTENTFORMAT_BEGIN
 90
        0
 91
        0
 92
        4
 93
        0
300

 40
0.0
140
1.0
 94
        5
 62
     0
340
13
144
0.25
309
CONTENTFORMAT_END
171
     1
301
MARGIN
  1
CELLMARGIN_BEGIN
 40
0.06
 40
0.06
 40
0.06
 40
0.06
 40
0.18
 40
0.18
309
CELLMARGIN_END
 94
        6
 95
        1
302
GRIDFORMAT
  1
GRIDFORMAT_BEGIN
 90
        0
 91
        1
 62
     0
 92
       -2
340
0
 93
        0
 40
0.045
309
GRIDFORMAT_END
 95
        2
302
GRIDFORMAT
  1
GRIDFORMAT_BEGIN
 90
        0
 91
        1
 62
     0
 92
       -2
340
0
 93
        0
 40
0.045
309
GRIDFORMAT_END
 95
        4
302
GRIDFORMAT
  1
GRIDFORMAT_BEGIN
 90
        0
 91
        1
 62
     0
 92
       -2
340
0
 93
        0
 40
0.045
309
GRIDFORMAT_END
 95
        8
302
GRIDFORMAT
  1
GRIDFORMAT_BEGIN
 90
        0
 91
        1
 62
     0
 92
       -2
340
0
 93
        0
 40
0.045
309
GRIDFORMAT_END
 95
       16
302
GRIDFORMAT
  1
GRIDFORMAT_BEGIN
 90
        0
 91
        1
 62
     0
 92
       -2
340
0
 93
        0
 40
0.045
309
GRIDFORMAT_END
 95
       32
302
GRIDFORMAT
  1
GRIDFORMAT_BEGIN
 90
        0
 91
        1
 62
     0
 92
       -2
340
0
 93
        0
 40
0.045
309
GRIDFORMAT_END
309
TABLEFORMAT_END
  1
CELLSTYLE_BEGIN
 90
        1
 91
        1
300
_TITLE
309
CELLSTYLE_END
300
CELLSTYLE
  1
TABLEFORMAT_BEGIN
 90
        5
170
     1
 91
        0
 92
        0
 62
   257
 93
        1
300
CONTENTFORMAT
  1
CONTENTFORMAT_BEGIN
 90
        0
 91
        0
 92
        4
 93
        0
300

 40
0.0
140
1.0
 94
        5
 62
     0
340
13
144
0.18
309
CONTENTFORMAT_END
171
     1
301
MARGIN
  1
CELLMARGIN_BEGIN
 40
0.06
 40
0.06
 40
0.06
 40
0.06
 40
0.18
 40
0.18
309
CELLMARGIN_END
 94
        6
 95
        1
302
GRIDFORMAT
  1
GRIDFORMAT_BEGIN
 90
        0
 91
        1
 62
     0
 92
       -2
340
0
 93
        0
 40
0.045
309
GRIDFORMAT_END
 95
        2
302
GRIDFORMAT
  1
GRIDFORMAT_BEGIN
 90
        0
 91
        1
 62
     0
 92
       -2
340
0
 93
        0
 40
0.045
309
GRIDFORMAT_END
 95
        4
302
GRIDFORMAT
  1
GRIDFORMAT_BEGIN
 90
        0
 91
        1
 62
     0
 92
       -2
340
0
 93
        0
 40
0.045
309
GRIDFORMAT_END
 95
        8
302
GRIDFORMAT
  1
GRIDFORMAT_BEGIN
 90
        0
 91
        1
 62
     0
 92
       -2
340
0
 93
        0
 40
0.045
309
GRIDFORMAT_END
 95
       16
302
GRIDFORMAT
  1
GRIDFORMAT_BEGIN
 90
        0
 91
        1
 62
     0
 92
       -2
340
0
 93
        0
 40
0.045
309
GRIDFORMAT_END
 95
       32
302
GRIDFORMAT
  1
GRIDFORMAT_BEGIN
 90
        0
 91
        1
 62
     0
 92
       -2
340
0
 93
        0
 40
0.045
309
GRIDFORMAT_END
309
TABLEFORMAT_END
  1
CELLSTYLE_BEGIN
 90
        2
 91
        1
300
_HEADER
309
CELLSTYLE_END
300
CELLSTYLE
  1
TABLEFORMAT_BEGIN
 90
        5
170
     1
 91
        0
 92
        0
 62
   257
 93
        1
300
CONTENTFORMAT
  1
CONTENTFORMAT_BEGIN
 90
        0
 91
        0
 92
        4
 93
        0
300

 40
0.0
140
1.0
 94
        2
 62
     0
340
13
144
0.18
309
CONTENTFORMAT_END
171
     1
301
MARGIN
  1
CELLMARGIN_BEGIN
 40
0.06
 40
0.06
 40
0.06
 40
0.06
 40
0.18
 40
0.18
309
CELLMARGIN_END
 94
        6
 95
        1
302
GRIDFORMAT
  1
GRIDFORMAT_BEGIN
 90
        0
 91
        1
 62
     0
 92
       -2
340
0
 93
        0
 40
0.045
309
GRIDFORMAT_END
 95
        2
302
GRIDFORMAT
  1
GRIDFORMAT_BEGIN
 90
        0
 91
        1
 62
     0
 92
       -2
340
0
 93
        0
 40
0.045
309
GRIDFORMAT_END
 95
        4
302
GRIDFORMAT
  1
GRIDFORMAT_BEGIN
 90
        0
 91
        1
 62
     0
 92
       -2
340
0
 93
        0
 40
0.045
309
GRIDFORMAT_END
 95
        8
302
GRIDFORMAT
  1
GRIDFORMAT_BEGIN
 90
        0
 91
        1
 62
     0
 92
       -2
340
0
 93
        0
 40
0.045
309
GRIDFORMAT_END
 95
       16
302
GRIDFORMAT
  1
GRIDFORMAT_BEGIN
 90
        0
 91
        1
 62
     0
 92
       -2
340
0
 93
        0
 40
0.045
309
GRIDFORMAT_END
 95
       32
302
GRIDFORMAT
  1
GRIDFORMAT_BEGIN
 90
        0
 91
        1
 62
     0
 92
       -2
340
0
 93
        0
 40
0.045
309
GRIDFORMAT_END
309
TABLEFORMAT_END
  1
CELLSTYLE_BEGIN
 90
        3
 91
        2
300
_DATA
309
CELLSTYLE_END
  0
XRECORD
  5
3671E
102
{ACAD_REACTORS
330
366BF
102
}
330
366BF
100
AcDbXrecord
280
     1
102
ACAD_ROUNDTRIP_PRE2007_TABLESTYLE
 90
        4
 91
        0
  1

 92
        4
 93
        0
  2

 94
        4
 95
        0
  3

  0
XRECORD
  5
3672A
102
{ACAD_REACTORS
330
36729
102
}
330
36729
100
AcDbXrecord
280
     1
102
RTVSPropertyOp0
 70
     1
102
RTVSPropertyOp1
 70
     1
102
RTVSPropertyOp2
 70
     1
102
RTVSPropertyOp3
 70
     1
102
RTVSPropertyOp4
 70
     1
102
RTVSPropertyOp5
 70
     1
102
RTVSPropertyOp6
 70
     1
102
RTVSPropertyOp7
 70
     1
102
RTVSPropertyOp8
 70
     1
102
RTVSPropertyOp9
 70
     1
102
RTVSPropertyOp10
 70
     1
102
RTVSPropertyOp11
 70
     1
102
RTVSPropertyOp12
 70
     1
102
RTVSPropertyOp13
 70
     1
102
RTVSPropertyOp14
 70
     1
102
RTVSPropertyOp15
 70
     1
102
RTVSPropertyOp16
 70
     1
102
RTVSPropertyOp17
 70
     1
102
RTVSPropertyOp18
 70
     1
102
RTVSPropertyOp19
 70
     1
102
RTVSPropertyOp20
 70
     1
102
RTVSPropertyOp21
 70
     1
102
RTVSPropertyOp22
 70
     1
102
RTVSPropertyOp23
 70
     1
102
RTVSPropertyOp24
 70
     1
102
RTVSPropertyOp25
 70
     1
102
RTVSPropertyOp26
 70
     1
102
RTVSPropertyOp27
 70
     1
102
RTVSPropertyOp28
 70
     1
102
RTVSPropertyOp29
 70
     1
102
RTVSPropertyOp30
 70
     1
102
RTVSPropertyOp31
 70
     1
102
RTVSPropertyOp32
 70
     1
  0
XRECORD
  5
36740
102
{ACAD_REACTORS
330
3673F
102
}
330
3673F
100
AcDbXrecord
280
     1
102
RTVSPropertyOp0
 70
     1
102
RTVSPropertyOp1
 70
     1
102
RTVSPropertyOp2
 70
     1
102
RTVSPropertyOp3
 70
     1
102
RTVSPropertyOp4
 70
     1
102
RTVSPropertyOp5
 70
     1
102
RTVSPropertyOp6
 70
     1
102
RTVSPropertyOp7
 70
     1
102
RTVSPropertyOp8
 70
     1
102
RTVSPropertyOp9
 70
     1
102
RTVSPropertyOp10
 70
     1
102
RTVSPropertyOp11
 70
     1
102
RTVSPropertyOp12
 70
     1
102
RTVSPropertyOp13
 70
     1
102
RTVSPropertyOp14
 70
     1
102
RTVSPropertyOp15
 70
     1
102
RTVSPropertyOp16
 70
     1
102
RTVSPropertyOp17
 70
     1
102
RTVSPropertyOp18
 70
     1
102
RTVSPropertyOp19
 70
     1
102
RTVSPropertyOp20
 70
     1
102
RTVSPropertyOp21
 70
     1
102
RTVSPropertyOp22
 70
     1
102
RTVSPropertyOp23
 70
     1
102
RTVSPropertyOp24
 70
     1
102
RTVSPropertyOp25
 70
     1
102
RTVSPropertyOp26
 70
     1
102
RTVSPropertyOp27
 70
     1
102
RTVSPropertyOp28
 70
     1
102
RTVSPropertyOp29
 70
     1
102
RTVSPropertyOp30
 70
     1
102
RTVSPropertyOp31
 70
     1
102
RTVSPropertyOp32
 70
     1
  0
XRECORD
  5
36742
102
{ACAD_REACTORS
330
36741
102
}
330
36741
100
AcDbXrecord
280
     1
102
RTVSPropertyOp0
 70
     1
102
RTVSPropertyOp1
 70
     1
102
RTVSPropertyOp2
 70
     1
102
RTVSPropertyOp3
 70
     1
102
RTVSPropertyOp4
 70
     1
102
RTVSPropertyOp5
 70
     1
102
RTVSPropertyOp6
 70
     1
102
RTVSPropertyOp7
 70
     1
102
RTVSPropertyOp8
 70
     1
102
RTVSPropertyOp9
 70
     1
102
RTVSPropertyOp10
 70
     1
102
RTVSPropertyOp11
 70
     1
102
RTVSPropertyOp12
 70
     1
102
RTVSPropertyOp13
 70
     1
102
RTVSPropertyOp14
 70
     1
102
RTVSPropertyOp15
 70
     1
102
RTVSPropertyOp16
 70
     1
102
RTVSPropertyOp17
 70
     1
102
RTVSPropertyOp18
 70
     1
102
RTVSPropertyOp19
 70
     1
102
RTVSPropertyOp20
 70
     1
102
RTVSPropertyOp21
 70
     1
102
RTVSPropertyOp22
 70
     1
102
RTVSPropertyOp23
 70
     1
102
RTVSPropertyOp24
 70
     1
102
RTVSPropertyOp25
 70
     1
102
RTVSPropertyOp26
 70
     1
102
RTVSPropertyOp27
 70
     1
102
RTVSPropertyOp28
 70
     1
102
RTVSPropertyOp29
 70
     1
102
RTVSPropertyOp30
 70
     1
102
RTVSPropertyOp31
 70
     1
102
RTVSPropertyOp32
 70
     1
  0
XRECORD
  5
36728
102
{ACAD_REACTORS
330
36727
102
}
330
36727
100
AcDbXrecord
280
     1
102
RTVSPropertyOp0
 70
     1
102
RTVSPropertyOp1
 70
     1
102
RTVSPropertyOp2
 70
     1
102
RTVSPropertyOp3
 70
     1
102
RTVSPropertyOp4
 70
     1
102
RTVSPropertyOp5
 70
     1
102
RTVSPropertyOp6
 70
     1
102
RTVSPropertyOp7
 70
     1
102
RTVSPropertyOp8
 70
     1
102
RTVSPropertyOp9
 70
     1
102
RTVSPropertyOp10
 70
     1
102
RTVSPropertyOp11
 70
     1
102
RTVSPropertyOp12
 70
     1
102
RTVSPropertyOp13
 70
     1
102
RTVSPropertyOp14
 70
     1
102
RTVSPropertyOp15
 70
     1
102
RTVSPropertyOp16
 70
     1
102
RTVSPropertyOp17
 70
     1
102
RTVSPropertyOp18
 70
     1
102
RTVSPropertyOp19
 70
     1
102
RTVSPropertyOp20
 70
     1
102
RTVSPropertyOp21
 70
     1
102
RTVSPropertyOp22
 70
     1
102
RTVSPropertyOp23
 70
     1
102
RTVSPropertyOp24
 70
     1
102
RTVSPropertyOp25
 70
     1
102
RTVSPropertyOp26
 70
     1
102
RTVSPropertyOp27
 70
     1
102
RTVSPropertyOp28
 70
     1
102
RTVSPropertyOp29
 70
     1
102
RTVSPropertyOp30
 70
     1
102
RTVSPropertyOp31
 70
     1
102
RTVSPropertyOp32
 70
     1
  0
XRECORD
  5
3672E
102
{ACAD_REACTORS
330
3672D
102
}
330
3672D
100
AcDbXrecord
280
     1
102
RTVSPropertyOp0
 70
     1
102
RTVSPropertyOp1
 70
     1
102
RTVSPropertyOp2
 70
     1
102
RTVSPropertyOp3
 70
     1
102
RTVSPropertyOp4
 70
     1
102
RTVSPropertyOp5
 70
     1
102
RTVSPropertyOp6
 70
     1
102
RTVSPropertyOp7
 70
     1
102
RTVSPropertyOp8
 70
     1
102
RTVSPropertyOp9
 70
     1
102
RTVSPropertyOp10
 70
     1
102
RTVSPropertyOp11
 70
     1
102
RTVSPropertyOp12
 70
     1
102
RTVSPropertyOp13
 70
     1
102
RTVSPropertyOp14
 70
     1
102
RTVSPropertyOp15
 70
     1
102
RTVSPropertyOp16
 70
     1
102
RTVSPropertyOp17
 70
     1
102
RTVSPropertyOp18
 70
     1
102
RTVSPropertyOp19
 70
     1
102
RTVSPropertyOp20
 70
     1
102
RTVSPropertyOp21
 70
     1
102
RTVSPropertyOp22
 70
     1
102
RTVSPropertyOp23
 70
     1
102
RTVSPropertyOp24
 70
     1
102
RTVSPropertyOp25
 70
     1
102
RTVSPropertyOp26
 70
     1
102
RTVSPropertyOp27
 70
     1
102
RTVSPropertyOp28
 70
     1
102
RTVSPropertyOp29
 70
     1
102
RTVSPropertyOp30
 70
     1
102
RTVSPropertyOp31
 70
     1
102
RTVSPropertyOp32
 70
     1
  0
XRECORD
  5
36736
102
{ACAD_REACTORS
330
36735
102
}
330
36735
100
AcDbXrecord
280
     1
102
RTVSPropertyOp0
 70
     1
102
RTVSPropertyOp1
 70
     1
102
RTVSPropertyOp2
 70
     1
102
RTVSPropertyOp3
 70
     1
102
RTVSPropertyOp4
 70
     1
102
RTVSPropertyOp5
 70
     1
102
RTVSPropertyOp6
 70
     1
102
RTVSPropertyOp7
 70
     1
102
RTVSPropertyOp8
 70
     1
102
RTVSPropertyOp9
 70
     1
102
RTVSPropertyOp10
 70
     1
102
RTVSPropertyOp11
 70
     1
102
RTVSPropertyOp12
 70
     1
102
RTVSPropertyOp13
 70
     1
102
RTVSPropertyOp14
 70
     1
102
RTVSPropertyOp15
 70
     1
102
RTVSPropertyOp16
 70
     1
102
RTVSPropertyOp17
 70
     1
102
RTVSPropertyOp18
 70
     1
102
RTVSPropertyOp19
 70
     1
102
RTVSPropertyOp20
 70
     1
102
RTVSPropertyOp21
 70
     1
102
RTVSPropertyOp22
 70
     1
102
RTVSPropertyOp23
 70
     1
102
RTVSPropertyOp24
 70
     1
102
RTVSPropertyOp25
 70
     1
102
RTVSPropertyOp26
 70
     1
102
RTVSPropertyOp27
 70
     1
102
RTVSPropertyOp28
 70
     1
102
RTVSPropertyOp29
 70
     1
102
RTVSPropertyOp30
 70
     1
102
RTVSPropertyOp31
 70
     1
102
RTVSPropertyOp32
 70
     1
  0
XRECORD
  5
36744
102
{ACAD_REACTORS
330
36743
102
}
330
36743
100
AcDbXrecord
280
     1
102
RTVSPropertyOp0
 70
     1
102
RTVSPropertyOp1
 70
     1
102
RTVSPropertyOp2
 70
     1
102
RTVSPropertyOp3
 70
     1
102
RTVSPropertyOp4
 70
     1
102
RTVSPropertyOp5
 70
     1
102
RTVSPropertyOp6
 70
     1
102
RTVSPropertyOp7
 70
     1
102
RTVSPropertyOp8
 70
     1
102
RTVSPropertyOp9
 70
     1
102
RTVSPropertyOp10
 70
     1
102
RTVSPropertyOp11
 70
     1
102
RTVSPropertyOp12
 70
     1
102
RTVSPropertyOp13
 70
     1
102
RTVSPropertyOp14
 70
     1
102
RTVSPropertyOp15
 70
     1
102
RTVSPropertyOp16
 70
     1
102
RTVSPropertyOp17
 70
     1
102
RTVSPropertyOp18
 70
     1
102
RTVSPropertyOp19
 70
     1
102
RTVSPropertyOp20
 70
     1
102
RTVSPropertyOp21
 70
     1
102
RTVSPropertyOp22
 70
     1
102
RTVSPropertyOp23
 70
     1
102
RTVSPropertyOp24
 70
     1
102
RTVSPropertyOp25
 70
     1
102
RTVSPropertyOp26
 70
     1
102
RTVSPropertyOp27
 70
     1
102
RTVSPropertyOp28
 70
     1
102
RTVSPropertyOp29
 70
     1
102
RTVSPropertyOp30
 70
     1
102
RTVSPropertyOp31
 70
     1
102
RTVSPropertyOp32
 70
     1
  0
XRECORD
  5
3672C
102
{ACAD_REACTORS
330
3672B
102
}
330
3672B
100
AcDbXrecord
280
     1
102
RTVSPropertyOp0
 70
     1
102
RTVSPropertyOp1
 70
     1
102
RTVSPropertyOp2
 70
     1
102
RTVSPropertyOp3
 70
     1
102
RTVSPropertyOp4
 70
     1
102
RTVSPropertyOp5
 70
     1
102
RTVSPropertyOp6
 70
     1
102
RTVSPropertyOp7
 70
     1
102
RTVSPropertyOp8
 70
     1
102
RTVSPropertyOp9
 70
     1
102
RTVSPropertyOp10
 70
     1
102
RTVSPropertyOp11
 70
     1
102
RTVSPropertyOp12
 70
     1
102
RTVSPropertyOp13
 70
     1
102
RTVSPropertyOp14
 70
     1
102
RTVSPropertyOp15
 70
     1
102
RTVSPropertyOp16
 70
     1
102
RTVSPropertyOp17
 70
     1
102
RTVSPropertyOp18
 70
     1
102
RTVSPropertyOp19
 70
     1
102
RTVSPropertyOp20
 70
     1
102
RTVSPropertyOp21
 70
     1
102
RTVSPropertyOp22
 70
     1
102
RTVSPropertyOp23
 70
     1
102
RTVSPropertyOp24
 70
     1
102
RTVSPropertyOp25
 70
     1
102
RTVSPropertyOp26
 70
     1
102
RTVSPropertyOp27
 70
     1
102
RTVSPropertyOp28
 70
     1
102
RTVSPropertyOp29
 70
     1
102
RTVSPropertyOp30
 70
     1
102
RTVSPropertyOp31
 70
     1
102
RTVSPropertyOp32
 70
     1
  0
XRECORD
  5
3675A
102
{ACAD_REACTORS
330
36759
102
}
330
36759
100
AcDbXrecord
280
     1
102
RTVSPropertyOp0
 70
     0
102
RTVSPropertyOp1
 70
     0
102
RTVSPropertyOp2
 70
     0
102
RTVSPropertyOp3
 70
     0
102
RTVSPropertyOp4
 70
     0
102
RTVSPropertyOp5
 70
     0
102
RTVSPropertyOp6
 70
     0
102
RTVSPropertyOp7
 70
     0
102
RTVSPropertyOp8
 70
     0
102
RTVSPropertyOp9
 70
     0
102
RTVSPropertyOp10
 70
     0
102
RTVSPropertyOp11
 70
     0
102
RTVSPropertyOp12
 70
     0
102
RTVSPropertyOp13
 70
     0
102
RTVSPropertyOp14
 70
     2
102
RTVSPropertyOp15
 70
     0
102
RTVSPropertyOp16
 70
     0
102
RTVSPropertyOp17
 70
     0
102
RTVSPropertyOp18
 70
     0
102
RTVSPropertyOp19
 70
     0
102
RTVSPropertyOp20
 70
     0
102
RTVSPropertyOp21
 70
     0
102
RTVSPropertyOp22
 70
     0
102
RTVSPropertyOp23
 70
     0
102
RTVSPropertyOp24
 70
     0
102
RTVSPropertyOp25
 70
     0
102
RTVSPropertyOp26
 70
     0
102
RTVSPropertyOp27
 70
     0
102
RTVSPropertyOp28
 70
     1
102
RTVSPropertyOp29
 70
     1
102
RTVSPropertyOp30
 70
     1
102
RTVSPropertyOp31
 70
     1
102
RTVSPropertyOp32
 70
     1
  0
XRECORD
  5
36734
102
{ACAD_REACTORS
330
36733
102
}
330
36733
100
AcDbXrecord
280
     1
102
RTVSPropertyOp0
 70
     1
102
RTVSPropertyOp1
 70
     1
102
RTVSPropertyOp2
 70
     1
102
RTVSPropertyOp3
 70
     1
102
RTVSPropertyOp4
 70
     1
102
RTVSPropertyOp5
 70
     1
102
RTVSPropertyOp6
 70
     1
102
RTVSPropertyOp7
 70
     1
102
RTVSPropertyOp8
 70
     1
102
RTVSPropertyOp9
 70
     1
102
RTVSPropertyOp10
 70
     1
102
RTVSPropertyOp11
 70
     1
102
RTVSPropertyOp12
 70
     1
102
RTVSPropertyOp13
 70
     1
102
RTVSPropertyOp14
 70
     1
102
RTVSPropertyOp15
 70
     1
102
RTVSPropertyOp16
 70
     1
102
RTVSPropertyOp17
 70
     1
102
RTVSPropertyOp18
 70
     1
102
RTVSPropertyOp19
 70
     1
102
RTVSPropertyOp20
 70
     1
102
RTVSPropertyOp21
 70
     1
102
RTVSPropertyOp22
 70
     1
102
RTVSPropertyOp23
 70
     1
102
RTVSPropertyOp24
 70
     1
102
RTVSPropertyOp25
 70
     1
102
RTVSPropertyOp26
 70
     1
102
RTVSPropertyOp27
 70
     1
102
RTVSPropertyOp28
 70
     1
102
RTVSPropertyOp29
 70
     1
102
RTVSPropertyOp30
 70
     1
102
RTVSPropertyOp31
 70
     1
102
RTVSPropertyOp32
 70
     1
  0
XRECORD
  5
36720
102
{ACAD_REACTORS
330
3671F
102
}
330
3671F
100
AcDbXrecord
280
     1
102
RTVSPropertyOp0
 70
     1
102
RTVSPropertyOp1
 70
     1
102
RTVSPropertyOp2
 70
     1
102
RTVSPropertyOp3
 70
     1
102
RTVSPropertyOp4
 70
     1
102
RTVSPropertyOp5
 70
     1
102
RTVSPropertyOp6
 70
     1
102
RTVSPropertyOp7
 70
     1
102
RTVSPropertyOp8
 70
     1
102
RTVSPropertyOp9
 70
     1
102
RTVSPropertyOp10
 70
     1
102
RTVSPropertyOp11
 70
     1
102
RTVSPropertyOp12
 70
     1
102
RTVSPropertyOp13
 70
     1
102
RTVSPropertyOp14
 70
     1
102
RTVSPropertyOp15
 70
     1
102
RTVSPropertyOp16
 70
     1
102
RTVSPropertyOp17
 70
     1
102
RTVSPropertyOp18
 70
     1
102
RTVSPropertyOp19
 70
     1
102
RTVSPropertyOp20
 70
     1
102
RTVSPropertyOp21
 70
     1
102
RTVSPropertyOp22
 70
     1
102
RTVSPropertyOp23
 70
     1
102
RTVSPropertyOp24
 70
     1
102
RTVSPropertyOp25
 70
     1
102
RTVSPropertyOp26
 70
     1
102
RTVSPropertyOp27
 70
     1
102
RTVSPropertyOp28
 70
     1
102
RTVSPropertyOp29
 70
     1
102
RTVSPropertyOp30
 70
     1
102
RTVSPropertyOp31
 70
     1
102
RTVSPropertyOp32
 70
     1
  0
XRECORD
  5
36722
102
{ACAD_REACTORS
330
36721
102
}
330
36721
100
AcDbXrecord
280
     1
102
RTVSPropertyOp0
 70
     1
102
RTVSPropertyOp1
 70
     1
102
RTVSPropertyOp2
 70
     1
102
RTVSPropertyOp3
 70
     1
102
RTVSPropertyOp4
 70
     1
102
RTVSPropertyOp5
 70
     1
102
RTVSPropertyOp6
 70
     1
102
RTVSPropertyOp7
 70
     1
102
RTVSPropertyOp8
 70
     1
102
RTVSPropertyOp9
 70
     1
102
RTVSPropertyOp10
 70
     1
102
RTVSPropertyOp11
 70
     1
102
RTVSPropertyOp12
 70
     1
102
RTVSPropertyOp13
 70
     1
102
RTVSPropertyOp14
 70
     1
102
RTVSPropertyOp15
 70
     1
102
RTVSPropertyOp16
 70
     1
102
RTVSPropertyOp17
 70
     1
102
RTVSPropertyOp18
 70
     1
102
RTVSPropertyOp19
 70
     1
102
RTVSPropertyOp20
 70
     1
102
RTVSPropertyOp21
 70
     1
102
RTVSPropertyOp22
 70
     1
102
RTVSPropertyOp23
 70
     1
102
RTVSPropertyOp24
 70
     1
102
RTVSPropertyOp25
 70
     1
102
RTVSPropertyOp26
 70
     1
102
RTVSPropertyOp27
 70
     1
102
RTVSPropertyOp28
 70
     1
102
RTVSPropertyOp29
 70
     1
102
RTVSPropertyOp30
 70
     1
102
RTVSPropertyOp31
 70
     1
102
RTVSPropertyOp32
 70
     1
  0
XRECORD
  5
36724
102
{ACAD_REACTORS
330
36723
102
}
330
36723
100
AcDbXrecord
280
     1
102
RTVSPropertyOp0
 70
     1
102
RTVSPropertyOp1
 70
     1
102
RTVSPropertyOp2
 70
     1
102
RTVSPropertyOp3
 70
     1
102
RTVSPropertyOp4
 70
     1
102
RTVSPropertyOp5
 70
     1
102
RTVSPropertyOp6
 70
     1
102
RTVSPropertyOp7
 70
     1
102
RTVSPropertyOp8
 70
     1
102
RTVSPropertyOp9
 70
     1
102
RTVSPropertyOp10
 70
     1
102
RTVSPropertyOp11
 70
     1
102
RTVSPropertyOp12
 70
     1
102
RTVSPropertyOp13
 70
     1
102
RTVSPropertyOp14
 70
     1
102
RTVSPropertyOp15
 70
     1
102
RTVSPropertyOp16
 70
     1
102
RTVSPropertyOp17
 70
     1
102
RTVSPropertyOp18
 70
     1
102
RTVSPropertyOp19
 70
     1
102
RTVSPropertyOp20
 70
     1
102
RTVSPropertyOp21
 70
     1
102
RTVSPropertyOp22
 70
     1
102
RTVSPropertyOp23
 70
     1
102
RTVSPropertyOp24
 70
     1
102
RTVSPropertyOp25
 70
     1
102
RTVSPropertyOp26
 70
     1
102
RTVSPropertyOp27
 70
     1
102
RTVSPropertyOp28
 70
     1
102
RTVSPropertyOp29
 70
     1
102
RTVSPropertyOp30
 70
     1
102
RTVSPropertyOp31
 70
     1
102
RTVSPropertyOp32
 70
     1
  0
XRECORD
  5
36726
102
{ACAD_REACTORS
330
36725
102
}
330
36725
100
AcDbXrecord
280
     1
102
RTVSPropertyOp0
 70
     1
102
RTVSPropertyOp1
 70
     1
102
RTVSPropertyOp2
 70
     1
102
RTVSPropertyOp3
 70
     1
102
RTVSPropertyOp4
 70
     1
102
RTVSPropertyOp5
 70
     1
102
RTVSPropertyOp6
 70
     1
102
RTVSPropertyOp7
 70
     1
102
RTVSPropertyOp8
 70
     1
102
RTVSPropertyOp9
 70
     1
102
RTVSPropertyOp10
 70
     1
102
RTVSPropertyOp11
 70
     1
102
RTVSPropertyOp12
 70
     1
102
RTVSPropertyOp13
 70
     1
102
RTVSPropertyOp14
 70
     1
102
RTVSPropertyOp15
 70
     1
102
RTVSPropertyOp16
 70
     1
102
RTVSPropertyOp17
 70
     1
102
RTVSPropertyOp18
 70
     1
102
RTVSPropertyOp19
 70
     1
102
RTVSPropertyOp20
 70
     1
102
RTVSPropertyOp21
 70
     1
102
RTVSPropertyOp22
 70
     1
102
RTVSPropertyOp23
 70
     1
102
RTVSPropertyOp24
 70
     1
102
RTVSPropertyOp25
 70
     1
102
RTVSPropertyOp26
 70
     1
102
RTVSPropertyOp27
 70
     1
102
RTVSPropertyOp28
 70
     1
102
RTVSPropertyOp29
 70
     1
102
RTVSPropertyOp30
 70
     1
102
RTVSPropertyOp31
 70
     1
102
RTVSPropertyOp32
 70
     1
  0
XRECORD
  5
3674A
102
{ACAD_REACTORS
330
36749
102
}
330
36749
100
AcDbXrecord
280
     1
102
RTVSPropertyOp0
 70
     1
102
RTVSPropertyOp1
 70
     1
102
RTVSPropertyOp2
 70
     1
102
RTVSPropertyOp3
 70
     1
102
RTVSPropertyOp4
 70
     1
102
RTVSPropertyOp5
 70
     1
102
RTVSPropertyOp6
 70
     1
102
RTVSPropertyOp7
 70
     1
102
RTVSPropertyOp8
 70
     1
102
RTVSPropertyOp9
 70
     1
102
RTVSPropertyOp10
 70
     1
102
RTVSPropertyOp11
 70
     1
102
RTVSPropertyOp12
 70
     1
102
RTVSPropertyOp13
 70
     1
102
RTVSPropertyOp14
 70
     1
102
RTVSPropertyOp15
 70
     1
102
RTVSPropertyOp16
 70
     1
102
RTVSPropertyOp17
 70
     1
102
RTVSPropertyOp18
 70
     1
102
RTVSPropertyOp19
 70
     1
102
RTVSPropertyOp20
 70
     1
102
RTVSPropertyOp21
 70
     1
102
RTVSPropertyOp22
 70
     1
102
RTVSPropertyOp23
 70
     1
102
RTVSPropertyOp24
 70
     1
102
RTVSPropertyOp25
 70
     1
102
RTVSPropertyOp26
 70
     1
102
RTVSPropertyOp27
 70
     1
102
RTVSPropertyOp28
 70
     1
102
RTVSPropertyOp29
 70
     1
102
RTVSPropertyOp30
 70
     1
102
RTVSPropertyOp31
 70
     1
102
RTVSPropertyOp32
 70
     1
  0
XRECORD
  5
36756
102
{ACAD_REACTORS
330
36755
102
}
330
36755
100
AcDbXrecord
280
     1
102
RTVSPropertyOp0
 70
     0
102
RTVSPropertyOp1
 70
     0
102
RTVSPropertyOp2
 70
     0
102
RTVSPropertyOp3
 70
     0
102
RTVSPropertyOp4
 70
     0
102
RTVSPropertyOp5
 70
     0
102
RTVSPropertyOp6
 70
     0
102
RTVSPropertyOp7
 70
     0
102
RTVSPropertyOp8
 70
     0
102
RTVSPropertyOp9
 70
     0
102
RTVSPropertyOp10
 70
     0
102
RTVSPropertyOp11
 70
     0
102
RTVSPropertyOp12
 70
     0
102
RTVSPropertyOp13
 70
     0
102
RTVSPropertyOp14
 70
     2
102
RTVSPropertyOp15
 70
     0
102
RTVSPropertyOp16
 70
     0
102
RTVSPropertyOp17
 70
     0
102
RTVSPropertyOp18
 70
     0
102
RTVSPropertyOp19
 70
     0
102
RTVSPropertyOp20
 70
     0
102
RTVSPropertyOp21
 70
     0
102
RTVSPropertyOp22
 70
     0
102
RTVSPropertyOp23
 70
     0
102
RTVSPropertyOp24
 70
     0
102
RTVSPropertyOp25
 70
     0
102
RTVSPropertyOp26
 70
     0
102
RTVSPropertyOp27
 70
     0
102
RTVSPropertyOp28
 70
     1
102
RTVSPropertyOp29
 70
     1
102
RTVSPropertyOp30
 70
     1
102
RTVSPropertyOp31
 70
     1
102
RTVSPropertyOp32
 70
     1
  0
XRECORD
  5
36732
102
{ACAD_REACTORS
330
36731
102
}
330
36731
100
AcDbXrecord
280
     1
102
RTVSPropertyOp0
 70
     1
102
RTVSPropertyOp1
 70
     1
102
RTVSPropertyOp2
 70
     1
102
RTVSPropertyOp3
 70
     1
102
RTVSPropertyOp4
 70
     1
102
RTVSPropertyOp5
 70
     1
102
RTVSPropertyOp6
 70
     1
102
RTVSPropertyOp7
 70
     1
102
RTVSPropertyOp8
 70
     1
102
RTVSPropertyOp9
 70
     1
102
RTVSPropertyOp10
 70
     1
102
RTVSPropertyOp11
 70
     1
102
RTVSPropertyOp12
 70
     1
102
RTVSPropertyOp13
 70
     1
102
RTVSPropertyOp14
 70
     1
102
RTVSPropertyOp15
 70
     1
102
RTVSPropertyOp16
 70
     1
102
RTVSPropertyOp17
 70
     1
102
RTVSPropertyOp18
 70
     1
102
RTVSPropertyOp19
 70
     1
102
RTVSPropertyOp20
 70
     1
102
RTVSPropertyOp21
 70
     1
102
RTVSPropertyOp22
 70
     1
102
RTVSPropertyOp23
 70
     1
102
RTVSPropertyOp24
 70
     1
102
RTVSPropertyOp25
 70
     1
102
RTVSPropertyOp26
 70
     1
102
RTVSPropertyOp27
 70
     1
102
RTVSPropertyOp28
 70
     1
102
RTVSPropertyOp29
 70
     1
102
RTVSPropertyOp30
 70
     1
102
RTVSPropertyOp31
 70
     1
102
RTVSPropertyOp32
 70
     1
  0
XRECORD
  5
36758
102
{ACAD_REACTORS
330
36757
102
}
330
36757
100
AcDbXrecord
280
     1
102
RTVSPropertyOp0
 70
     0
102
RTVSPropertyOp1
 70
     0
102
RTVSPropertyOp2
 70
     0
102
RTVSPropertyOp3
 70
     0
102
RTVSPropertyOp4
 70
     0
102
RTVSPropertyOp5
 70
     0
102
RTVSPropertyOp6
 70
     0
102
RTVSPropertyOp7
 70
     0
102
RTVSPropertyOp8
 70
     0
102
RTVSPropertyOp9
 70
     0
102
RTVSPropertyOp10
 70
     0
102
RTVSPropertyOp11
 70
     0
102
RTVSPropertyOp12
 70
     0
102
RTVSPropertyOp13
 70
     0
102
RTVSPropertyOp14
 70
     2
102
RTVSPropertyOp15
 70
     0
102
RTVSPropertyOp16
 70
     0
102
RTVSPropertyOp17
 70
     0
102
RTVSPropertyOp18
 70
     0
102
RTVSPropertyOp19
 70
     0
102
RTVSPropertyOp20
 70
     0
102
RTVSPropertyOp21
 70
     0
102
RTVSPropertyOp22
 70
     0
102
RTVSPropertyOp23
 70
     0
102
RTVSPropertyOp24
 70
     0
102
RTVSPropertyOp25
 70
     0
102
RTVSPropertyOp26
 70
     0
102
RTVSPropertyOp27
 70
     0
102
RTVSPropertyOp28
 70
     1
102
RTVSPropertyOp29
 70
     1
102
RTVSPropertyOp30
 70
     1
102
RTVSPropertyOp31
 70
     1
102
RTVSPropertyOp32
 70
     1
  0
XRECORD
  5
36746
102
{ACAD_REACTORS
330
36745
102
}
330
36745
100
AcDbXrecord
280
     1
102
RTVSPropertyOp0
 70
     1
102
RTVSPropertyOp1
 70
     1
102
RTVSPropertyOp2
 70
     1
102
RTVSPropertyOp3
 70
     1
102
RTVSPropertyOp4
 70
     1
102
RTVSPropertyOp5
 70
     1
102
RTVSPropertyOp6
 70
     1
102
RTVSPropertyOp7
 70
     1
102
RTVSPropertyOp8
 70
     1
102
RTVSPropertyOp9
 70
     1
102
RTVSPropertyOp10
 70
     1
102
RTVSPropertyOp11
 70
     1
102
RTVSPropertyOp12
 70
     1
102
RTVSPropertyOp13
 70
     1
102
RTVSPropertyOp14
 70
     1
102
RTVSPropertyOp15
 70
     1
102
RTVSPropertyOp16
 70
     1
102
RTVSPropertyOp17
 70
     1
102
RTVSPropertyOp18
 70
     1
102
RTVSPropertyOp19
 70
     1
102
RTVSPropertyOp20
 70
     1
102
RTVSPropertyOp21
 70
     1
102
RTVSPropertyOp22
 70
     1
102
RTVSPropertyOp23
 70
     1
102
RTVSPropertyOp24
 70
     1
102
RTVSPropertyOp25
 70
     1
102
RTVSPropertyOp26
 70
     1
102
RTVSPropertyOp27
 70
     1
102
RTVSPropertyOp28
 70
     1
102
RTVSPropertyOp29
 70
     1
102
RTVSPropertyOp30
 70
     1
102
RTVSPropertyOp31
 70
     1
102
RTVSPropertyOp32
 70
     1
  0
XRECORD
  5
36754
102
{ACAD_REACTORS
330
36753
102
}
330
36753
100
AcDbXrecord
280
     1
102
RTVSPropertyOp0
 70
     1
102
RTVSPropertyOp1
 70
     1
102
RTVSPropertyOp2
 70
     1
102
RTVSPropertyOp3
 70
     1
102
RTVSPropertyOp4
 70
     1
102
RTVSPropertyOp5
 70
     1
102
RTVSPropertyOp6
 70
     1
102
RTVSPropertyOp7
 70
     1
102
RTVSPropertyOp8
 70
     1
102
RTVSPropertyOp9
 70
     1
102
RTVSPropertyOp10
 70
     1
102
RTVSPropertyOp11
 70
     1
102
RTVSPropertyOp12
 70
     1
102
RTVSPropertyOp13
 70
     1
102
RTVSPropertyOp14
 70
     1
102
RTVSPropertyOp15
 70
     1
102
RTVSPropertyOp16
 70
     1
102
RTVSPropertyOp17
 70
     1
102
RTVSPropertyOp18
 70
     1
102
RTVSPropertyOp19
 70
     1
102
RTVSPropertyOp20
 70
     1
102
RTVSPropertyOp21
 70
     1
102
RTVSPropertyOp22
 70
     1
102
RTVSPropertyOp23
 70
     1
102
RTVSPropertyOp24
 70
     1
102
RTVSPropertyOp25
 70
     1
102
RTVSPropertyOp26
 70
     1
102
RTVSPropertyOp27
 70
     1
102
RTVSPropertyOp28
 70
     1
102
RTVSPropertyOp29
 70
     1
102
RTVSPropertyOp30
 70
     1
102
RTVSPropertyOp31
 70
     1
102
RTVSPropertyOp32
 70
     1
  0
XRECORD
  5
36752
102
{ACAD_REACTORS
330
36751
102
}
330
36751
100
AcDbXrecord
280
     1
102
RTVSPropertyOp0
 70
     1
102
RTVSPropertyOp1
 70
     1
102
RTVSPropertyOp2
 70
     1
102
RTVSPropertyOp3
 70
     1
102
RTVSPropertyOp4
 70
     1
102
RTVSPropertyOp5
 70
     1
102
RTVSPropertyOp6
 70
     1
102
RTVSPropertyOp7
 70
     1
102
RTVSPropertyOp8
 70
     1
102
RTVSPropertyOp9
 70
     1
102
RTVSPropertyOp10
 70
     1
102
RTVSPropertyOp11
 70
     1
102
RTVSPropertyOp12
 70
     1
102
RTVSPropertyOp13
 70
     1
102
RTVSPropertyOp14
 70
     1
102
RTVSPropertyOp15
 70
     1
102
RTVSPropertyOp16
 70
     1
102
RTVSPropertyOp17
 70
     1
102
RTVSPropertyOp18
 70
     1
102
RTVSPropertyOp19
 70
     1
102
RTVSPropertyOp20
 70
     1
102
RTVSPropertyOp21
 70
     1
102
RTVSPropertyOp22
 70
     1
102
RTVSPropertyOp23
 70
     1
102
RTVSPropertyOp24
 70
     1
102
RTVSPropertyOp25
 70
     1
102
RTVSPropertyOp26
 70
     1
102
RTVSPropertyOp27
 70
     1
102
RTVSPropertyOp28
 70
     1
102
RTVSPropertyOp29
 70
     1
102
RTVSPropertyOp30
 70
     1
102
RTVSPropertyOp31
 70
     1
102
RTVSPropertyOp32
 70
     1
  0
XRECORD
  5
3674C
102
{ACAD_REACTORS
330
3674B
102
}
330
3674B
100
AcDbXrecord
280
     1
102
RTVSPropertyOp0
 70
     1
102
RTVSPropertyOp1
 70
     1
102
RTVSPropertyOp2
 70
     1
102
RTVSPropertyOp3
 70
     1
102
RTVSPropertyOp4
 70
     1
102
RTVSPropertyOp5
 70
     1
102
RTVSPropertyOp6
 70
     1
102
RTVSPropertyOp7
 70
     1
102
RTVSPropertyOp8
 70
     1
102
RTVSPropertyOp9
 70
     1
102
RTVSPropertyOp10
 70
     1
102
RTVSPropertyOp11
 70
     1
102
RTVSPropertyOp12
 70
     1
102
RTVSPropertyOp13
 70
     1
102
RTVSPropertyOp14
 70
     1
102
RTVSPropertyOp15
 70
     1
102
RTVSPropertyOp16
 70
     1
102
RTVSPropertyOp17
 70
     1
102
RTVSPropertyOp18
 70
     1
102
RTVSPropertyOp19
 70
     1
102
RTVSPropertyOp20
 70
     1
102
RTVSPropertyOp21
 70
     1
102
RTVSPropertyOp22
 70
     1
102
RTVSPropertyOp23
 70
     1
102
RTVSPropertyOp24
 70
     1
102
RTVSPropertyOp25
 70
     1
102
RTVSPropertyOp26
 70
     1
102
RTVSPropertyOp27
 70
     1
102
RTVSPropertyOp28
 70
     1
102
RTVSPropertyOp29
 70
     1
102
RTVSPropertyOp30
 70
     1
102
RTVSPropertyOp31
 70
     1
102
RTVSPropertyOp32
 70
     1
  0
XRECORD
  5
3674E
102
{ACAD_REACTORS
330
3674D
102
}
330
3674D
100
AcDbXrecord
280
     1
102
RTVSPropertyOp0
 70
     1
102
RTVSPropertyOp1
 70
     1
102
RTVSPropertyOp2
 70
     1
102
RTVSPropertyOp3
 70
     1
102
RTVSPropertyOp4
 70
     1
102
RTVSPropertyOp5
 70
     1
102
RTVSPropertyOp6
 70
     1
102
RTVSPropertyOp7
 70
     1
102
RTVSPropertyOp8
 70
     1
102
RTVSPropertyOp9
 70
     1
102
RTVSPropertyOp10
 70
     1
102
RTVSPropertyOp11
 70
     1
102
RTVSPropertyOp12
 70
     1
102
RTVSPropertyOp13
 70
     1
102
RTVSPropertyOp14
 70
     1
102
RTVSPropertyOp15
 70
     1
102
RTVSPropertyOp16
 70
     1
102
RTVSPropertyOp17
 70
     1
102
RTVSPropertyOp18
 70
     1
102
RTVSPropertyOp19
 70
     1
102
RTVSPropertyOp20
 70
     1
102
RTVSPropertyOp21
 70
     1
102
RTVSPropertyOp22
 70
     1
102
RTVSPropertyOp23
 70
     1
102
RTVSPropertyOp24
 70
     1
102
RTVSPropertyOp25
 70
     1
102
RTVSPropertyOp26
 70
     1
102
RTVSPropertyOp27
 70
     1
102
RTVSPropertyOp28
 70
     1
102
RTVSPropertyOp29
 70
     1
102
RTVSPropertyOp30
 70
     1
102
RTVSPropertyOp31
 70
     1
102
RTVSPropertyOp32
 70
     1
  0
XRECORD
  5
36730
102
{ACAD_REACTORS
330
3672F
102
}
330
3672F
100
AcDbXrecord
280
     1
102
RTVSPropertyOp0
 70
     1
102
RTVSPropertyOp1
 70
     1
102
RTVSPropertyOp2
 70
     1
102
RTVSPropertyOp3
 70
     1
102
RTVSPropertyOp4
 70
     1
102
RTVSPropertyOp5
 70
     1
102
RTVSPropertyOp6
 70
     1
102
RTVSPropertyOp7
 70
     1
102
RTVSPropertyOp8
 70
     1
102
RTVSPropertyOp9
 70
     1
102
RTVSPropertyOp10
 70
     1
102
RTVSPropertyOp11
 70
     1
102
RTVSPropertyOp12
 70
     1
102
RTVSPropertyOp13
 70
     1
102
RTVSPropertyOp14
 70
     1
102
RTVSPropertyOp15
 70
     1
102
RTVSPropertyOp16
 70
     1
102
RTVSPropertyOp17
 70
     1
102
RTVSPropertyOp18
 70
     1
102
RTVSPropertyOp19
 70
     1
102
RTVSPropertyOp20
 70
     1
102
RTVSPropertyOp21
 70
     1
102
RTVSPropertyOp22
 70
     1
102
RTVSPropertyOp23
 70
     1
102
RTVSPropertyOp24
 70
     1
102
RTVSPropertyOp25
 70
     1
102
RTVSPropertyOp26
 70
     1
102
RTVSPropertyOp27
 70
     1
102
RTVSPropertyOp28
 70
     1
102
RTVSPropertyOp29
 70
     1
102
RTVSPropertyOp30
 70
     1
102
RTVSPropertyOp31
 70
     1
102
RTVSPropertyOp32
 70
     1
  0
XRECORD
  5
36748
102
{ACAD_REACTORS
330
36747
102
}
330
36747
100
AcDbXrecord
280
     1
102
RTVSPropertyOp0
 70
     1
102
RTVSPropertyOp1
 70
     1
102
RTVSPropertyOp2
 70
     1
102
RTVSPropertyOp3
 70
     1
102
RTVSPropertyOp4
 70
     1
102
RTVSPropertyOp5
 70
     1
102
RTVSPropertyOp6
 70
     1
102
RTVSPropertyOp7
 70
     1
102
RTVSPropertyOp8
 70
     1
102
RTVSPropertyOp9
 70
     1
102
RTVSPropertyOp10
 70
     1
102
RTVSPropertyOp11
 70
     1
102
RTVSPropertyOp12
 70
     1
102
RTVSPropertyOp13
 70
     1
102
RTVSPropertyOp14
 70
     1
102
RTVSPropertyOp15
 70
     1
102
RTVSPropertyOp16
 70
     1
102
RTVSPropertyOp17
 70
     1
102
RTVSPropertyOp18
 70
     1
102
RTVSPropertyOp19
 70
     1
102
RTVSPropertyOp20
 70
     1
102
RTVSPropertyOp21
 70
     1
102
RTVSPropertyOp22
 70
     1
102
RTVSPropertyOp23
 70
     1
102
RTVSPropertyOp24
 70
     1
102
RTVSPropertyOp25
 70
     1
102
RTVSPropertyOp26
 70
     1
102
RTVSPropertyOp27
 70
     1
102
RTVSPropertyOp28
 70
     1
102
RTVSPropertyOp29
 70
     1
102
RTVSPropertyOp30
 70
     1
102
RTVSPropertyOp31
 70
     1
102
RTVSPropertyOp32
 70
     1
  0
XRECORD
  5
36750
102
{ACAD_REACTORS
330
3674F
102
}
330
3674F
100
AcDbXrecord
280
     1
102
RTVSPropertyOp0
 70
     1
102
RTVSPropertyOp1
 70
     1
102
RTVSPropertyOp2
 70
     1
102
RTVSPropertyOp3
 70
     1
102
RTVSPropertyOp4
 70
     1
102
RTVSPropertyOp5
 70
     1
102
RTVSPropertyOp6
 70
     1
102
RTVSPropertyOp7
 70
     1
102
RTVSPropertyOp8
 70
     1
102
RTVSPropertyOp9
 70
     1
102
RTVSPropertyOp10
 70
     1
102
RTVSPropertyOp11
 70
     1
102
RTVSPropertyOp12
 70
     1
102
RTVSPropertyOp13
 70
     1
102
RTVSPropertyOp14
 70
     1
102
RTVSPropertyOp15
 70
     1
102
RTVSPropertyOp16
 70
     1
102
RTVSPropertyOp17
 70
     1
102
RTVSPropertyOp18
 70
     1
102
RTVSPropertyOp19
 70
     1
102
RTVSPropertyOp20
 70
     1
102
RTVSPropertyOp21
 70
     1
102
RTVSPropertyOp22
 70
     1
102
RTVSPropertyOp23
 70
     1
102
RTVSPropertyOp24
 70
     1
102
RTVSPropertyOp25
 70
     1
102
RTVSPropertyOp26
 70
     1
102
RTVSPropertyOp27
 70
     1
102
RTVSPropertyOp28
 70
     1
102
RTVSPropertyOp29
 70
     1
102
RTVSPropertyOp30
 70
     1
102
RTVSPropertyOp31
 70
     1
102
RTVSPropertyOp32
 70
     1
  0
ENDSEC
  0
EOF
