  0
SECTION
  2
HEADER
  9
$ACADVER
  1
AC1015
  9
$ACADMAINTVER
 70
    20
  9
$DWGCODEPAGE
  3
ANSI_1252
  9
$INSBASE
 10
1.235102848601107
 20
11.24774640129371
 30
0.0
  9
$EXTMIN
 10
-3.202467552785084
 20
2.189857455319266
 30
-0.0000000000012843
  9
$EXTMAX
 10
40.74556720804812
 20
102.1570838892924
 30
0.000000000000435
  9
$LIMMIN
 10
0.0
 20
0.0
  9
$LIMMAX
 10
12.0
 20
9.0
  9
$ORTHOMODE
 70
     0
  9
$REGENMODE
 70
     1
  9
$FILLMODE
 70
     1
  9
$QTEXTMODE
 70
     0
  9
$MIRRTEXT
 70
     0
  9
$LTSCALE
 40
1.0
  9
$ATTMODE
 70
     1
  9
$TEXTSIZE
 40
0.25
  9
$TRACEWID
 40
0.05
  9
$TEXTSTYLE
  7
STD
  9
$CLAYER
  8
0
  9
$CELTYPE
  6
BYLAYER
  9
$CECOLOR
 62
   256
  9
$CELTSCALE
 40
1.0
  9
$DISPSILH
 70
     0
  9
$DIMSCALE
 40
1.0
  9
$DIMASZ
 40
0.18
  9
$DIMEXO
 40
0.0625
  9
$DIMDLI
 40
0.38
  9
$DIMRND
 40
0.0
  9
$DIMDLE
 40
0.0
  9
$DIMEXE
 40
0.18
  9
$DIMTP
 40
0.0
  9
$DIMTM
 40
0.0
  9
$DIMTXT
 40
0.18
  9
$DIMCEN
 40
0.09
  9
$DIMTSZ
 40
0.0
  9
$DIMTOL
 70
     0
  9
$DIMLIM
 70
     0
  9
$DIMTIH
 70
     1
  9
$DIMTOH
 70
     1
  9
$DIMSE1
 70
     0
  9
$DIMSE2
 70
     0
  9
$DIMTAD
 70
     0
  9
$DIMZIN
 70
     0
  9
$DIMBLK
  1

  9
$DIMASO
 70
     1
  9
$DIMSHO
 70
     1
  9
$DIMPOST
  1

  9
$DIMAPOST
  1

  9
$DIMALT
 70
     0
  9
$DIMALTD
 70
     2
  9
$DIMALTF
 40
25.4
  9
$DIMLFAC
 40
1.0
  9
$DIMTOFL
 70
     0
  9
$DIMTVP
 40
0.0
  9
$DIMTIX
 70
     0
  9
$DIMSOXD
 70
     0
  9
$DIMSAH
 70
     0
  9
$DIMBLK1
  1

  9
$DIMBLK2
  1

  9
$DIMSTYLE
  2
Standard
  9
$DIMCLRD
 70
     0
  9
$DIMCLRE
 70
     0
  9
$DIMCLRT
 70
     0
  9
$DIMTFAC
 40
1.0
  9
$DIMGAP
 40
0.09
  9
$DIMJUST
 70
     0
  9
$DIMSD1
 70
     0
  9
$DIMSD2
 70
     0
  9
$DIMTOLJ
 70
     1
  9
$DIMTZIN
 70
     0
  9
$DIMALTZ
 70
     0
  9
$DIMALTTZ
 70
     0
  9
$DIMUPT
 70
     0
  9
$DIMDEC
 70
     4
  9
$DIMTDEC
 70
     4
  9
$DIMALTU
 70
     2
  9
$DIMALTTD
 70
     2
  9
$DIMTXSTY
  7
STANDARD
  9
$DIMAUNIT
 70
     0
  9
$DIMADEC
 70
     0
  9
$DIMALTRND
 40
0.0
  9
$DIMAZIN
 70
     0
  9
$DIMDSEP
 70
    46
  9
$DIMATFIT
 70
     3
  9
$DIMFRAC
 70
     0
  9
$DIMLDRBLK
  1

  9
$DIMLUNIT
 70
     2
  9
$DIMLWD
 70
    -2
  9
$DIMLWE
 70
    -2
  9
$DIMTMOVE
 70
     0
  9
$LUNITS
 70
     5
  9
$LUPREC
 70
     6
  9
$SKETCHINC
 40
0.1
  9
$FILLETRAD
 40
0.0
  9
$AUNITS
 70
     0
  9
$AUPREC
 70
     0
  9
$MENU
  1
.
  9
$ELEVATION
 40
0.0
  9
$PELEVATION
 40
0.0
  9
$THICKNESS
 40
0.0
  9
$LIMCHECK
 70
     0
  9
$CHAMFERA
 40
0.5
  9
$CHAMFERB
 40
0.5
  9
$CHAMFERC
 40
1.0
  9
$CHAMFERD
 40
0.0
  9
$SKPOLY
 70
     0
  9
$TDCREATE
 40
2451225.386950695
  9
$TDUCREATE
 40
2451225.595284028
  9
$TDUPDATE
 40
2457147.501374757
  9
$TDUUPDATE
 40
2457147.709708090
  9
$TDINDWG
 40
0.6596204398
  9
$TDUSRTIMER
 40
0.1853965046
  9
$USRTIMER
 70
     1
  9
$ANGBASE
 50
0.0
  9
$ANGDIR
 70
     0
  9
$PDMODE
 70
     3
  9
$PDSIZE
 40
0.0
  9
$PLINEWID
 40
0.0
  9
$SPLFRAME
 70
     0
  9
$SPLINETYPE
 70
     6
  9
$SPLINESEGS
 70
     8
  9
$HANDSEED
  5
37106
  9
$SURFTAB1
 70
     6
  9
$SURFTAB2
 70
     6
  9
$SURFTYPE
 70
     6
  9
$SURFU
 70
     6
  9
$SURFV
 70
     6
  9
$UCSBASE
  2

  9
$UCSNAME
  2

  9
$UCSORG
 10
0.0
 20
0.0
 30
0.0
  9
$UCSXDIR
 10
1.0
 20
0.0
 30
0.0
  9
$UCSYDIR
 10
0.0
 20
1.0
 30
0.0
  9
$UCSORTHOREF
  2

  9
$UCSORTHOVIEW
 70
     0
  9
$UCSORGTOP
 10
0.0
 20
0.0
 30
0.0
  9
$UCSORGBOTTOM
 10
0.0
 20
0.0
 30
0.0
  9
$UCSORGLEFT
 10
0.0
 20
0.0
 30
0.0
  9
$UCSORGRIGHT
 10
0.0
 20
0.0
 30
0.0
  9
$UCSORGFRONT
 10
0.0
 20
0.0
 30
0.0
  9
$UCSORGBACK
 10
0.0
 20
0.0
 30
0.0
  9
$PUCSBASE
  2

  9
$PUCSNAME
  2

  9
$PUCSORG
 10
0.0
 20
0.0
 30
0.0
  9
$PUCSXDIR
 10
1.0
 20
0.0
 30
0.0
  9
$PUCSYDIR
 10
0.0
 20
1.0
 30
0.0
  9
$PUCSORTHOREF
  2

  9
$PUCSORTHOVIEW
 70
     0
  9
$PUCSORGTOP
 10
0.0
 20
0.0
 30
0.0
  9
$PUCSORGBOTTOM
 10
0.0
 20
0.0
 30
0.0
  9
$PUCSORGLEFT
 10
0.0
 20
0.0
 30
0.0
  9
$PUCSORGRIGHT
 10
0.0
 20
0.0
 30
0.0
  9
$PUCSORGFRONT
 10
0.0
 20
0.0
 30
0.0
  9
$PUCSORGBACK
 10
0.0
 20
0.0
 30
0.0
  9
$USERI1
 70
     0
  9
$USERI2
 70
     0
  9
$USERI3
 70
     0
  9
$USERI4
 70
     0
  9
$USERI5
 70
     0
  9
$USERR1
 40
0.0
  9
$USERR2
 40
0.0
  9
$USERR3
 40
0.0
  9
$USERR4
 40
0.0
  9
$USERR5
 40
0.0
  9
$WORLDVIEW
 70
     1
  9
$SHADEDGE
 70
     3
  9
$SHADEDIF
 70
    70
  9
$TILEMODE
 70
     1
  9
$MAXACTVP
 70
    48
  9
$PINSBASE
 10
0.0
 20
0.0
 30
0.0
  9
$PLIMCHECK
 70
     0
  9
$PEXTMIN
 10
0.0
 20
0.0
 30
0.0
  9
$PEXTMAX
 10
10.205
 20
7.764780009564798
 30
0.0
  9
$PLIMMIN
 10
-0.2079161059762549
 20
-0.2079166691697489
  9
$PLIMMAX
 10
10.79208365372785
 20
8.29208309053436
  9
$UNITMODE
 70
     0
  9
$VISRETAIN
 70
     1
  9
$PLINEGEN
 70
     0
  9
$PSLTSCALE
 70
     1
  9
$TREEDEPTH
 70
     0
  9
$CMLSTYLE
  2
STANDARD
  9
$CMLJUST
 70
     0
  9
$CMLSCALE
 40
1.0
  9
$PROXYGRAPHICS
 70
     1
  9
$MEASUREMENT
 70
     0
  9
$CELWEIGHT
370
    -1
  9
$ENDCAPS
280
     0
  9
$JOINSTYLE
280
     0
  9
$LWDISPLAY
290
     0
  9
$INSUNITS
 70
     1
  9
$HYPERLINKBASE
  1

  9
$STYLESHEET
  1
5000N-BLACK.CTB
  9
$XEDIT
290
     1
  9
$CEPSNTYPE
380
     0
  9
$PSTYLEMODE
290
     1
  9
$FINGERPRINTGUID
  2
{B3E5E9A9-FEC4-11D2-95EF-00104B2EF1F9}
  9
$VERSIONGUID
  2
{52F76003-839A-48EE-8BC1-7468056D34DF}
  9
$EXTNAMES
290
     1
  9
$PSVPSCALE
 40
0.0
  9
$OLESTARTUP
290
     0
  0
ENDSEC
  0
SECTION
  2
CLASSES
  0
CLASS
  1
IDBUFFER
  2
AcDbIdBuffer
  3
ObjectDBX Classes
 90
    32768
280
     0
281
     0
  0
CLASS
  1
ACDBDICTIONARYWDFLT
  2
AcDbDictionaryWithDefault
  3
ObjectDBX Classes
 90
        0
280
     0
281
     0
  0
CLASS
  1
ACDBPLACEHOLDER
  2
AcDbPlaceHolder
  3
ObjectDBX Classes
 90
        0
280
     0
281
     0
  0
CLASS
  1
LAYOUT
  2
AcDbLayout
  3
ObjectDBX Classes
 90
        0
280
     0
281
     0
  0
CLASS
  1
DICTIONARYVAR
  2
AcDbDictionaryVar
  3
ObjectDBX Classes
 90
        0
280
     0
281
     0
  0
CLASS
  1
TABLESTYLE
  2
AcDbTableStyle
  3
ObjectDBX Classes
 90
     4095
280
     0
281
     0
  0
CLASS
  1
PLOTSETTINGS
  2
AcDbPlotSettings
  3
ObjectDBX Classes
 90
        0
280
     0
281
     0
  0
CLASS
  1
MATERIAL
  2
AcDbMaterial
  3
ObjectDBX Classes
 90
     1153
280
     0
281
     0
  0
CLASS
  1
VISUALSTYLE
  2
AcDbVisualStyle
  3
ObjectDBX Classes
 90
     4095
280
     0
281
     0
  0
CLASS
  1
SORTENTSTABLE
  2
AcDbSortentsTable
  3
ObjectDBX Classes
 90
        0
280
     0
281
     0
  0
CLASS
  1
FIELD
  2
AcDbField
  3
ObjectDBX Classes
 90
    33920
280
     0
281
     0
  0
CLASS
  1
FIELDLIST
  2
AcDbFieldList
  3
ObjectDBX Classes
 90
     1152
280
     0
281
     0
  0
CLASS
  1
EXACTERMXREFMAP
  2
ExAcTermXrefMap
  3
EXAC_SERVICE
 90
    33793
280
     0
281
     0
  0
CLASS
  1
NPOCOLLECTION
  2
AcDbImpNonPersistentObjectsCollection
  3
ObjectDBX Classes
 90
    33921
280
     0
281
     0
  0
CLASS
  1
EXACXREFPANELOBJECT
  2
ExAcXREFPanelObject
  3
EXAC_ESW
 90
    33793
280
     0
281
     0
  0
CLASS
  1
ACAD_EVALUATION_GRAPH
  2
AcDbEvalGraph
  3
ObjectDBX Classes
 90
    33921
280
     0
281
     0
  0
CLASS
  1
BLOCKBASEPOINTPARAMETER
  2
AcDbBlockBasepointParameter
  3
ObjectDBX Classes
 90
    33921
280
     0
281
     0
  0
CLASS
  1
BLOCKVISIBILITYPARAMETER
  2
AcDbBlockVisibilityParameter
  3
ObjectDBX Classes
 90
    33921
280
     0
281
     0
  0
CLASS
  1
BLOCKVISIBILITYGRIP
  2
AcDbBlockVisibilityGrip
  3
ObjectDBX Classes
 90
    33921
280
     0
281
     0
  0
CLASS
  1
BLOCKGRIPLOCATIONCOMPONENT
  2
AcDbBlockGripExpr
  3
ObjectDBX Classes
 90
    33921
280
     0
281
     0
  0
CLASS
  1
ACDB_DYNAMICBLOCKPURGEPREVENTER_VERSION
  2
AcDbDynamicBlockPurgePreventer
  3
ObjectDBX Classes
 90
    33921
280
     0
281
     0
  0
CLASS
  1
ACAECUSTOBJ
  2
AcAeEditorObj
  3
AcAeEditorObj
 90
    33792
280
     0
281
     0
  0
CLASS
  1
BASEPOINTPARAMETERENTITY
  2
AcDbBlockBasepointParameterEntity
  3
ObjectDBX Classes
 90
    33793
280
     0
281
     1
  0
CLASS
  1
ACAEEEMGROBJ
  2
AcAeEEMgrObj
  3
AcAeEEMgrObj
 90
    33792
280
     0
281
     0
  0
CLASS
  1
VISIBILITYPARAMETERENTITY
  2
AcDbBlockVisibilityParameterEntity
  3
ObjectDBX Classes
 90
    33793
280
     0
281
     1
  0
CLASS
  1
VISIBILITYGRIPENTITY
  2
AcDbBlockVisibilityGripEntity
  3
ObjectDBX Classes
 90
    33793
280
     0
281
     1
  0
CLASS
  1
ACDB_BLOCKREPRESENTATION_DATA
  2
AcDbBlockRepresentationData
  3
ObjectDBX Classes
 90
    33921
280
     0
281
     0
  0
CLASS
  1
BLOCKLINEARPARAMETER
  2
AcDbBlockLinearParameter
  3
ObjectDBX Classes
 90
    33921
280
     0
281
     0
  0
CLASS
  1
BLOCKLINEARGRIP
  2
AcDbBlockLinearGrip
  3
ObjectDBX Classes
 90
    33921
280
     0
281
     0
  0
CLASS
  1
BLOCKSTRETCHACTION
  2
AcDbBlockStretchAction
  3
ObjectDBX Classes
 90
    33921
280
     0
281
     0
  0
CLASS
  1
WIPEOUT
  2
AcDbWipeout
  3
WipeOut|Product Desc: Object Enabler for WipeOut entity | Company: Autodesk, Inc. | WEB Address: www.autodesk.com
 90
    34943
280
     0
281
     1
  0
CLASS
  1
BLOCKROTATIONPARAMETER
  2
AcDbBlockRotationParameter
  3
ObjectDBX Classes
 90
    33921
280
     0
281
     0
  0
CLASS
  1
BLOCKROTATIONGRIP
  2
AcDbBlockRotationGrip
  3
ObjectDBX Classes
 90
    33921
280
     0
281
     0
  0
CLASS
  1
BLOCKROTATEACTION
  2
AcDbBlockRotateAction
  3
ObjectDBX Classes
 90
    33921
280
     0
281
     0
  0
CLASS
  1
BLOCKPOLARPARAMETER
  2
AcDbBlockPolarParameter
  3
ObjectDBX Classes
 90
    33921
280
     0
281
     0
  0
CLASS
  1
BLOCKPOLARGRIP
  2
AcDbBlockPolarGrip
  3
ObjectDBX Classes
 90
    33921
280
     0
281
     0
  0
CLASS
  1
WIPEOUTVARIABLES
  2
AcDbWipeoutVariables
  3
"WipeOut|Product Desc:     WipeOut Dbx Application|Company:          Autodesk, Inc.|WEB Address:      www.autodesk.com"
 90
        0
280
     0
281
     0
  0
CLASS
  1
CELLSTYLEMAP
  2
AcDbCellStyleMap
  3
ObjectDBX Classes
 90
     1152
280
     0
281
     0
  0
CLASS
  1
SCALE
  2
AcDbScale
  3
ObjectDBX Classes
 90
     1153
280
     0
281
     0
  0
CLASS
  1
MLEADERSTYLE
  2
AcDbMLeaderStyle
  3
ACDB_MLEADERSTYLE_CLASS
 90
     4095
280
     0
281
     0
  0
CLASS
  1
AEC_REFEDIT_STATUS_TRACKER
  2
AecDbRefEditStatusTracker
  3
AecArchBase60|Product Desc: Autodesk Architectural Desktop 2007 |Company: Autodesk,Inc. |WEB Address: www.autodesk.com
 90
    32897
280
     0
281
     0
  0
ENDSEC
  0
SECTION
  2
TABLES
  0
TABLE
  2
VPORT
  5
1A
102
{ACAD_XDICTIONARY
360
139C
102
}
330
0
100
AcDbSymbolTable
 70
     1
  0
VPORT
  5
882
330
1A
100
AcDbSymbolTableRecord
100
AcDbViewportTableRecord
  2
*Active
 70
     0
 10
0.0
 20
0.0
 11
1.0
 21
1.0
 12
18.77154992995601
 22
59.89840607080922
 13
0.0
 23
0.0
 14
0.5
 24
0.5
 15
0.5
 25
0.5
 16
0.0
 26
0.0
 36
1.0
 17
0.0
 27
0.0
 37
0.0
 40
100.7390912562791
 41
2.370049504950495
 42
50.0
 43
0.0
 44
0.0
 50
0.0
 51
0.0
 71
     0
 72
   100
 73
     1
 74
     1
 75
     0
 76
     0
 77
     1
 78
     2
281
     0
 65
     1
110
0.0
120
0.0
130
0.0
111
1.0
121
0.0
131
0.0
112
0.0
122
1.0
132
0.0
 79
     0
146
0.0
1001
ACAD_NAV_VCDISPLAY
1070
     3
  0
ENDTAB
  0
TABLE
  2
LTYPE
  5
15
330
0
100
AcDbSymbolTable
 70
     3
  0
LTYPE
  5
16
330
15
100
AcDbSymbolTableRecord
100
AcDbLinetypeTableRecord
  2
BYBLOCK
 70
     0
  3

 72
    65
 73
     0
 40
0.0
  0
LTYPE
  5
17
330
15
100
AcDbSymbolTableRecord
100
AcDbLinetypeTableRecord
  2
BYLAYER
 70
     0
  3

 72
    65
 73
     0
 40
0.0
  0
LTYPE
  5
8
330
15
100
AcDbSymbolTableRecord
100
AcDbLinetypeTableRecord
  2
CONTINUOUS
 70
     0
  3
Solid line
 72
    65
 73
     0
 40
0.0
  0
LTYPE
  5
1A5B
330
15
100
AcDbSymbolTableRecord
100
AcDbLinetypeTableRecord
  2
HIDDEN2
 70
     0
  3
Hidden (.5x) _ _ _ _ _ _ _ _ _ _ _ _ _ _ _ _ _
 72
    65
 73
     2
 40
0.1875
 49
0.125
 74
     0
 49
-0.0625
 74
     0
  0
LTYPE
  5
1A5E
330
15
100
AcDbSymbolTableRecord
100
AcDbLinetypeTableRecord
  2
PHANTOM2
 70
     0
  3
Phantom (.5x) ___ _ _ ___ _ _ ___ _ _ ___ _ _
 72
    65
 73
     6
 40
1.25
 49
0.625
 74
     0
 49
-0.125
 74
     0
 49
0.125
 74
     0
 49
-0.125
 74
     0
 49
0.125
 74
     0
 49
-0.125
 74
     0
  0
ENDTAB
  0
TABLE
  2
LAYER
  5
11
102
{ACAD_XDICTIONARY
360
899
102
}
330
0
100
AcDbSymbolTable
 70
     6
  0
LAYER
  5
4
102
{ACAD_XDICTIONARY
360
3204F
102
}
330
11
100
AcDbSymbolTableRecord
100
AcDbLayerTableRecord
  2
0
 70
     0
 62
     7
  6
CONTINUOUS
370
    -3
390
5
1001
RAK
1000
{ACET-LAYISO
1070
     0
1070
     7
1000
CONTINUOUS
1071
       -3
1071
        1
1005
5
1000
ACET-LAYISO}
  0
LAYER
  5
1A61
102
{ACAD_XDICTIONARY
360
1A62
102
}
330
11
100
AcDbSymbolTableRecord
100
AcDbLayerTableRecord
  2
DIM
 70
     0
 62
     1
  6
CONTINUOUS
370
    -3
390
5
  0
LAYER
  5
1A7F
102
{ACAD_XDICTIONARY
360
1A80
102
}
330
11
100
AcDbSymbolTableRecord
100
AcDbLayerTableRecord
  2
DETAIL
 70
     0
 62
     1
  6
CONTINUOUS
370
    -3
390
5
  0
LAYER
  5
329C9
330
11
100
AcDbSymbolTableRecord
100
AcDbLayerTableRecord
  2
COVER-SKIN
 70
     2
 62
     3
  6
CONTINUOUS
370
    -3
390
5
1001
RAK
1000
{ACET-LAYISO
1070
     2
1070
     3
1000
CONTINUOUS
1071
       -3
1071
        1
1005
5
1000
ACET-LAYISO}
  0
LAYER
  5
32D1B
330
11
100
AcDbSymbolTableRecord
100
AcDbLayerTableRecord
  2
COLUMN
 70
     0
 62
   254
  6
PHANTOM2
370
    -3
390
5
1001
RAK
1000
{ACET-LAYISO
1070
     0
1070
   254
1000
PHANTOM2
1071
       -3
1071
        1
1005
5
1000
ACET-LAYISO}
  0
LAYER
  5
32D1D
330
11
100
AcDbSymbolTableRecord
100
AcDbLayerTableRecord
  2
STUD
 70
     0
 62
    41
  6
CONTINUOUS
370
    -3
390
5
1001
AcCmTransparency
1071
        0
1001
AcAecLayerStandard
1000

1000

  0
ENDTAB
  0
TABLE
  2
STYLE
  5
12
330
0
100
AcDbSymbolTable
 70
     2
  0
STYLE
  5
13
330
12
100
AcDbSymbolTableRecord
100
AcDbTextStyleTableRecord
  2
STANDARD
 70
     0
 40
0.0
 41
1.0
 50
0.0
 71
     0
 42
0.2
  3
arial.ttf
  4

1001
ACAD
1000
Arial
1071
       34
  0
STYLE
  5
20
330
12
100
AcDbSymbolTableRecord
100
AcDbTextStyleTableRecord
  2
STD
 70
     0
 40
0.0
 41
1.0
 50
0.0
 71
     0
 42
0.25
  3
arial.ttf
  4

1001
ACAD
1000
Arial
1071
       34
  0
ENDTAB
  0
TABLE
  2
VIEW
  5
18
330
0
100
AcDbSymbolTable
 70
     0
  0
ENDTAB
  0
TABLE
  2
UCS
  5
19
330
0
100
AcDbSymbolTable
 70
     0
  0
ENDTAB
  0
TABLE
  2
APPID
  5
1C
330
0
100
AcDbSymbolTable
 70
    38
  0
APPID
  5
1D
330
1C
100
AcDbSymbolTableRecord
100
AcDbRegAppTableRecord
  2
ACAD
 70
     0
  0
APPID
  5
9
330
1C
100
AcDbSymbolTableRecord
100
AcDbRegAppTableRecord
  2
RAK
 70
     0
  0
APPID
  5
3A
330
1C
100
AcDbSymbolTableRecord
100
AcDbRegAppTableRecord
  2
DCO15
 70
     0
  0
APPID
  5
126
330
1C
100
AcDbSymbolTableRecord
100
AcDbRegAppTableRecord
  2
ABNSLEADERTOOLS
 70
     0
  0
APPID
  5
895
330
1C
100
AcDbSymbolTableRecord
100
AcDbRegAppTableRecord
  2
ACAD_PSEXT
 70
     0
  0
APPID
  5
A2A
330
1C
100
AcDbSymbolTableRecord
100
AcDbRegAppTableRecord
  2
ACAD_DSTYLE_DIMTEXT_FILL
 70
     0
  0
APPID
  5
10A5
330
1C
100
AcDbSymbolTableRecord
100
AcDbRegAppTableRecord
  2
AcAecLayerStandard
 70
     0
  0
APPID
  5
198C
330
1C
100
AcDbSymbolTableRecord
100
AcDbRegAppTableRecord
  2
AcDbBlockRepETag
 70
     0
  0
APPID
  5
198D
330
1C
100
AcDbSymbolTableRecord
100
AcDbRegAppTableRecord
  2
AcLayerTools
 70
     0
  0
APPID
  5
1A37
330
1C
100
AcDbSymbolTableRecord
100
AcDbRegAppTableRecord
  2
ACAD_DSTYLE_DIMJAG
 70
     0
  0
APPID
  5
1A38
330
1C
100
AcDbSymbolTableRecord
100
AcDbRegAppTableRecord
  2
ACAD_DSTYLE_DIMBREAK
 70
     0
  0
APPID
  5
1A39
330
1C
100
AcDbSymbolTableRecord
100
AcDbRegAppTableRecord
  2
AcadAnnotative
 70
     0
  0
APPID
  5
1A3A
330
1C
100
AcDbSymbolTableRecord
100
AcDbRegAppTableRecord
  2
ACAD_DSTYLE_DIMTALN
 70
     0
  0
APPID
  5
1A3B
330
1C
100
AcDbSymbolTableRecord
100
AcDbRegAppTableRecord
  2
AcadAnnoAV
 70
     0
  0
APPID
  5
1D4C
330
1C
100
AcDbSymbolTableRecord
100
AcDbRegAppTableRecord
  2
ACAD_MLEADERVER
 70
     0
  0
APPID
  5
1D4D
330
1C
100
AcDbSymbolTableRecord
100
AcDbRegAppTableRecord
  2
AcadAnnoPO
 70
     0
  0
APPID
  5
1D4E
330
1C
100
AcDbSymbolTableRecord
100
AcDbRegAppTableRecord
  2
ACAD_DSTYLE_DIMRADIAL_EXTENSION
 70
     0
  0
APPID
  5
8637
330
1C
100
AcDbSymbolTableRecord
100
AcDbRegAppTableRecord
  2
AcDbDynamicBlockTrueName
 70
     0
  0
APPID
  5
8638
330
1C
100
AcDbSymbolTableRecord
100
AcDbRegAppTableRecord
  2
AcDbDynamicBlockGUID
 70
     0
  0
APPID
  5
EECA
330
1C
100
AcDbSymbolTableRecord
100
AcDbRegAppTableRecord
  2
ACAUTHENVIRON
 70
     0
  0
APPID
  5
EED2
330
1C
100
AcDbSymbolTableRecord
100
AcDbRegAppTableRecord
  2
AcDbBlockRepBTag
 70
     0
  0
APPID
  5
32104
330
1C
100
AcDbSymbolTableRecord
100
AcDbRegAppTableRecord
  2
ACAD_EXEMPT_FROM_CAD_STANDARDS
 70
     0
  0
APPID
  5
329CB
330
1C
100
AcDbSymbolTableRecord
100
AcDbRegAppTableRecord
  2
ACAD_NAV_VCDISPLAY
 70
     0
  0
APPID
  5
32D1E
330
1C
100
AcDbSymbolTableRecord
100
AcDbRegAppTableRecord
  2
AcCmTransparency
 70
     0
  0
APPID
  5
32E33
330
1C
100
AcDbSymbolTableRecord
100
AcDbRegAppTableRecord
  2
ACATTRIBSERVICES
 70
     0
  0
APPID
  5
32E34
330
1C
100
AcDbSymbolTableRecord
100
AcDbRegAppTableRecord
  2
MCAD_NO_VIS
 70
     0
  0
APPID
  5
32E35
330
1C
100
AcDbSymbolTableRecord
100
AcDbRegAppTableRecord
  2
ACAD_TEMP_GRAPHIC
 70
     0
  0
APPID
  5
32E36
330
1C
100
AcDbSymbolTableRecord
100
AcDbRegAppTableRecord
  2
AD_DRAW
 70
     0
  0
APPID
  5
32E37
330
1C
100
AcDbSymbolTableRecord
100
AcDbRegAppTableRecord
  2
DESIGNERASSEMBLIES
 70
     0
  0
APPID
  5
32E38
330
1C
100
AcDbSymbolTableRecord
100
AcDbRegAppTableRecord
  2
ACADM_DIM_EDIT
 70
     0
  0
APPID
  5
32E39
330
1C
100
AcDbSymbolTableRecord
100
AcDbRegAppTableRecord
  2
AMDT_DM_ADJ
 70
     0
  0
APPID
  5
32E3A
330
1C
100
AcDbSymbolTableRecord
100
AcDbRegAppTableRecord
  2
ACAD_DSTYLE_DIMARC_LENGTH_SYMBOL
 70
     0
  0
APPID
  5
32E3B
330
1C
100
AcDbSymbolTableRecord
100
AcDbRegAppTableRecord
  2
ACAD_DSTYLE_DIM_LINETYPE
 70
     0
  0
APPID
  5
32E3C
330
1C
100
AcDbSymbolTableRecord
100
AcDbRegAppTableRecord
  2
ACAD_DSTYLE_DIM_EXT1_LINETYPE
 70
     0
  0
APPID
  5
32E3D
330
1C
100
AcDbSymbolTableRecord
100
AcDbRegAppTableRecord
  2
ACAD_DSTYLE_DIM_EXT2_LINETYPE
 70
     0
  0
APPID
  5
32E3E
330
1C
100
AcDbSymbolTableRecord
100
AcDbRegAppTableRecord
  2
GradientColor1ACI
 70
     0
  0
APPID
  5
32E3F
330
1C
100
AcDbSymbolTableRecord
100
AcDbRegAppTableRecord
  2
GradientColor2ACI
 70
     0
  0
APPID
  5
35944
330
1C
100
AcDbSymbolTableRecord
100
AcDbRegAppTableRecord
  2
AcDbAttr
 70
     0
  0
ENDTAB
  0
TABLE
  2
DIMSTYLE
  5
1E
330
0
100
AcDbSymbolTable
 70
     1
100
AcDbDimStyleTable
 71
     0
  0
DIMSTYLE
105
172
330
1E
100
AcDbSymbolTableRecord
100
AcDbDimStyleTableRecord
  2
Standard
 70
     0
340
13
  0
ENDTAB
  0
TABLE
  2
BLOCK_RECORD
  5
1
330
0
100
AcDbSymbolTable
 70
     0
  0
BLOCK_RECORD
  5
2
102
{ACAD_XDICTIONARY
360
2A3D8
102
}
330
1
100
AcDbSymbolTableRecord
100
AcDbBlockTableRecord
  2
*MODEL_SPACE
340
B
  0
BLOCK_RECORD
  5
D
102
{ACAD_XDICTIONARY
360
1D72
102
}
330
1
100
AcDbSymbolTableRecord
100
AcDbBlockTableRecord
  2
*PAPER_SPACE
340
10
  0
ENDTAB
  0
ENDSEC
  0
SECTION
  2
BLOCKS
  0
BLOCK
  5
3
330
2
100
AcDbEntity
  8
0
100
AcDbBlockBegin
  2
*MODEL_SPACE
 70
     0
 10
0.0
 20
0.0
 30
0.0
  3
*MODEL_SPACE
  1

  0
ENDBLK
  5
A
330
2
100
AcDbEntity
  8
0
100
AcDbBlockEnd
  0
BLOCK
  5
E
330
D
100
AcDbEntity
 67
     1
  8
0
100
AcDbBlockBegin
  2
*PAPER_SPACE
 70
     0
 10
0.0
 20
0.0
 30
0.0
  3
*PAPER_SPACE
  1

  0
ENDBLK
  5
F
330
D
100
AcDbEntity
 67
     1
  8
0
100
AcDbBlockEnd
  0
ENDSEC
  0
SECTION
  2
ENTITIES
  0
ELLIPSE
  5
32B2E
330
2
100
AcDbEntity
  8
COVER-SKIN
100
AcDbEllipse
 10
36.60295135819314
 20
91.09366091560728
 30
0.0000000000000837
 11
-0.1199999999999996
 21
0.0000000000000004
 31
-0.0000000000000006
210
-0.000000000000005
220
0.0
230
1.0
 40
0.577350269189626
 41
3.920779288878448
 42
4.712388980384552
  0
ELLIPSE
  5
32B2F
330
2
100
AcDbEntity
  8
COVER-SKIN
100
AcDbEllipse
 10
26.68306720804787
 20
10.30251245796674
 30
0.0000000000000296
 11
14.0625
 21
-0.0000000000000484
 31
0.0000000000000703
210
-0.000000000000005
220
0.0000000000000001
230
1.0
 40
0.5773502691896258
 41
3.957201022667724
 42
6.283185307179585
  0
ELLIPSE
  5
32B30
330
2
100
AcDbEntity
  8
COVER-SKIN
100
AcDbEllipse
 10
26.68306720804813
 20
85.43712473470113
 30
0.0000000000000358
 11
14.0625
 21
-0.0000000000000484
 31
0.0000000000000703
210
-0.000000000000005
220
0.0000000000000001
230
1.0
 40
0.5773502691896258
 41
3.933240243102627
 42
7.062371942468351
  0
ELLIPSE
  5
32B31
330
2
100
AcDbEntity
  8
COVER-SKIN
100
AcDbEllipse
 10
16.89069202626469
 20
79.7110830389414
 30
-0.0000000000000122
 11
-0.1250328785659295
 21
0.0000000000000004
 31
-0.0000000000000006
210
-0.0000000000000048
220
0.0000000000000002
230
1.0
 40
0.5773502691896259
 41
0.0000518767389343
 42
0.7789732283838112
  0
LINE
  5
32B32
330
2
100
AcDbEntity
  8
COVER-SKIN
100
AcDbLine
 10
16.765659147867
 20
73.89545095841143
 30
-0.0000000000000151
 11
16.76565914786702
 21
79.71749762434939
 31
-0.0000000000000086
210
0.0
220
0.8164965809277259
230
0.577350269189626
  0
ELLIPSE
  5
32B34
330
2
100
AcDbEntity
  8
COVER-SKIN
100
AcDbEllipse
 10
16.70315914786706
 20
79.71749762434939
 30
0.0000000000000003
 11
0.0624999999999563
 21
-0.0000000000000002
 31
0.0000000000000003
210
-0.0000000000000048
220
0.0000000000000001
230
1.0
 40
0.577350269189626
 41
0.0000000000001609
 42
0.7853981633976188
  0
LINE
  5
32B35
330
2
100
AcDbEntity
  8
COVER-SKIN
100
AcDbLine
 10
16.4121057572737
 20
79.93656841406488
 30
-0.000000000000014
 11
16.74735332169117
 21
79.74301314250334
 31
-0.0000000000000157
210
0.0
220
0.8164965809277259
230
0.577350269189626
  0
LINE
  5
32B36
330
2
100
AcDbEntity
  8
COVER-SKIN
100
AcDbLine
 10
16.07685819285627
 20
80.12989746364073
 30
-0.0000000000000175
 11
16.07685819285627
 21
80.1301236856265
 31
-0.0000000000000122
210
0.0
220
0.8164965809277259
230
0.577350269189626
  0
LINE
  5
32B37
330
2
100
AcDbEntity
  8
COVER-SKIN
100
AcDbLine
 10
16.45629993109788
 20
79.9620839322189
 30
-0.0000000000000095
 11
16.41210575727371
 21
79.9365684140649
 31
-0.0000000000000113
210
0.0
220
0.8164965809277259
230
0.577350269189626
  0
LINE
  5
32B38
330
2
100
AcDbEntity
  8
COVER-SKIN
100
AcDbLine
 10
16.79154749551531
 20
79.76852866065733
 30
-0.0000000000000086
 11
16.45629993109788
 21
79.9620839322189
 31
-0.0000000000000095
210
0.0
220
0.8164965809277259
230
0.577350269189626
  0
ELLIPSE
  5
32B39
330
2
100
AcDbEntity
  8
COVER-SKIN
100
AcDbEllipse
 10
16.703159147867
 20
79.71749762434935
 30
-0.0000000000000122
 11
0.1250000000000005
 21
-0.0000000000000004
 31
0.0000000000000006
210
-0.0000000000000048
220
0.0000000000000001
230
1.0
 40
0.577350269189626
 41
0.0000000000002412
 42
0.7853981633975052
  0
LINE
  5
32B3A
330
2
100
AcDbEntity
  8
COVER-SKIN
100
AcDbLine
 10
16.828159147867
 20
79.71107929407549
 30
-0.000000000000014
 11
16.828159147867
 21
79.71749762434939
 31
0.0000000000000003
210
0.0
220
0.8164965809277259
230
0.577350269189626
  0
ELLIPSE
  5
32B3B
330
2
100
AcDbEntity
  8
COVER-SKIN
100
AcDbEllipse
 10
16.89065914786709
 20
79.71107929407551
 30
-0.0000000000000122
 11
-0.0625000000000833
 21
0.0000000000000002
 31
-0.0000000000000003
210
-0.0000000000000048
220
-0.0000000000000001
230
1.0
 40
0.5773502691896261
 41
0.0000000000000004
 42
0.7791208377572106
  0
ELLIPSE
  5
32B3D
330
2
100
AcDbEntity
  8
COVER-SKIN
100
AcDbEllipse
 10
26.68306720804814
 20
85.43712473470113
 30
0.0000000000000482
 11
14.00000000000001
 21
-0.0000000000000459
 31
0.0000000000000684
210
-0.0000000000000049
220
0.0
230
1.0
 40
0.5773502691896259
 41
3.933296166838326
 42
7.062278120726238
  0
ELLIPSE
  5
32B3E
330
2
100
AcDbEntity
  8
COVER-SKIN
100
AcDbEllipse
 10
36.60086883765998
 20
91.0907741642613
 30
0.0000000000000873
 11
0.0625000000000247
 21
-0.0000000000000002
 31
0.0000000000000003
210
-0.0000000000000048
220
0.0
230
1.0
 40
0.5773502691896255
 41
0.7916754891036301
 42
1.570796326796141
  0
LINE
  5
32B3F
330
2
100
AcDbEntity
  8
COVER-SKIN
100
AcDbLine
 10
36.58975196352582
 20
91.12685855608566
 30
0.0000000000000962
 11
36.6008688376599
 21
91.12685855608566
 31
0.0000000000000855
210
0.0
220
0.8164965809277259
230
0.577350269189626
  0
ELLIPSE
  5
32B40
330
2
100
AcDbEntity
  8
COVER-SKIN
100
AcDbEllipse
 10
36.58975196352584
 20
91.19902733973438
 30
0.0000000000000944
 11
0.1250000000000005
 21
-0.0000000000000004
 31
0.0000000000000006
210
-0.0000000000000048
220
0.0000000000000001
230
1.0
 40
0.577350269189626
 41
3.926990816987283
 42
4.712388980384497
  0
LINE
  5
32B41
330
2
100
AcDbEntity
  8
COVER-SKIN
100
AcDbLine
 10
36.16592013747342
 20
91.34143846399508
 30
-0.0000000000000148
 11
36.50136361587752
 21
91.14799630342639
 31
0.0000000000000908
210
0.0
220
0.8164965809277259
230
0.577350269189626
  0
LINE
  5
32B42
330
2
100
AcDbEntity
  8
COVER-SKIN
100
AcDbLine
 10
36.16592013747342
 20
91.3412122420093
 30
-0.0000000000000237
 11
36.16592013747342
 21
91.34143846399508
 31
-0.0000000000000148
210
0.0
220
0.8164965809277259
230
0.577350269189626
  0
LINE
  5
32B43
330
2
100
AcDbEntity
  8
COVER-SKIN
100
AcDbLine
 10
36.21011431129758
 20
91.36695398214909
 30
-0.0000000000000184
 11
36.16592013747342
 21
91.34143846399508
 31
-0.0000000000000148
210
0.0
220
0.8164965809277259
230
0.577350269189626
  0
LINE
  5
32B44
330
2
100
AcDbEntity
  8
COVER-SKIN
100
AcDbLine
 10
36.54555778970169
 20
91.1735118215804
 30
0.0000000000000908
 11
36.21011431129758
 21
91.36695398214909
 31
-0.0000000000000184
210
0.0
220
0.8164965809277259
230
0.577350269189626
  0
ELLIPSE
  5
32B45
330
2
100
AcDbEntity
  8
COVER-SKIN
100
AcDbEllipse
 10
36.58975196352584
 20
91.19902733973436
 30
0.0000000000000837
 11
-0.0624999999999564
 21
0.0000000000000002
 31
-0.0000000000000003
210
-0.0000000000000048
220
0.0
230
1.0
 40
0.5773502691896259
 41
0.7853981633972494
 42
1.570796326794615
  0
LINE
  5
32B46
330
2
100
AcDbEntity
  8
COVER-SKIN
100
AcDbLine
 10
36.60295135819315
 20
91.16294294791003
 30
0.0000000000000926
 11
36.58975196352582
 21
91.16294294791003
 31
0.0000000000000873
210
0.0
220
0.8164965809277259
230
0.577350269189626
  0
ELLIPSE
  5
32B47
330
2
100
AcDbEntity
  8
DETAIL
 62
     5
100
AcDbEllipse
 10
24.88444046387492
 20
9.681590173867816
 30
0.0000000000000287
 11
-12.38732024041867
 21
0.474561480626435
 31
-0.0000000000000605
210
-0.0000000000000049
220
-0.0000000000000001
230
1.0
 40
0.57267672511199
 41
0.7453962832579424
 42
0.9071027959159071
  0
LINE
  5
32B48
330
2
100
AcDbEntity
  8
DETAIL
 62
     5
100
AcDbLine
 10
17.03939355377588
 20
4.385887812598723
 30
-0.0000000000000144
 11
17.04427054043166
 21
4.389411549129248
 31
-0.0000000000000135
210
0.0
220
0.8164965809277259
230
0.577350269189626
  0
LINE
  5
32B49
330
2
100
AcDbEntity
  8
DETAIL
 62
     5
100
AcDbLine
 10
17.0393935537759
 20
4.385887812598723
 30
-0.0000000000000143
 11
17.03939355377613
 21
72.01903597632568
 31
-0.0000000000000086
210
0.0
220
0.8164965809277259
230
0.577350269189626
  0
LINE
  5
32B4A
330
2
100
AcDbEntity
  8
DETAIL
 62
     5
100
AcDbLine
 10
17.04427054043167
 20
4.389411549129248
 30
-0.0000000000000133
 11
17.0442705404319
 21
72.0225597128562
 31
-0.0000000000000051
210
0.0
220
0.8164965809277259
230
0.577350269189626
  0
LINE
  5
32B4B
330
2
100
AcDbEntity
  8
DETAIL
 62
     5
100
AcDbLine
 10
15.59766824929139
 20
5.218756386984351
 30
-0.0000000000000153
 11
15.59766824929164
 21
72.80233594342082
 31
-0.0000000000000157
210
0.0
220
0.8164965809277259
230
0.577350269189626
  0
ELLIPSE
  5
32B4C
330
2
100
AcDbEntity
  8
DETAIL
 62
     5
100
AcDbEllipse
 10
9.9392899177545
 20
69.53546969053113
 30
-0.0000000000000335
 11
4.001077688748951
 21
6.930069841943384
 31
0.0000000000000185
210
-0.0000000000000047
220
0.0
230
0.9999999999999998
 40
0.577350269189626
 41
5.497787143782136
 42
6.12928395293034
  0
ELLIPSE
  5
32B4D
330
2
100
AcDbEntity
  8
DETAIL
 62
     5
100
AcDbEllipse
 10
11.33851024028464
 20
68.72762946066274
 30
-0.0000000000000335
 11
4.03113324972308
 21
6.982127600600563
 31
0.0000000000000199
210
-0.0000000000000049
220
0.0
230
1.0
 40
0.5773502691896261
 41
5.497787143782136
 42
6.8733753303608
  0
ELLIPSE
  5
32B4E
330
2
100
AcDbEntity
  8
DETAIL
 62
     5
100
AcDbEllipse
 10
9.939568692025991
 20
69.53530874013043
 30
-0.0000000000000282
 11
4.004978961812359
 21
6.936827045103407
 31
0.0000000000000191
210
-0.0000000000000048
220
0.0
230
1.0
 40
0.5773502691896258
 41
6.247449072886781
 42
6.86216611370667
  0
ELLIPSE
  5
32B4F
330
2
100
AcDbEntity
  8
DETAIL
 62
     5
100
AcDbEllipse
 10
11.33789708826085
 20
68.72798346414874
 30
-0.0000000000000299
 11
4.035015364013051
 21
6.988851619791575
 31
0.0000000000000191
210
-0.0000000000000048
220
0.0000000000000001
230
1.0
 40
0.577350269189626
 41
5.497787143782136
 42
6.873456032582288
  0
LINE
  5
32B5E
330
2
100
AcDbEntity
  8
COVER-SKIN
100
AcDbLine
 10
40.74556720804812
 20
85.43712473470106
 30
0.0000000000001024
 11
40.74556720804785
 21
10.30251245796668
 31
0.0000000000000962
210
0.0
220
0.8164965809277259
230
0.577350269189626
  0
LINE
  5
32BC0
330
2
100
AcDbEntity
  8
DETAIL
 62
     1
100
AcDbLine
 10
39.16804780957678
 20
92.92506089154532
 30
0.0
 11
39.11780265122793
 21
92.89605183584715
 31
0.0
  0
LINE
  5
32BC1
330
2
100
AcDbEntity
  8
DETAIL
 62
     1
100
AcDbLine
 10
39.26409647078035
 20
92.89932473034172
 30
0.0
 11
39.21385131243152
 21
92.87031567464355
 31
0.0
  0
ARC
  5
32BC2
330
2
100
AcDbEntity
  8
DETAIL
 62
     1
100
AcDbCircle
 10
39.50239956626647
 20
92.77040565861419
 30
0.0
 40
0.2310475575840813
100
AcDbArc
 50
72.5070706901042
 51
120.3239793257842
  0
LINE
  5
32BC3
330
2
100
AcDbEntity
  8
DETAIL
 62
     1
100
AcDbLine
 10
39.34256025177067
 20
93.02581569702295
 30
0.0
 11
39.29003239876737
 21
92.99548872695153
 31
0.0
  0
LINE
  5
32BC4
330
2
100
AcDbEntity
  8
DETAIL
 62
     1
100
AcDbLine
 10
39.37891630247332
 20
92.96561599107798
 30
0.0
 11
39.32867114412448
 21
92.93660693537978
 31
0.0
  0
LINE
  5
32BC5
330
2
100
AcDbEntity
  8
DETAIL
 62
     1
100
AcDbLine
 10
39.28724372550227
 20
92.89917880778739
 30
0.0
 11
39.28007896800462
 21
92.89504223311745
 31
0.0
  0
LINE
  5
32BC6
330
2
100
AcDbEntity
  8
DETAIL
 62
     1
100
AcDbLine
 10
39.34465364134875
 20
92.93232443815552
 30
0.0
 11
39.33748888385112
 21
92.92818786348556
 31
0.0
  0
LINE
  5
32BC7
330
2
100
AcDbEntity
  8
DETAIL
 62
     1
100
AcDbLine
 10
39.32150638662683
 20
92.93247036070985
 30
0.0
 11
39.271261228278
 21
92.90346130501168
 31
0.0
  0
LINE
  5
32BC8
330
2
100
AcDbEntity
  8
DETAIL
 62
     1
100
AcDbLine
 10
39.40206355719524
 20
92.96547006852362
 30
0.0
 11
39.39489879969759
 21
92.96133349385371
 31
0.0
  0
LINE
  5
32BC9
330
2
100
AcDbEntity
  8
DETAIL
 62
     1
100
AcDbLine
 10
39.26688514404546
 20
92.99563464950585
 30
0.0
 11
39.39489879969759
 21
92.96133349385371
 31
0.0
  0
LINE
  5
32BCA
330
2
100
AcDbEntity
  8
DETAIL
 62
     1
100
AcDbLine
 10
39.2740499015431
 20
92.99977122417578
 30
0.0
 11
39.40206355719524
 21
92.96547006852362
 31
0.0
  0
LINE
  5
32BCB
330
2
100
AcDbEntity
  8
DETAIL
 62
     1
100
AcDbLine
 10
39.21663998569659
 20
92.96662559380768
 30
0.0
 11
39.34465364134875
 21
92.93232443815552
 31
0.0
  0
LINE
  5
32BCC
330
2
100
AcDbEntity
  8
DETAIL
 62
     1
100
AcDbLine
 10
39.20947522819896
 20
92.96248901913772
 30
0.0
 11
39.33748888385112
 21
92.92818786348556
 31
0.0
  0
LINE
  5
32BCD
330
2
100
AcDbEntity
  8
DETAIL
 62
     1
100
AcDbLine
 10
39.15923006985012
 20
92.93347996343957
 30
0.0
 11
39.28724372550227
 21
92.89917880778739
 31
0.0
  0
LINE
  5
32BCE
330
2
100
AcDbEntity
  8
DETAIL
 62
     1
100
AcDbLine
 10
39.15206531235249
 20
92.92934338876959
 30
0.0
 11
39.28007896800462
 21
92.89504223311745
 31
0.0
  0
LINE
  5
32BCF
330
2
100
AcDbEntity
  8
DETAIL
 62
     1
100
AcDbLine
 10
39.15923006985012
 20
92.93347996343957
 30
0.0
 11
39.15206531235249
 21
92.92934338876959
 31
0.0
  0
LINE
  5
32BD0
330
2
100
AcDbEntity
  8
DETAIL
 62
     1
100
AcDbLine
 10
39.2740499015431
 20
92.99977122417578
 30
0.0
 11
39.26688514404546
 21
92.99563464950585
 31
0.0
  0
LINE
  5
32BD1
330
2
100
AcDbEntity
  8
DETAIL
 62
     1
100
AcDbLine
 10
39.21663998569659
 20
92.96662559380768
 30
0.0
 11
39.20947522819896
 21
92.96248901913772
 31
0.0
  0
LINE
  5
32BD2
330
2
100
AcDbEntity
  8
DETAIL
 62
     1
100
AcDbLine
 10
39.28286764126973
 20
92.9913521522816
 30
0.0
 11
39.23262248292089
 21
92.96234309658341
 31
0.0
  0
LINE
  5
32BD3
330
2
100
AcDbEntity
  8
DETAIL
 62
     1
100
AcDbLine
 10
39.22545772542325
 20
92.95820652191343
 30
0.0
 11
39.1752125670744
 21
92.92919746621526
 31
0.0
  0
LINE
  5
32BD4
330
2
100
AcDbEntity
  8
DETAIL
 62
     1
100
AcDbLine
 10
39.22983380965579
 20
92.8660331774193
 30
0.0
 11
39.22266905215816
 21
92.86189660274931
 31
0.0
  0
ARC
  5
32BD5
330
2
100
AcDbEntity
  8
DETAIL
 62
     1
100
AcDbCircle
 10
39.23644457737509
 20
93.23105321190054
 30
0.0
 40
0.2310475575840813
100
AcDbArc
 50
297.3406994474109
 51
346.6989421813259
  0
LINE
  5
32BD6
330
2
100
AcDbEntity
  8
DETAIL
 62
     1
100
AcDbLine
 10
39.05322797788379
 20
92.85876963080907
 30
0.0
 11
39.00298281953496
 21
92.82976057511092
 31
0.0
  0
LINE
  5
32BD7
330
2
100
AcDbEntity
  8
DETAIL
 62
     1
100
AcDbLine
 10
39.14927663908738
 20
92.83303346960549
 30
0.0
 11
39.09903148073855
 21
92.80402441390732
 31
0.0
  0
LINE
  5
32BD8
330
2
100
AcDbEntity
  8
DETAIL
 62
     1
100
AcDbLine
 10
39.11063789373029
 20
92.89191526117722
 30
0.0
 11
39.06039273538143
 21
92.862906205479
 31
0.0
  0
LINE
  5
32BD9
330
2
100
AcDbEntity
  8
DETAIL
 62
     1
100
AcDbLine
 10
39.04441023815715
 20
92.8671887027033
 30
0.0
 11
39.03724548065952
 21
92.86305212803334
 31
0.0
  0
LINE
  5
32BDA
330
2
100
AcDbEntity
  8
DETAIL
 62
     1
100
AcDbLine
 10
39.10182015400364
 20
92.90033433307144
 30
0.0
 11
39.094655396506
 21
92.89619775840151
 31
0.0
  0
LINE
  5
32BDB
330
2
100
AcDbEntity
  8
DETAIL
 62
     1
100
AcDbLine
 10
39.03724548065952
 20
92.86305212803334
 30
0.0
 11
39.16525913631168
 21
92.82875097238122
 31
0.0
  0
LINE
  5
32BDC
330
2
100
AcDbEntity
  8
DETAIL
 62
     1
100
AcDbLine
 10
39.04441023815715
 20
92.8671887027033
 30
0.0
 11
39.1724238938093
 21
92.83288754705116
 31
0.0
  0
LINE
  5
32BDD
330
2
100
AcDbEntity
  8
DETAIL
 62
     1
100
AcDbLine
 10
39.1724238938093
 20
92.83288754705116
 30
0.0
 11
39.16525913631168
 21
92.82875097238122
 31
0.0
  0
LINE
  5
32BDE
330
2
100
AcDbEntity
  8
DETAIL
 62
     1
100
AcDbLine
 10
39.20668655493386
 20
92.86617909997364
 30
0.0
 11
39.15644139658503
 21
92.83717004427543
 31
0.0
  0
LINE
  5
32BDF
330
2
100
AcDbEntity
  8
DETAIL
 62
     1
100
AcDbLine
 10
39.10182015400364
 20
92.90033433307144
 30
0.0
 11
39.22983380965579
 21
92.8660331774193
 31
0.0
  0
LINE
  5
32BE0
330
2
100
AcDbEntity
  8
DETAIL
 62
     1
100
AcDbLine
 10
39.094655396506
 20
92.89619775840151
 30
0.0
 11
39.22266905215816
 21
92.86189660274931
 31
0.0
  0
LINE
  5
32BFD
330
2
100
AcDbEntity
  8
DETAIL
100
AcDbLine
 10
39.03724548065952
 20
92.86305212803334
 30
0.0
 11
39.04626886442031
 21
92.85475178477772
 31
0.0
  0
LINE
  5
32BFE
330
2
100
AcDbEntity
  8
DETAIL
100
AcDbLine
 10
39.094655396506
 20
92.89619775840151
 30
0.0
 11
39.1036787802668
 21
92.8878974151458
 31
0.0
  0
LINE
  5
32BFF
330
2
100
AcDbEntity
  8
DETAIL
100
AcDbLine
 10
39.15206531235249
 20
92.92934338876959
 30
0.0
 11
39.16108869611328
 21
92.92104304551395
 31
0.0
  0
LINE
  5
32C00
330
2
100
AcDbEntity
  8
DETAIL
100
AcDbLine
 10
39.20947522819896
 20
92.96248901913772
 30
0.0
 11
39.21849861195975
 21
92.95418867588205
 31
0.0
  0
LINE
  5
32C01
330
2
100
AcDbEntity
  8
DETAIL
100
AcDbLine
 10
39.26688514404546
 20
92.99563464950585
 30
0.0
 11
39.27590852780625
 21
92.98733430625018
 31
0.0
  0
LINE
  5
32C02
330
2
100
AcDbEntity
  8
DETAIL
 62
     5
100
AcDbLine
 10
11.10041033328075
 20
76.60678747940403
 30
0.0
 11
12.44431471679783
 21
75.83088392181537
 31
0.0
  0
LINE
  5
32C03
330
2
100
AcDbEntity
  8
DETAIL
 62
     5
100
AcDbLine
 10
11.10041033328075
 20
76.60678747940591
 30
-0.0000000000000228
 11
11.10041033328075
 21
76.59975728513329
 31
-0.0000000000000228
  0
LINE
  5
32C04
330
2
100
AcDbEntity
  8
DETAIL
 62
     5
100
AcDbLine
 10
12.44431471679783
 20
75.83088392184213
 30
-0.000000000000025
 11
12.44431471679783
 21
75.82385372754465
 31
-0.000000000000025
  0
LINE
  5
32C05
330
2
100
AcDbEntity
  8
DETAIL
 62
     5
100
AcDbLine
 10
11.10041033328255
 20
76.59975728513231
 30
-0.000000000000003
 11
12.44431471679964
 21
75.82385372754366
 31
-0.000000000000003
  0
LINE
  5
32C06
330
2
100
AcDbEntity
  8
DETAIL
 62
     1
100
AcDbLine
 10
38.94536725965433
 20
92.79649621610428
 30
0.0
 11
38.89512210130547
 21
92.76748716040613
 31
0.0
  0
LINE
  5
32C07
330
2
100
AcDbEntity
  8
DETAIL
 62
     1
100
AcDbLine
 10
39.04141592085791
 20
92.77076005490069
 30
0.0
 11
38.99117076250908
 21
92.74175099920253
 31
0.0
  0
LINE
  5
32C08
330
2
100
AcDbEntity
  8
DETAIL
 62
     1
100
AcDbLine
 10
39.06456317557983
 20
92.77061413234632
 30
0.0
 11
39.05739841808218
 21
92.76647755767641
 31
0.0
  0
LINE
  5
32C09
330
2
100
AcDbEntity
  8
DETAIL
 62
     1
100
AcDbLine
 10
39.1219730914263
 20
92.80375976271448
 30
0.0
 11
39.11480833392867
 21
92.79962318804448
 31
0.0
  0
LINE
  5
32C0A
330
2
100
AcDbEntity
  8
DETAIL
 62
     1
100
AcDbLine
 10
39.09882583670439
 20
92.80390568526881
 30
0.0
 11
39.04858067835557
 21
92.77489662957064
 31
0.0
  0
LINE
  5
32C0B
330
2
100
AcDbEntity
  8
DETAIL
 62
     1
100
AcDbLine
 10
38.99395943577415
 20
92.83806091836664
 30
0.0
 11
39.1219730914263
 21
92.80375976271448
 31
0.0
  0
LINE
  5
32C0C
330
2
100
AcDbEntity
  8
DETAIL
 62
     1
100
AcDbLine
 10
38.98679467827653
 20
92.8339243436967
 30
0.0
 11
39.11480833392867
 21
92.79962318804448
 31
0.0
  0
LINE
  5
32C0D
330
2
100
AcDbEntity
  8
DETAIL
 62
     1
100
AcDbLine
 10
38.93654951992767
 20
92.80491528799853
 30
0.0
 11
39.06456317557983
 21
92.77061413234632
 31
0.0
  0
LINE
  5
32C0E
330
2
100
AcDbEntity
  8
DETAIL
 62
     1
100
AcDbLine
 10
38.92938476243004
 20
92.80077871332856
 30
0.0
 11
39.05739841808218
 21
92.76647755767641
 31
0.0
  0
LINE
  5
32C0F
330
2
100
AcDbEntity
  8
DETAIL
 62
     1
100
AcDbLine
 10
38.93654951992767
 20
92.80491528799853
 30
0.0
 11
38.92938476243004
 21
92.80077871332856
 31
0.0
  0
LINE
  5
32C10
330
2
100
AcDbEntity
  8
DETAIL
 62
     1
100
AcDbLine
 10
38.99395943577415
 20
92.83806091836664
 30
0.0
 11
38.98679467827653
 21
92.8339243436967
 31
0.0
  0
LINE
  5
32C11
330
2
100
AcDbEntity
  8
DETAIL
 62
     1
100
AcDbLine
 10
39.00277717550081
 20
92.82964184647239
 30
0.0
 11
38.95253201715196
 21
92.80063279077422
 31
0.0
  0
LINE
  5
32C12
330
2
100
AcDbEntity
  8
DETAIL
 62
     1
100
AcDbLine
 10
38.77751359634743
 20
92.60488598050573
 30
0.0
 11
38.77034883884979
 21
92.60074940583582
 31
0.0
  0
LINE
  5
32C13
330
2
100
AcDbEntity
  8
DETAIL
 62
     1
100
AcDbLine
 10
38.64965130890554
 20
92.63914657716822
 30
0.0
 11
38.6462536621304
 21
92.63400060822236
 31
0.0
  0
LINE
  5
32C14
330
2
100
AcDbEntity
  8
DETAIL
 62
     1
100
AcDbLine
 10
38.6462536621304
 20
92.63400060822236
 30
0.0
 11
38.77034883884979
 21
92.60074940583582
 31
0.0
  0
LINE
  5
32C15
330
2
100
AcDbEntity
  8
DETAIL
 62
     1
100
AcDbLine
 10
38.64965130890554
 20
92.63914657716822
 30
0.0
 11
38.77751359634743
 21
92.60488598050573
 31
0.0
  0
LINE
  5
32C16
330
2
100
AcDbEntity
  8
DETAIL
 62
     1
100
AcDbLine
 10
38.66020123578317
 20
92.63026336712574
 30
0.0
 11
38.63637414878335
 21
92.594175610544
 31
0.0
  0
LINE
  5
32C17
330
2
100
AcDbEntity
  8
DETAIL
 62
     1
100
AcDbLine
 10
38.63297650200821
 20
92.58902964159814
 30
0.0
 11
38.61858577296714
 21
92.56723389599688
 31
0.0
  0
LINE
  5
32C18
330
2
100
AcDbEntity
  8
DETAIL
 62
     1
100
AcDbLine
 10
38.62446149870211
 20
92.597367595513
 30
0.0
 11
38.62106385192698
 21
92.59222162656715
 31
0.0
  0
LINE
  5
32C19
330
2
100
AcDbEntity
  8
DETAIL
 62
     1
100
AcDbLine
 10
38.75436634162549
 20
92.60503190306009
 30
0.0
 11
38.70412118327666
 21
92.57602284736192
 31
0.0
  0
LINE
  5
32C1A
330
2
100
AcDbEntity
  8
DETAIL
 62
     1
100
AcDbLine
 10
38.61858577296714
 20
92.56723389599688
 30
0.0
 11
38.69705630917073
 21
92.57194394039505
 31
0.0
  0
LINE
  5
32C1B
330
2
100
AcDbEntity
  8
DETAIL
 62
     1
100
AcDbLine
 10
38.72010368050095
 20
92.57174035013763
 30
0.0
 11
38.7129389230033
 21
92.56760377546768
 31
0.0
  0
LINE
  5
32C1C
330
2
100
AcDbEntity
  8
DETAIL
 62
     1
100
AcDbLine
 10
38.62446149870211
 20
92.597367595513
 30
0.0
 11
38.72010368050095
 21
92.57174035013763
 31
0.0
  0
LINE
  5
32C1D
330
2
100
AcDbEntity
  8
DETAIL
 62
     1
100
AcDbLine
 10
38.62106385192698
 20
92.59222162656715
 30
0.0
 11
38.7129389230033
 21
92.56760377546768
 31
0.0
  0
LINE
  5
32C1E
330
2
100
AcDbEntity
  8
DETAIL
 62
     1
100
AcDbLine
 10
39.00715325973335
 20
92.73746850197822
 30
0.0
 11
38.9999885022357
 21
92.73333192730827
 31
0.0
  0
LINE
  5
32C1F
330
2
100
AcDbEntity
  8
DETAIL
 62
     1
100
AcDbLine
 10
38.83054742796136
 20
92.73020495536803
 30
0.0
 11
38.7803022696125
 21
92.70119589966986
 31
0.0
  0
LINE
  5
32C20
330
2
100
AcDbEntity
  8
DETAIL
 62
     1
100
AcDbLine
 10
38.86918617331846
 20
92.67132316379631
 30
0.0
 11
38.81894101496962
 21
92.64231410809816
 31
0.0
  0
LINE
  5
32C21
330
2
100
AcDbEntity
  8
DETAIL
 62
     1
100
AcDbLine
 10
38.92659608916494
 20
92.70446879416443
 30
0.0
 11
38.87635093081611
 21
92.67545973846626
 31
0.0
  0
LINE
  5
32C22
330
2
100
AcDbEntity
  8
DETAIL
 62
     1
100
AcDbLine
 10
38.88795734380785
 20
92.76335058573616
 30
0.0
 11
38.837712185459
 21
92.73434153003796
 31
0.0
  0
LINE
  5
32C23
330
2
100
AcDbEntity
  8
DETAIL
 62
     1
100
AcDbLine
 10
38.8217296882347
 20
92.73862402726226
 30
0.0
 11
38.81456493073707
 21
92.73448745259228
 31
0.0
  0
LINE
  5
32C24
330
2
100
AcDbEntity
  8
DETAIL
 62
     1
100
AcDbLine
 10
38.8791396040812
 20
92.77176965763038
 30
0.0
 11
38.87197484658356
 21
92.76763308296043
 31
0.0
  0
LINE
  5
32C25
330
2
100
AcDbEntity
  8
DETAIL
 62
     1
100
AcDbLine
 10
38.76431977238823
 20
92.70547839689413
 30
0.0
 11
38.75715501489059
 21
92.70134182222419
 31
0.0
  0
LINE
  5
32C26
330
2
100
AcDbEntity
  8
DETAIL
 62
     1
100
AcDbLine
 10
38.75715501489059
 20
92.70134182222419
 30
0.0
 11
38.88516867054273
 21
92.66704066657204
 31
0.0
  0
LINE
  5
32C27
330
2
100
AcDbEntity
  8
DETAIL
 62
     1
100
AcDbLine
 10
38.76431977238823
 20
92.70547839689413
 30
0.0
 11
38.89233342804038
 21
92.67117724124201
 31
0.0
  0
LINE
  5
32C28
330
2
100
AcDbEntity
  8
DETAIL
 62
     1
100
AcDbLine
 10
38.81456493073707
 20
92.73448745259228
 30
0.0
 11
38.94257858638923
 21
92.70018629694016
 31
0.0
  0
LINE
  5
32C29
330
2
100
AcDbEntity
  8
DETAIL
 62
     1
100
AcDbLine
 10
38.8217296882347
 20
92.73862402726226
 30
0.0
 11
38.94974334388686
 21
92.70432287161007
 31
0.0
  0
LINE
  5
32C2A
330
2
100
AcDbEntity
  8
DETAIL
 62
     1
100
AcDbLine
 10
38.94974334388686
 20
92.70432287161007
 30
0.0
 11
38.94257858638923
 21
92.70018629694016
 31
0.0
  0
LINE
  5
32C2B
330
2
100
AcDbEntity
  8
DETAIL
 62
     1
100
AcDbLine
 10
38.89233342804038
 20
92.67117724124201
 30
0.0
 11
38.88516867054273
 21
92.66704066657204
 31
0.0
  0
LINE
  5
32C2C
330
2
100
AcDbEntity
  8
DETAIL
 62
     1
100
AcDbLine
 10
38.8349235121939
 20
92.63803161087386
 30
0.0
 11
38.82775875469626
 21
92.63389503620393
 31
0.0
  0
LINE
  5
32C2D
330
2
100
AcDbEntity
  8
DETAIL
 62
     1
100
AcDbLine
 10
38.7157275962684
 20
92.66391369463178
 30
0.0
 11
38.66548243791955
 21
92.6349046389336
 31
0.0
  0
LINE
  5
32C2E
330
2
100
AcDbEntity
  8
DETAIL
 62
     1
100
AcDbLine
 10
38.70690985654175
 20
92.67233276652605
 30
0.0
 11
38.69974509904412
 21
92.66819619185609
 31
0.0
  0
LINE
  5
32C2F
330
2
100
AcDbEntity
  8
DETAIL
 62
     1
100
AcDbLine
 10
38.81177625747199
 20
92.6381775334282
 30
0.0
 11
38.76153109912314
 21
92.60916847773005
 31
0.0
  0
LINE
  5
32C30
330
2
100
AcDbEntity
  8
DETAIL
 62
     1
100
AcDbLine
 10
38.77313751211487
 20
92.69705932499993
 30
0.0
 11
38.72289235376602
 21
92.66805026930176
 31
0.0
  0
LINE
  5
32C31
330
2
100
AcDbEntity
  8
DETAIL
 62
     1
100
AcDbLine
 10
38.70690985654175
 20
92.67233276652605
 30
0.0
 11
38.8349235121939
 21
92.63803161087386
 31
0.0
  0
LINE
  5
32C32
330
2
100
AcDbEntity
  8
DETAIL
 62
     1
100
AcDbLine
 10
38.69974509904412
 20
92.66819619185609
 30
0.0
 11
38.82775875469626
 21
92.63389503620393
 31
0.0
  0
LINE
  5
32C33
330
2
100
AcDbEntity
  8
DETAIL
 62
     1
100
AcDbLine
 10
38.98400600501143
 20
92.73761442453258
 30
0.0
 11
38.9337608466626
 21
92.70860536883438
 31
0.0
  0
LINE
  5
32C34
330
2
100
AcDbEntity
  8
DETAIL
 62
     1
100
AcDbLine
 10
38.8791396040812
 20
92.77176965763038
 30
0.0
 11
39.00715325973335
 21
92.73746850197822
 31
0.0
  0
LINE
  5
32C35
330
2
100
AcDbEntity
  8
DETAIL
 62
     1
100
AcDbLine
 10
38.87197484658356
 20
92.76763308296043
 30
0.0
 11
38.9999885022357
 21
92.73333192730827
 31
0.0
  0
LINE
  5
32C36
330
2
100
AcDbEntity
  8
DETAIL
100
AcDbLine
 10
38.6462536621304
 20
92.63400060822236
 30
0.0
 11
38.6564661991582
 21
92.62460639812458
 31
0.0
  0
LINE
  5
32C37
330
2
100
AcDbEntity
  8
DETAIL
100
AcDbLine
 10
38.69974509904412
 20
92.66819619185609
 30
0.0
 11
38.70876848280491
 21
92.65989584860042
 31
0.0
  0
LINE
  5
32C38
330
2
100
AcDbEntity
  8
DETAIL
100
AcDbLine
 10
38.75715501489059
 20
92.70134182222419
 30
0.0
 11
38.76617839865139
 21
92.69304147896852
 31
0.0
  0
LINE
  5
32C39
330
2
100
AcDbEntity
  8
DETAIL
100
AcDbLine
 10
38.81456493073707
 20
92.73448745259228
 30
0.0
 11
38.82358831449785
 21
92.72618710933665
 31
0.0
  0
LINE
  5
32C3A
330
2
100
AcDbEntity
  8
DETAIL
100
AcDbLine
 10
38.87197484658356
 20
92.76763308296043
 30
0.0
 11
38.88099823034436
 21
92.75933273970474
 31
0.0
  0
LINE
  5
32C3B
330
2
100
AcDbEntity
  8
DETAIL
100
AcDbLine
 10
38.92938476243004
 20
92.80077871332856
 30
0.0
 11
38.93840814619083
 21
92.79247837007288
 31
0.0
  0
LINE
  5
32C3C
330
2
100
AcDbEntity
  8
DETAIL
100
AcDbLine
 10
38.98679467827653
 20
92.8339243436967
 30
0.0
 11
38.99581806203731
 21
92.82562400044099
 31
0.0
  0
LINE
  5
32C63
330
2
100
AcDbEntity
  8
COVER-SKIN
100
AcDbLine
 10
16.41210575727371
 20
79.93634219207914
 30
-0.0000000000000166
 11
16.41210575727313
 21
74.67201212226957
 31
-0.0000000000000166
  0
ELLIPSE
  5
32C66
330
2
100
AcDbEntity
  8
COVER-SKIN
100
AcDbEllipse
 10
25.9576546006854
 20
10.72110340011525
 30
0.0000000000000213
 11
-14.06249999999999
 21
0.0000000000000531
 31
-0.0000000000000671
210
-0.0000000000000048
220
-0.0000000000000001
230
1.0
 40
0.5773502691896259
 41
0.0000000000000005
 42
0.7426041046129578
  0
LINE
  5
32C67
330
2
100
AcDbEntity
  8
COVER-SKIN
100
AcDbLine
 10
35.81256266086678
 20
91.54544949823408
 30
0.0000000000000782
 11
35.81256266086678
 21
91.58176111747524
 31
0.0000000000000853
210
0.0
220
0.8164965809277259
230
0.577350269189626
  0
LINE
  5
32C68
330
2
100
AcDbEntity
  8
COVER-SKIN
100
AcDbLine
 10
16.09516401903209
 20
80.1193285899704
 30
-0.0000000000000284
 11
16.41210575727371
 21
79.93634219207915
 31
-0.0000000000000142
210
0.0
220
0.8164965809277259
230
0.577350269189626
  0
ELLIPSE
  5
32C69
330
2
100
AcDbEntity
  8
COVER-SKIN
100
AcDbEllipse
 10
16.05096984520796
 20
80.09381307181644
 30
-0.0000000000000071
 11
-0.0624999999999563
 21
0.0000000000000002
 31
-0.0000000000000003
210
-0.0000000000000048
220
0.0000000000000001
230
1.0
 40
0.577350269189626
 41
3.926990816987013
 42
4.712388980384608
  0
LINE
  5
32C6A
330
2
100
AcDbEntity
  8
COVER-SKIN
100
AcDbLine
 10
16.05096984520796
 20
80.12989746364075
 30
-0.0000000000000071
 11
16.0398529710739
 21
80.12989746364075
 31
-0.0000000000000142
210
0.0
220
0.8164965809277259
230
0.577350269189626
  0
ELLIPSE
  5
32C6B
330
2
100
AcDbEntity
  8
COVER-SKIN
100
AcDbEllipse
 10
16.03985945737189
 20
80.20208522964123
 30
-0.0000000000000071
 11
-0.1250328785659295
 21
0.0000000000000004
 31
-0.0000000000000006
210
-0.0000000000000048
220
0.0000000000000002
230
1.0
 40
0.5773502691896258
 41
0.7918230984111423
 42
1.570744450056123
  0
ELLIPSE
  5
32C6C
330
2
100
AcDbEntity
  8
COVER-SKIN
100
AcDbEllipse
 10
25.95765460068565
 20
85.85571567684963
 30
0.0000000000000426
 11
14.06249999999999
 21
-0.0000000000000531
 31
0.0000000000000671
210
-0.0000000000000048
220
-0.0000000000000001
230
1.0
 40
0.5773502691896259
 41
0.79160969150613
 42
3.920741390871855
  0
ELLIPSE
  5
32C6D
330
2
100
AcDbEntity
  8
COVER-SKIN
100
AcDbEllipse
 10
35.75506266086676
 20
91.58296346126578
 30
0.0000000000000853
 11
0.1199999999999996
 21
-0.0000000000000004
 31
0.0000000000000006
210
-0.000000000000005
220
0.0
230
1.0
 40
0.5773502691896258
 41
0.0
 42
0.7916096915061658
  0
LINE
  5
32C6E
330
2
100
AcDbEntity
  8
COVER-SKIN
100
AcDbLine
 10
35.87506266086678
 20
91.58296346126578
 30
0.0000000000000924
 11
35.87506266086678
 21
91.5753427872014
 31
0.0000000000000782
210
0.0
220
0.8164965809277259
230
0.577350269189626
  0
ELLIPSE
  5
32C6F
330
2
100
AcDbEntity
  8
COVER-SKIN
100
AcDbEllipse
 10
35.93756266086674
 20
91.5753427872014
 30
0.0000000000000711
 11
-0.0624999999999564
 21
0.0000000000000002
 31
-0.0000000000000003
210
-0.0000000000000048
220
-0.0000000000000001
230
1.0
 40
0.577350269189626
 41
0.0000000000000002
 42
0.7853981633976758
  0
LINE
  5
32C70
330
2
100
AcDbEntity
  8
COVER-SKIN
100
AcDbLine
 10
36.16611605146005
 20
91.34132535300222
 30
0.0000000000000853
 11
35.84917431321843
 21
91.52431175089345
 31
0.0000000000000711
210
0.0
220
0.8164965809277259
230
0.577350269189626
  0
ELLIPSE
  5
32C71
330
2
100
AcDbEntity
  8
COVER-SKIN
100
AcDbEllipse
 10
35.93756266086679
 20
91.5753427872014
 30
0.0000000000000782
 11
-0.1250000000000005
 21
0.0000000000000004
 31
-0.0000000000000006
210
-0.0000000000000048
220
0.0000000000000001
230
1.0
 40
0.577350269189626
 41
0.0000000000000805
 42
0.7853981633972778
  0
ELLIPSE
  5
32C73
330
2
100
AcDbEntity
  8
COVER-SKIN
100
AcDbEllipse
 10
35.75006266086675
 20
91.58176111747533
 30
0.0000000000000639
 11
0.0625000000000247
 21
-0.0000000000000002
 31
0.0000000000000003
210
-0.0000000000000048
220
0.0
230
1.0
 40
0.5773502691896255
 41
-0.0000000000012862
 42
0.7791208376913815
  0
ELLIPSE
  5
32C74
330
2
100
AcDbEntity
  8
COVER-SKIN
100
AcDbEllipse
 10
25.95765460068565
 20
85.85571567684963
 30
0.0000000000000355
 11
-14.00000000000001
 21
0.0000000000000513
 31
-0.0000000000000676
210
-0.0000000000000048
220
0.0
230
1.0
 40
0.577350269189626
 41
3.933296166838036
 42
7.062278120725947
  0
ELLIPSE
  5
32C75
330
2
100
AcDbEntity
  8
COVER-SKIN
100
AcDbEllipse
 10
16.0398529710739
 20
80.20206624728951
 30
-0.0000000000000142
 11
0.0625000000000833
 21
-0.0000000000000002
 31
0.0000000000000003
210
-0.0000000000000048
220
-0.0000000000000002
230
1.0
 40
0.577350269189626
 41
3.933268142627478
 42
4.712388980384448
  0
LINE
  5
32C76
330
2
100
AcDbEntity
  8
COVER-SKIN
100
AcDbLine
 10
16.03985297107388
 20
80.16598185546511
 30
-0.0000000000000213
 11
16.05096984520796
 21
80.16598185546511
 31
-0.0000000000000213
210
0.0
220
0.8164965809277259
230
0.577350269189626
  0
ELLIPSE
  5
32C77
330
2
100
AcDbEntity
  8
COVER-SKIN
100
AcDbEllipse
 10
16.05096984520795
 20
80.09381307181639
 30
-0.0000000000000142
 11
0.1250000000000005
 21
-0.0000000000000004
 31
0.0000000000000006
210
-0.0000000000000048
220
0.0000000000000001
230
1.0
 40
0.577350269189626
 41
0.7853981633975619
 42
1.570796326794735
  0
LINE
  5
32C78
330
2
100
AcDbEntity
  8
COVER-SKIN
100
AcDbLine
 10
35.8933684870426
 20
91.54982726904741
 30
0.0000000000000782
 11
36.21031022528421
 21
91.36684087115616
 31
0.0000000000000782
210
0.0
220
0.8164965809277259
230
0.577350269189626
  0
LINE
  5
32C79
330
2
100
AcDbEntity
  8
COVER-SKIN
100
AcDbLine
 10
16.45629993109787
 20
79.96185771023317
 30
-0.0000000000000142
 11
16.13935819285625
 21
80.14484410812441
 31
-0.0000000000000071
210
0.0
220
0.8164965809277259
230
0.577350269189626
  0
LINE
  5
32C7A
330
2
100
AcDbEntity
  8
COVER-SKIN
100
AcDbLine
 10
16.45629993109787
 20
79.96185771023317
 30
-0.0000000000000142
 11
16.41210575727371
 21
79.93634219207915
 31
-0.0000000000000142
210
0.0
220
0.8164965809277259
230
0.577350269189626
  0
ELLIPSE
  5
32C7B
330
2
100
AcDbEntity
  8
COVER-SKIN
100
AcDbEllipse
 10
16.25363488815291
 20
79.61595087407227
 30
-0.0000000000000142
 11
-0.0468749999999997
 21
0.0811898816047913
 31
-0.0000000000000002
210
-0.0000000000000047
220
-0.0000000000000002
230
0.9999999999999998
 40
0.577350269189626
 41
0.0
 42
6.283185307179585
  0
ELLIPSE
  5
32C7C
330
2
100
AcDbEntity
  8
COVER-SKIN
100
AcDbEllipse
 10
16.29782906197706
 20
79.64146639222629
 30
-0.0000000000000213
 11
-0.0468749999999997
 21
0.0811898816047913
 31
-0.0000000000000002
210
-0.0000000000000047
220
-0.0000000000000002
230
0.9999999999999998
 40
0.577350269189626
 41
0.4908826782893023
 42
2.650709975300491
  0
ELLIPSE
  5
32C7D
330
2
100
AcDbEntity
  8
COVER-SKIN
100
AcDbEllipse
 10
16.25363488815289
 20
75.79754442584327
 30
-0.0000000000000142
 11
-0.0468749999999997
 21
0.0811898816047913
 31
-0.0000000000000002
210
-0.0000000000000047
220
-0.0000000000000002
230
0.9999999999999998
 40
0.577350269189626
 41
0.0
 42
6.283185307179585
  0
ELLIPSE
  5
32C7E
330
2
100
AcDbEntity
  8
COVER-SKIN
100
AcDbEllipse
 10
16.29782906197705
 20
75.82305994399724
 30
-0.0000000000000142
 11
-0.0468749999999997
 21
0.0811898816047913
 31
-0.0000000000000002
210
-0.0000000000000047
220
-0.0000000000000002
230
0.9999999999999998
 40
0.577350269189626
 41
0.490882678289208
 42
2.650709975300585
  0
LINE
  5
32C7F
330
2
100
AcDbEntity
  8
COVER-SKIN
100
AcDbLine
 10
11.89515460068538
 20
10.72110340011528
 30
-0.0000000000000497
 11
11.89515460068561
 21
76.14091146841031
 31
-0.0000000000000374
210
0.0
220
0.8164965809277259
230
0.577350269189626
  0
LINE
  5
32C80
330
2
100
AcDbEntity
  8
COVER-SKIN
100
AcDbLine
 10
11.89515460068561
 20
76.80227052894619
 30
-0.0000000000000372
 11
11.89515460068563
 21
85.85571567684969
 31
-0.0000000000000355
210
0.0
220
0.8164965809277259
230
0.577350269189626
  0
ELLIPSE
  5
32C82
330
2
100
AcDbEntity
  8
COVER-SKIN
100
AcDbEllipse
 10
16.57057662639442
 20
75.61455802795213
 30
-0.0000000000000166
 11
-0.0468749999999997
 21
0.0811898816047913
 31
-0.0000000000000002
210
-0.0000000000000047
220
-0.0000000000000002
230
0.9999999999999998
 40
0.577350269189626
 41
0.0
 42
6.283185307179585
  0
ELLIPSE
  5
32C83
330
2
100
AcDbEntity
  8
COVER-SKIN
100
AcDbEllipse
 10
16.61477080021858
 20
75.64007354610606
 30
-0.0000000000000166
 11
-0.0468749999999997
 21
0.0811898816047913
 31
-0.0000000000000002
210
-0.0000000000000047
220
-0.0000000000000002
230
0.9999999999999998
 40
0.577350269189626
 41
0.490882678289208
 42
2.650709975300585
  0
LINE
  5
32C85
330
2
100
AcDbEntity
  8
DIM
100
AcDbLine
 10
16.05096984520796
 20
80.12989746364073
 30
-0.0000000000000071
 11
16.05096984520796
 21
75.11347712801985
 31
-0.0000000000000071
  0
ELLIPSE
  5
32C86
330
2
100
AcDbEntity
  8
COVER-SKIN
100
AcDbEllipse
 10
16.25363488815289
 20
77.66031089169644
 30
-0.0000000000000142
 11
-0.0468749999999997
 21
0.0811898816047913
 31
-0.0000000000000002
210
-0.0000000000000047
220
-0.0000000000000002
230
0.9999999999999998
 40
0.577350269189626
 41
0.0
 42
6.283185307179585
  0
ELLIPSE
  5
32C87
330
2
100
AcDbEntity
  8
COVER-SKIN
100
AcDbEllipse
 10
16.29782906197705
 20
77.68582640985039
 30
-0.0000000000000142
 11
-0.0468749999999997
 21
0.0811898816047913
 31
-0.0000000000000002
210
-0.0000000000000047
220
-0.0000000000000002
230
0.9999999999999998
 40
0.577350269189626
 41
0.490882678289208
 42
2.650709975300585
  0
ELLIPSE
  5
32C88
330
2
100
AcDbEntity
  8
COVER-SKIN
100
AcDbEllipse
 10
16.57057662639442
 20
77.47732449380527
 30
-0.0000000000000166
 11
-0.0468749999999997
 21
0.0811898816047913
 31
-0.0000000000000002
210
-0.0000000000000047
220
-0.0000000000000002
230
0.9999999999999998
 40
0.577350269189626
 41
0.0
 42
6.283185307179585
  0
ELLIPSE
  5
32C89
330
2
100
AcDbEntity
  8
COVER-SKIN
100
AcDbEllipse
 10
16.61477080021858
 20
77.50284001195922
 30
-0.0000000000000166
 11
-0.0468749999999997
 21
0.0811898816047913
 31
-0.0000000000000002
210
-0.0000000000000047
220
-0.0000000000000002
230
0.9999999999999998
 40
0.577350269189626
 41
0.490882678289208
 42
2.650709975300585
  0
LINE
  5
32D81
330
2
100
AcDbEntity
  8
COLUMN
100
AcDbLine
 10
26.13874981851214
 20
88.57365936330515
 30
0.0000000000002338
 11
21.69332873028134
 21
91.14022442525646
 31
0.0000000000002785
210
0.0
220
0.8164965809277259
230
0.5773502691896259
  0
LINE
  5
32D82
330
2
100
AcDbEntity
  8
COLUMN
100
AcDbLine
 10
26.13874981851214
 20
77.36033249645354
 30
0.000000000000243
 11
26.13874981851214
 21
88.57365936330515
 31
0.0000000000002338
210
0.0
220
0.8164965809277259
230
0.5773502691896259
  0
LINE
  5
32D83
330
2
100
AcDbEntity
  8
COLUMN
100
AcDbLine
 10
25.46774286179793
 20
88.18625331621817
 30
0.0000000000002115
 11
26.13874981851214
 21
88.57365936330515
 31
0.0000000000002338
210
0.0
220
0.8164965809277259
230
0.5773502691896259
  0
LINE
  5
32D84
330
2
100
AcDbEntity
  8
COLUMN
100
AcDbLine
 10
25.46774286179793
 20
77.38473406001301
 30
0.0000000000002248
 11
25.46774286179793
 21
88.18625331621817
 31
0.0000000000002115
210
0.0
220
0.8164965809277259
230
0.5773502691896259
  0
LINE
  5
32D85
330
2
100
AcDbEntity
  8
COLUMN
100
AcDbLine
 10
14.57226740215327
 20
94.47675900579303
 30
0.0000000000002227
 11
25.46774286179793
 21
88.18625331621817
 31
0.0000000000002115
210
0.0
220
0.8164965809277259
230
0.5773502691896259
  0
LINE
  5
32D86
330
2
100
AcDbEntity
  8
COLUMN
100
AcDbLine
 10
14.57226740215327
 20
81.38214721476602
 30
0.0000000000002161
 11
14.57226740215327
 21
94.47675900579303
 31
0.0000000000002227
210
0.0
220
0.8164965809277259
230
0.5773502691896259
  0
LINE
  5
32D87
330
2
100
AcDbEntity
  8
COLUMN
100
AcDbLine
 10
15.24327435886748
 20
94.86416505288003
 30
0.0000000000002227
 11
14.57226740215327
 21
94.47675900579303
 31
0.0000000000002227
210
0.0
220
0.8164965809277259
230
0.5773502691896259
  0
LINE
  5
32D88
330
2
100
AcDbEntity
  8
COLUMN
100
AcDbLine
 10
19.68869544709828
 20
92.29759999092875
 30
0.0000000000004348
 11
15.24327435886748
 21
94.86416505288003
 31
0.0000000000002227
210
0.0
220
0.8164965809277259
230
0.5773502691896259
  0
ELLIPSE
  5
32D89
330
2
100
AcDbEntity
  8
COLUMN
100
AcDbEllipse
 10
20.48551620819612
 20
92.75764467184457
 30
0.0000000000004348
 11
-1.126874727125146
 21
0.0000000000000278
 31
0.0000000000000001
210
-0.0000000000000001
220
0.0000000000000001
230
-1.0
 40
0.5773502691896334
 41
3.926990816987211
 42
5.497787143782173
  0
LINE
  5
32D8A
330
2
100
AcDbEntity
  8
COLUMN
100
AcDbLine
 10
31.64939445052646
 20
98.28302341842269
 30
0.0000000000003678
 11
21.28233696929395
 21
92.29759999092875
 31
0.0000000000003567
210
0.0
220
0.8164965809277259
230
0.5773502691896259
  0
ELLIPSE
  5
32D8B
330
2
100
AcDbEntity
  8
COLUMN
100
AcDbEllipse
 10
30.85257368942862
 20
98.74306809933832
 30
0.0000000000003623
 11
1.126874727125162
 21
0.0000000000000281
 31
-0.0000000000000002
210
-0.0000000000000002
220
0.0000000000000002
230
-1.0
 40
0.5773502691896276
 41
-0.7853981633974768
 42
0.7853981633974705
  0
LINE
  5
32D8C
330
2
100
AcDbEntity
  8
COLUMN
100
AcDbLine
 10
31.64939445052646
 20
98.28302341842244
 30
0.0000000000003734
 11
31.64939445052646
 21
99.20311278025412
 31
0.0000000000003176
210
0.0
220
0.8164965809277259
230
0.5773502691896259
  0
LINE
  5
32D8D
330
2
100
AcDbEntity
  8
COLUMN
100
AcDbLine
 10
27.20397336229602
 20
101.7696778422053
 30
0.0000000000002394
 11
31.64939445052646
 21
99.20311278025412
 31
0.0000000000003176
210
0.0
220
0.8164965809277259
230
0.5773502691896259
  0
LINE
  5
32D8E
330
2
100
AcDbEntity
  8
COLUMN
100
AcDbLine
 10
27.20397336229602
 20
95.71645835647119
 30
0.0000000000003176
 11
27.20397336229602
 21
101.7696778422053
 31
0.0000000000002394
210
0.0
220
0.8164965809277259
230
0.5773502691896259
  0
LINE
  5
32D8F
330
2
100
AcDbEntity
  8
COLUMN
100
AcDbLine
 10
27.87498031900987
 20
102.1570838892924
 30
0.0000000000003064
 11
27.20397336229602
 21
101.7696778422053
 31
0.0000000000002394
210
0.0
220
0.8164965809277259
230
0.5773502691896259
  0
LINE
  5
32D90
330
2
100
AcDbEntity
  8
COLUMN
100
AcDbLine
 10
38.77045577865452
 20
95.86657819971753
 30
0.0000000000002953
 11
27.87498031900987
 21
102.1570838892924
 31
0.0000000000003064
210
0.0
220
0.8164965809277259
230
0.5773502691896259
  0
LINE
  5
32D91
330
2
100
AcDbEntity
  8
COLUMN
100
AcDbLine
 10
38.77045577865452
 20
81.35892915564188
 30
0.0000000000002967
 11
38.77045577865452
 21
95.86657819971753
 31
0.0000000000002953
210
0.0
220
0.8164965809277259
230
0.5773502691896259
  0
LINE
  5
32D92
330
2
100
AcDbEntity
  8
COLUMN
100
AcDbLine
 10
38.09944882194067
 20
95.47917215263053
 30
0.0000000000002953
 11
38.77045577865452
 21
95.86657819971753
 31
0.0000000000002953
210
0.0
220
0.8164965809277259
230
0.5773502691896259
  0
LINE
  5
32D93
330
2
100
AcDbEntity
  8
COLUMN
100
AcDbLine
 10
38.09944882194067
 20
80.75858397765669
 30
0.0000000000002909
 11
38.09944882194067
 21
95.47917215263053
 31
0.0000000000002953
210
0.0
220
0.8164965809277259
230
0.5773502691896259
  0
LINE
  5
32D94
330
2
100
AcDbEntity
  8
COLUMN
100
AcDbLine
 10
33.65402773370987
 20
98.04573721458176
 30
0.0000000000002841
 11
38.09944882194067
 21
95.47917215263053
 31
0.0000000000002953
210
0.0
220
0.8164965809277259
230
0.5773502691896259
  0
LINE
  5
32D95
330
2
100
AcDbEntity
  8
COLUMN
100
AcDbLine
 10
33.65402773370987
 20
78.42747164414885
 30
0.0000000000003269
 11
33.65402773370987
 21
98.0457372145819
 31
0.0000000000003232
210
0.0
220
0.8164965809277259
230
0.5773502691896259
  0
ELLIPSE
  5
32D96
330
2
100
AcDbEntity
  8
COLUMN
100
AcDbEllipse
 10
32.85720697261168
 20
97.58569253366594
 30
0.0000000000003623
 11
-1.126874727125162
 21
0.0000000000000193
 31
-0.0000000000000001
210
0.0000000000000001
220
0.0
230
-1.0
 40
0.5773502691896259
 41
0.7853981633974323
 42
2.356194490192331
  0
LINE
  5
32D97
330
2
100
AcDbEntity
  8
COLUMN
100
AcDbLine
 10
32.06038621151384
 20
77.97422895323737
 30
0.0000000000003563
 11
32.06038621151384
 21
98.04573721458179
 31
0.0000000000003678
210
0.0
220
0.8164965809277259
230
0.5773502691896259
  0
LINE
  5
32D98
330
2
100
AcDbEntity
  8
COLUMN
100
AcDbLine
 10
21.69332873028134
 20
92.06031378708798
 30
0.0000000000003567
 11
32.06038621151384
 21
98.04573721458179
 31
0.0000000000003678
210
0.0
220
0.8164965809277259
230
0.5773502691896259
  0
LINE
  5
32D99
330
2
100
AcDbEntity
  8
COLUMN
100
AcDbLine
 10
21.69332873028134
 20
91.14022442525635
 30
0.000000000000379
 11
21.69332873028134
 21
92.06031378708798
 31
0.0000000000003567
210
0.0
220
0.8164965809277259
230
0.5773502691896259
  0
ELLIPSE
  5
32D9A
330
2
100
AcDbEntity
  8
COLUMN
100
AcDbEllipse
 10
22.49014949137953
 20
91.60026910617217
 30
0.0000000000004348
 11
1.126874727125155
 21
0.0000000000000278
 31
-0.0000000000000001
210
-0.0000000000000001
220
0.0000000000000002
230
-1.0
 40
0.5773502691896324
 41
2.356194490192318
 42
3.92699081698726
  0
LINE
  5
32D9B
330
2
100
AcDbEntity
  8
STUD
 62
     1
100
AcDbLine
 10
33.78435027706601
 20
91.21621224200941
 30
-0.0000000000000948
 11
33.42408370909188
 21
91.42421224200923
 31
-0.0000000000000379
210
0.0
220
0.8164965809277259
230
0.5773502691896259
  0
LINE
  5
32D9C
330
2
100
AcDbEntity
  8
STUD
 62
     1
100
AcDbLine
 10
33.78435027706601
 20
78.47121300270984
 30
-0.000000000000106
 11
33.78435027706597
 21
91.21621224200938
 31
-0.0000000000000948
210
0.0
220
0.8164965809277259
230
0.5773502691896259
  0
LINE
  5
32D9D
330
2
100
AcDbEntity
  8
STUD
 62
     1
100
AcDbLine
 10
33.83890987750455
 20
91.24771224200943
 30
-0.0000000000000379
 11
33.78435027706601
 21
91.21621224200941
 31
-0.0000000000000948
210
0.0
220
0.8164965809277259
230
0.5773502691896259
  0
LINE
  5
32D9E
330
2
100
AcDbEntity
  8
STUD
 62
     1
100
AcDbLine
 10
33.83890987750455
 20
78.48984911303981
 30
-0.0000000000000323
 11
33.83890987750456
 21
91.24771224200943
 31
-0.0000000000000379
210
0.0
220
0.8164965809277259
230
0.5773502691896259
  0
LINE
  5
32D9F
330
2
100
AcDbEntity
  8
STUD
 62
     1
100
AcDbLine
 10
33.47864330952996
 20
91.45571224200908
 30
0.0000000000000473
 11
33.83890987750455
 21
91.24771224200943
 31
-0.0000000000000379
210
0.0
220
0.8164965809277259
230
0.5773502691896259
  0
ELLIPSE
  5
32DA0
330
2
100
AcDbEntity
  8
STUD
 62
     1
100
AcDbEllipse
 10
33.49682984301025
 20
91.46621224200917
 30
0.0000000000000757
 11
-0.0257196422993644
 21
0.0000000000000758
 31
0.0
210
0.0
220
0.0000000000000001
230
-1.0
 40
0.5773502691893292
 41
-0.7853981633847651
 42
0.7853981633962071
  0
LINE
  5
32DA1
330
2
100
AcDbEntity
  8
STUD
 62
     1
100
AcDbLine
 10
33.47864330953044
 20
91.45571224200908
 30
-0.0000000000000948
 11
33.47864330953044
 21
91.47671224200925
 31
-0.0000000000001232
210
0.0
220
0.8164965809277259
230
0.5773502691896259
  0
LINE
  5
32DA2
330
2
100
AcDbEntity
  8
STUD
 62
     1
100
AcDbLine
 10
34.63218914737162
 20
92.14271224200919
 30
-0.0000000000001232
 11
33.47864330953044
 21
91.47671224200925
 31
-0.0000000000001232
210
0.0
220
0.8164965809277259
230
0.5773502691896259
  0
ELLIPSE
  5
32DA3
330
2
100
AcDbEntity
  8
STUD
 62
     1
100
AcDbEllipse
 10
34.65037568085099
 20
92.13221224200934
 30
0.0000000000001894
 11
0.0257196422989753
 21
0.0000000000000053
 31
0.0
210
0.0
220
0.0000000000000001
230
-0.9999999999999998
 40
0.5773502691886971
 41
3.926990816991446
 42
5.497787143786766
  0
LINE
  5
32DA4
330
2
100
AcDbEntity
  8
STUD
 62
     1
100
AcDbLine
 10
37.55415885974016
 20
90.47671224200923
 30
-0.0000000000001516
 11
34.66856221433002
 21
92.14271224200926
 31
0.0000000000001042
210
0.0
220
0.8164965809277259
230
0.5773502691896259
  0
LINE
  5
32DA5
330
2
100
AcDbEntity
  8
STUD
 62
     1
100
AcDbLine
 10
37.55415885974016
 20
90.45571224200909
 30
-0.0000000000001801
 11
37.55415885974016
 21
90.47671224200923
 31
-0.0000000000001516
210
0.0
220
0.8164965809277259
230
0.5773502691896259
  0
ELLIPSE
  5
32DA6
330
2
100
AcDbEntity
  8
STUD
 62
     1
100
AcDbEllipse
 10
37.53597232626034
 20
90.46621224200938
 30
0.0000000000001042
 11
-0.0257196422995065
 21
0.0000000000000006
 31
0.0
210
0.0
220
0.0000000000000001
230
-1.0
 40
0.5773502691898609
 41
2.35619449018947
 42
3.926990816984618
  0
LINE
  5
32DA7
330
2
100
AcDbEntity
  8
STUD
 62
     1
100
AcDbLine
 10
36.40061302189896
 20
89.78971224200936
 30
-0.0000000000001516
 11
37.55415885974016
 21
90.45571224200909
 31
-0.0000000000001516
210
0.0
220
0.8164965809277259
230
0.5773502691896259
  0
ELLIPSE
  5
32DA8
330
2
100
AcDbEntity
  8
STUD
 62
     1
100
AcDbEllipse
 10
36.38242648842004
 20
89.80021224200923
 30
0.0000000000000757
 11
-0.025719642299072
 21
0.0000000000000764
 31
0.0
210
0.0
220
0.0000000000000001
230
-1.0
 40
0.5773502691898412
 41
3.926990816991026
 42
5.497787143784295
  0
LINE
  5
32DA9
330
2
100
AcDbEntity
  8
STUD
 62
     1
100
AcDbLine
 10
36.00397338696565
 20
89.99771224200943
 30
-0.0000000000000379
 11
36.36423995494023
 21
89.78971224200936
 31
0.0000000000000473
210
0.0
220
0.8164965809277259
230
0.5773502691896259
  0
LINE
  5
32DAA
330
2
100
AcDbEntity
  8
STUD
 62
     1
100
AcDbLine
 10
35.94941378652757
 20
89.96621224200939
 30
-0.0000000000000948
 11
36.00397338696565
 21
89.99771224200943
 31
-0.0000000000000379
210
0.0
220
0.8164965809277259
230
0.5773502691896259
  0
LINE
  5
32DAB
330
2
100
AcDbEntity
  8
STUD
 62
     1
100
AcDbLine
 10
36.30968035450168
 20
89.75821224200933
 30
-0.0000000000000948
 11
35.94941378652757
 21
89.96621224200939
 31
-0.0000000000000948
210
0.0
220
0.8164965809277259
230
0.5773502691896259
  0
LINE
  5
32DAC
330
2
100
AcDbEntity
  8
STUD
 62
     1
100
AcDbLine
 10
36.30968035450168
 20
79.56832817071033
 30
-0.0000000000001007
 11
36.30968035450168
 21
89.75821224200918
 31
-0.000000000000112
210
0.0
220
0.8164965809277259
230
0.5773502691896259
  0
ELLIPSE
  5
32DAD
330
2
100
AcDbEntity
  8
STUD
 62
     1
100
AcDbEllipse
 10
36.3824264884196
 20
89.80021224200923
 30
0.0000000000000189
 11
0.1028785691969741
 21
0.0000000000000047
 31
0.0
210
0.0
220
0.0000000000000002
230
-1.0
 40
0.5773502691895826
 41
0.7853981633975327
 42
2.356194490193093
  0
LINE
  5
32DAE
330
2
100
AcDbEntity
  8
STUD
 62
     1
100
AcDbLine
 10
36.45517262233751
 20
79.64903478573356
 30
0.0000000000000366
 11
36.45517262233752
 21
89.75821224200918
 31
0.0000000000000702
210
0.0
220
0.8164965809277259
230
0.5773502691896259
  0
LINE
  5
32DAF
330
2
100
AcDbEntity
  8
STUD
 62
     1
100
AcDbLine
 10
37.60871846017825
 20
90.42421224200923
 30
-0.0000000000001516
 11
36.45517262233751
 21
89.75821224200933
 31
-0.0000000000001232
210
0.0
220
0.8164965809277259
230
0.5773502691896259
  0
LINE
  5
32DB0
330
2
100
AcDbEntity
  8
STUD
 62
     1
100
AcDbLine
 10
37.60871846017871
 20
80.38307867512934
 30
-0.0000000000000379
 11
37.60871846017871
 21
90.4242122420095
 31
-0.0000000000000379
210
0.0
220
0.8164965809277259
230
0.5773502691896259
  0
ELLIPSE
  5
32DB1
330
2
100
AcDbEntity
  8
STUD
 62
     1
100
AcDbEllipse
 10
37.53597232626034
 20
90.46621224200938
 30
0.0000000000000757
 11
0.1028785691969745
 21
0.000000000000004
 31
0.0
210
0.0
220
0.0000000000000002
230
-1.0
 40
0.5773502691895743
 41
-0.7853981633980738
 42
0.7853981633975327
  0
LINE
  5
32DB2
330
2
100
AcDbEntity
  8
STUD
 62
     1
100
AcDbLine
 10
34.72312181476858
 20
92.17421224200931
 30
0.0000000000000757
 11
37.60871846017825
 21
90.50821224200928
 31
-0.0000000000001232
210
0.0
220
0.8164965809277259
230
0.5773502691896259
  0
ELLIPSE
  5
32DB3
330
2
100
AcDbEntity
  8
STUD
 62
     1
100
AcDbEllipse
 10
34.65037568085053
 20
92.13221224200934
 30
0.0000000000000757
 11
-0.1028785691969748
 21
0.000000000000004
 31
0.0
210
0.0
220
0.0000000000000002
230
-1.0
 40
0.5773502691895786
 41
0.7853981633967094
 42
2.356194490193623
  0
LINE
  5
32DB4
330
2
100
AcDbEntity
  8
STUD
 62
     1
100
AcDbLine
 10
33.42408370909188
 20
91.5082122420093
 30
-0.0000000000000379
 11
34.57762954693262
 21
92.17421224200924
 31
-0.0000000000000379
210
0.0
220
0.8164965809277259
230
0.5773502691896259
  0
LINE
  5
32DB5
330
2
100
AcDbEntity
  8
STUD
 62
     1
100
AcDbLine
 10
33.42408370909188
 20
78.35290055857903
 30
-0.0000000000000322
 11
33.42408370909188
 21
91.42421224200926
 31
-0.0000000000000379
210
0.0
220
0.8164965809277259
230
0.5773502691896259
  0
ELLIPSE
  5
32DB6
330
2
100
AcDbEntity
  8
STUD
 62
     1
100
AcDbEllipse
 10
33.49682984300979
 20
91.4662122420094
 30
0.0000000000000473
 11
0.1028785691969745
 21
0.000000000000004
 31
0.0
210
0.0
220
0.0000000000000002
230
-1.0
 40
0.5773502691895743
 41
2.356194490191719
 42
3.926990816987324
  0
LINE
  5
32DB7
330
2
100
AcDbEntity
  8
STUD
 62
     1
100
AcDbLine
 10
18.84333631934541
 20
80.09862054190781
 30
-0.0000000000000517
 11
19.20360288731953
 21
79.89062054190774
 31
-0.0000000000000517
210
0.0
220
0.8164965809277259
230
0.5773502691896259
  0
LINE
  5
32DB8
330
2
100
AcDbEntity
  8
STUD
 62
     1
100
AcDbLine
 10
18.78877671890685
 20
80.06712054190776
 30
0.0000000000000052
 11
18.84333631934541
 21
80.09862054190781
 31
-0.0000000000000517
210
0.0
220
0.8164965809277259
230
0.5773502691896259
  0
LINE
  5
32DB9
330
2
100
AcDbEntity
  8
STUD
 62
     1
100
AcDbLine
 10
18.78877671890685
 20
79.63012054190787
 30
-0.0000000000000517
 11
18.78877671890685
 21
80.06712054190776
 31
0.0000000000000052
210
0.0
220
0.8164965809277259
230
0.5773502691896259
  0
LINE
  5
32DBA
330
2
100
AcDbEntity
  8
STUD
 62
     1
100
AcDbLine
 10
19.14904328688143
 20
79.8591205419079
 30
0.0000000000000052
 11
18.78877671890685
 21
80.06712054190776
 31
0.0000000000000052
210
0.0
220
0.8164965809277259
230
0.5773502691896259
  0
LINE
  5
32DBB
330
2
100
AcDbEntity
  8
STUD
 62
     1
100
AcDbLine
 10
19.14904328688143
 20
79.83812054190773
 30
-0.0000000000000801
 11
19.14904328688143
 21
79.8591205419079
 31
0.0000000000000052
210
0.0
220
0.8164965809277259
230
0.5773502691896259
  0
ELLIPSE
  5
32DBC
330
2
100
AcDbEntity
  8
STUD
 62
     1
100
AcDbEllipse
 10
19.13085675340161
 20
79.84862054190782
 30
0.0000000000002325
 11
-0.0257196422993644
 21
0.0000000000000724
 31
0.0
210
0.0
220
0.0000000000000001
230
-1.0
 40
0.5773502691894178
 41
2.356194490197291
 42
3.926990816986076
  0
LINE
  5
32DBD
330
2
100
AcDbEntity
  8
STUD
 62
     1
100
AcDbLine
 10
17.99549744904024
 20
79.1721205419078
 30
0.0000000000000052
 11
19.14904328688143
 21
79.83812054190773
 31
0.0000000000000336
210
0.0
220
0.8164965809277259
230
0.5773502691896259
  0
ELLIPSE
  5
32DBE
330
2
100
AcDbEntity
  8
STUD
 62
     1
100
AcDbEllipse
 10
17.97731091556087
 20
79.18262054190766
 30
0.0000000000002894
 11
-0.0257196422989753
 21
0.000000000000004
 31
0.0
210
0.0
220
0.0
230
-0.9999999999999998
 40
0.5773502691886971
 41
3.92699081698811
 42
5.497787143783431
  0
LINE
  5
32DBF
330
2
100
AcDbEntity
  8
STUD
 62
     1
100
AcDbLine
 10
15.07352773667125
 20
80.83812054190772
 30
0.0000000000000052
 11
17.95912438208151
 21
79.1721205419078
 31
0.0000000000000904
210
0.0
220
0.8164965809277259
230
0.5773502691896259
  0
ELLIPSE
  5
32DC0
330
2
100
AcDbEntity
  8
STUD
 62
     1
100
AcDbEllipse
 10
15.09171427015107
 20
80.84862054190782
 30
0.0000000000002041
 11
0.0257196422995065
 21
0.0000000000000006
 31
0.0
210
0.0
220
0.0000000000000001
230
-1.0
 40
0.5773502691898935
 41
2.356194490200437
 42
3.926990816984646
  0
LINE
  5
32DC1
330
2
100
AcDbEntity
  8
STUD
 62
     1
100
AcDbLine
 10
15.07352773667125
 20
80.83812054190749
 30
-0.0000000000001085
 11
15.07352773667125
 21
80.8591205419079
 31
-0.0000000000000801
210
0.0
220
0.8164965809277259
230
0.5773502691896259
  0
LINE
  5
32DC2
330
2
100
AcDbEntity
  8
STUD
 62
     1
100
AcDbLine
 10
16.22707357451244
 20
81.52512054190784
 30
-0.0000000000000801
 11
15.07352773667125
 21
80.8591205419079
 31
-0.0000000000000801
210
0.0
220
0.8164965809277259
230
0.5773502691896259
  0
LINE
  5
32DC3
330
2
100
AcDbEntity
  8
STUD
 62
     1
100
AcDbLine
 10
16.22707357451244
 20
80.17212054190755
 30
0.0000000000000336
 11
16.22707357451244
 21
81.52512054190784
 31
-0.0000000000000801
210
0.0
220
0.8164965809277259
230
0.5773502691896259
  0
ELLIPSE
  5
32DC4
330
2
100
AcDbEntity
  8
STUD
 62
     1
100
AcDbEllipse
 10
16.24526010799181
 20
81.51462054190799
 30
0.0000000000002041
 11
-0.0257196422990835
 21
0.0000000000000758
 31
0.0
210
0.0
220
0.0000000000000002
230
-1.0
 40
0.5773502691895835
 41
0.7853981633985688
 42
2.356194490202665
  0
LINE
  5
32DC5
330
2
100
AcDbEntity
  8
STUD
 62
     1
100
AcDbLine
 10
16.26344664147117
 20
80.1511205419076
 30
-0.0000000000000517
 11
16.26344664147117
 21
81.52512054190763
 31
0.000000000000062
210
0.0
220
0.8164965809277259
230
0.5773502691896259
  0
LINE
  5
32DC6
330
2
100
AcDbEntity
  8
STUD
 62
     1
100
AcDbLine
 10
16.62371320944575
 20
81.31712054190776
 30
-0.0000000000000233
 11
16.26344664147117
 21
81.52512054190763
 31
0.000000000000062
210
0.0
220
0.8164965809277259
230
0.5773502691896259
  0
LINE
  5
32DC7
330
2
100
AcDbEntity
  8
STUD
 62
     1
100
AcDbLine
 10
16.62371320944575
 20
79.94312054190775
 30
0.0000000000000052
 11
16.62371320944575
 21
81.31712054190776
 31
-0.0000000000000233
210
0.0
220
0.8164965809277259
230
0.5773502691896259
  0
LINE
  5
32DC8
330
2
100
AcDbEntity
  8
STUD
 62
     1
100
AcDbLine
 10
16.6782728098843
 20
81.34862054190781
 30
-0.0000000000000517
 11
16.62371320944575
 21
81.31712054190776
 31
-0.0000000000000233
210
0.0
220
0.8164965809277259
230
0.5773502691896259
  0
LINE
  5
32DC9
330
2
100
AcDbEntity
  8
STUD
 62
     1
100
AcDbLine
 10
16.6782728098843
 20
79.9116205419077
 30
-0.0000000000001654
 11
16.6782728098843
 21
81.34862054190781
 31
-0.0000000000000517
210
0.0
220
0.8164965809277259
230
0.5773502691896259
  0
LINE
  5
32DCA
330
2
100
AcDbEntity
  8
STUD
 62
     1
100
AcDbLine
 10
16.31800624190972
 20
81.55662054190768
 30
-0.0000000000000517
 11
16.6782728098843
 21
81.34862054190781
 31
-0.0000000000000517
210
0.0
220
0.8164965809277259
230
0.5773502691896259
  0
ELLIPSE
  5
32DCB
330
2
100
AcDbEntity
  8
STUD
 62
     1
100
AcDbEllipse
 10
16.24526010799226
 20
81.51462054190753
 30
0.0000000000000904
 11
0.1028785691969734
 21
0.000000000000004
 31
0.0
210
0.0
220
0.0000000000000002
230
-1.0
 40
0.5773502691895867
 41
3.926990816987314
 42
5.497787143781523
  0
LINE
  5
32DCC
330
2
100
AcDbEntity
  8
STUD
 62
     1
100
AcDbLine
 10
15.01896813623315
 20
80.89062054190774
 30
-0.0000000000001085
 11
16.17251397407389
 21
81.55662054190768
 31
-0.0000000000000233
210
0.0
220
0.8164965809277259
230
0.5773502691896259
  0
ELLIPSE
  5
32DCD
330
2
100
AcDbEntity
  8
STUD
 62
     1
100
AcDbEllipse
 10
15.09171427015107
 20
80.84862054190782
 30
0.0000000000001188
 11
0.1028785691969744
 21
0.0000000000000006
 31
0.0
210
0.0
220
0.0000000000000002
230
-0.9999999999999998
 40
0.5773502691896045
 41
2.796314981089951
 42
3.926990816987892
  0
LINE
  5
32DCF
330
2
100
AcDbEntity
  8
STUD
 62
     1
100
AcDbLine
 10
17.90456478164295
 20
79.14062054190774
 30
0.0000000000000052
 11
15.05017412170702
 21
80.78860375779424
 31
-0.0000000000000511
210
0.0
220
0.8164965809277259
230
0.5773502691896259
  0
ELLIPSE
  5
32DD1
330
2
100
AcDbEntity
  8
STUD
 62
     1
100
AcDbEllipse
 10
17.97731091556087
 20
79.18262054190766
 30
0.0000000000001757
 11
0.1028785691969795
 21
0.0
 31
0.0
210
0.0
220
0.0000000000000002
230
-1.0
 40
0.5773502691895524
 41
0.7853981633967777
 42
2.139291960082537
  0
LINE
  5
32DD2
330
2
100
AcDbEntity
  8
STUD
 62
     1
100
AcDbLine
 10
18.05005704947879
 20
79.07391968268426
 30
-0.0000000000002222
 11
18.05005704947879
 21
79.14062054190774
 31
-0.0000000000002222
210
0.0
220
0.8164965809277259
230
0.5773502691896259
  0
LINE
  5
32DD3
330
2
100
AcDbEntity
  8
STUD
 62
     1
100
AcDbLine
 10
19.20360288731953
 20
79.80662054190791
 30
-0.000000000000137
 11
18.05005704947879
 21
79.14062054190774
 31
-0.0000000000002222
210
0.0
220
0.8164965809277259
230
0.5773502691896259
  0
LINE
  5
32DD4
330
2
100
AcDbEntity
  8
STUD
 62
     1
100
AcDbLine
 10
19.20360288732293
 20
79.46509393998922
 30
-0.0000000000012815
 11
19.20360288732294
 21
79.80662054190982
 31
-0.0000000000012843
210
0.0
220
0.8164965809277259
230
0.5773502691896259
  0
ELLIPSE
  5
32DD5
330
2
100
AcDbEntity
  8
STUD
 62
     1
100
AcDbEllipse
 10
19.13085675340161
 20
79.84862054190782
 30
0.0000000000001473
 11
0.1028785691969745
 21
0.000000000000004
 31
0.0
210
0.0
220
0.0000000000000002
230
-1.0
 40
0.5773502691895743
 41
-0.7853981633980738
 42
0.7853981633975327
  0
LINE
  5
32DD6
330
2
100
AcDbEntity
  8
STUD
 62
     1
100
AcDbLine
 10
37.63885089545728
 20
90.46621224200917
 30
0.0000000000000473
 11
37.63885089545728
 21
80.40486865368732
 31
0.0000000000000491
210
0.0
220
0.8164965809277259
230
0.5773502691896259
  0
LINE
  5
32DD8
330
2
100
AcDbEntity
  8
STUD
 62
     1
100
AcDbLine
 10
14.98883570095409
 20
80.84862054190836
 30
0.0000000000001188
 11
14.98883570095409
 21
80.8329338465325
 31
0.0000000000001188
210
0.0
220
0.8164965809277259
230
0.5773502691896259
  0
LINE
  5
32DD9
330
2
100
AcDbEntity
  8
STUD
 62
     1
100
AcDbLine
 10
19.23373532259856
 20
79.84862054190782
 30
-0.0000000000002051
 11
19.23373532259856
 21
79.48249090960693
 31
-0.0000000000002046
210
0.0
220
0.8164965809277259
230
0.5773502691896259
  0
LINE
  5
32DDA
330
2
100
AcDbEntity
  8
STUD
 62
     1
100
AcDbLine
 10
35.94941378652757
 20
79.37811433454761
 30
-0.0000000000001041
 11
35.94941378652754
 21
89.96621224200939
 31
-0.0000000000000948
210
0.0
220
0.8164965809277259
230
0.5773502691896259
  0
LINE
  5
32DDB
330
2
100
AcDbEntity
  8
STUD
 62
     1
100
AcDbLine
 10
34.63218914737162
 20
78.78351768303938
 30
-0.000000000000138
 11
34.63218914737164
 21
92.14271224200919
 31
-0.0000000000001232
210
0.0
220
0.8164965809277259
230
0.5773502691896259
  0
LINE
  5
32DDC
330
2
100
AcDbEntity
  8
STUD
 62
     1
100
AcDbLine
 10
34.6685622143299
 20
78.79805176967931
 30
0.0000000000000041
 11
34.66856221432989
 21
92.14271224200931
 31
0.0000000000000189
210
0.0
220
0.8164965809277259
230
0.5773502691896259
  0
LINE
  5
32DEE
330
2
100
AcDbEntity
  8
DETAIL
100
AcDbLine
 10
20.06224829320354
 20
78.335833096213
 30
-0.0000000000004281
 11
21.49329819376321
 21
79.16205014152557
 31
-0.0000000000010892
210
0.0
220
0.8164965809277259
230
0.577350269189626
  0
LINE
  5
32DEF
330
2
100
AcDbEntity
  8
DETAIL
100
AcDbLine
 10
18.62273936342155
 20
79.00473222810221
 30
-0.0000000000001921
 11
21.49329819376321
 21
80.66205014152579
 31
-0.0000000000009369
210
0.0
220
0.8164965809277259
230
0.577350269189626
  0
LINE
  5
32DF0
330
2
100
AcDbEntity
  8
DETAIL
100
AcDbLine
 10
21.27679184281719
 20
80.66205014152579
 30
-0.0000000000010783
 11
18.51448618794847
 21
79.06723222810224
 31
-0.0000000000001879
210
0.0
220
0.8164965809277259
230
0.577350269189626
  0
LINE
  5
32DF1
330
2
100
AcDbEntity
  8
DETAIL
100
AcDbLine
 10
20.51901961450589
 20
81.09955014152557
 30
-0.000000000000557
 11
21.27679184281719
 21
80.66205014152579
 31
-0.0000000000010783
210
0.0
220
0.8164965809277259
230
0.577350269189626
  0
LINE
  5
32DF2
330
2
100
AcDbEntity
  8
DETAIL
100
AcDbLine
 10
20.51901961450589
 20
80.22455014152534
 30
-0.0000000000008784
 11
20.51901961450589
 21
81.09955014152557
 31
-0.000000000000557
210
0.0
220
0.8164965809277259
230
0.577350269189626
  0
LINE
  5
32DF3
330
2
100
AcDbEntity
  8
DETAIL
100
AcDbLine
 10
20.62727278997867
 20
81.16205014152557
 30
-0.0000000000008842
 11
20.51901961450589
 21
81.09955014152557
 31
-0.000000000000557
210
0.0
220
0.8164965809277259
230
0.577350269189626
  0
LINE
  5
32DF4
330
2
100
AcDbEntity
  8
DETAIL
100
AcDbLine
 10
21.49329819376321
 20
79.16205014152557
 30
-0.0000000000010892
 11
21.49329819376321
 21
80.66205014152579
 31
-0.0000000000010893
210
0.0
220
0.8164965809277259
230
0.577350269189626
  0
LINE
  5
32DF5
330
2
100
AcDbEntity
  8
DETAIL
100
AcDbLine
 10
21.49329819376321
 20
80.66205014152579
 30
-0.0000000000010893
 11
20.62727278997867
 21
81.16205014152557
 31
-0.0000000000008842
210
0.0
220
0.8164965809277259
230
0.577350269189626
  0
LINE
  5
32DF6
330
2
100
AcDbEntity
  8
DIM
100
AcDbLine
 10
18.51448618794847
 20
79.06723222810224
 30
-0.0000000000001879
 11
18.62273936342155
 21
79.00473222810224
 31
-0.0000000000001879
  0
LINE
  5
32DF7
330
2
100
AcDbEntity
  8
DIM
100
AcDbLine
 10
18.62273936342156
 20
79.00473222810221
 30
-0.0000000000001879
 11
18.62273936342156
 21
78.82826414109556
 31
-0.0000000000001879
  0
LINE
  5
32DF8
330
2
100
AcDbEntity
  8
DIM
100
AcDbLine
 10
18.51448618794847
 20
79.06723222810224
 30
-0.0000000000001879
 11
18.51448618794847
 21
78.87271858948465
 31
-0.0000000000001879
  0
LINE
  5
32E04
330
2
100
AcDbEntity
  8
DETAIL
100
AcDbLine
 10
33.39395127381286
 20
89.50139540082334
 30
-0.0000000000008058
 11
32.02207544726828
 21
88.70934252307284
 31
-0.0000000000009728
210
0.0
220
0.8164965809277259
230
0.577350269189626
  0
LINE
  5
32E05
330
2
100
AcDbEntity
  8
DETAIL
100
AcDbLine
 10
33.39395127381287
 20
91.0013954008235
 30
-0.0000000000007079
 11
31.26430321895707
 21
89.77184252307329
 31
-0.0000000000007678
210
0.0
220
0.8164965809277259
230
0.577350269189626
  0
LINE
  5
32E06
330
2
100
AcDbEntity
  8
DETAIL
100
AcDbLine
 10
31.04779686801105
 20
89.77184252307358
 30
-0.0000000000003684
 11
33.39395127381286
 21
91.12639540082355
 31
-0.0000000000006489
210
0.0
220
0.8164965809277259
230
0.577350269189626
  0
LINE
  5
32E10
330
2
100
AcDbEntity
  8
STUD
 62
     1
100
AcDbLine
 10
33.39395127381286
 20
91.4662122420094
 30
-0.0000000000000379
 11
33.39395127381286
 21
78.34337079065836
 31
-0.0000000000000322
210
0.0
220
0.8164965809277259
230
0.5773502691896259
  0
LINE
  5
32E12
330
2
100
AcDbEntity
  8
DIM
100
AcDbLine
 10
31.26430321895707
 20
89.77184252307329
 30
-0.0000000000003778
 11
32.02207544726828
 21
89.33434252307341
 31
-0.0000000000003778
  0
LINE
  5
32E13
330
2
100
AcDbEntity
  8
DIM
100
AcDbLine
 10
31.04779686801105
 20
89.7718425230734
 30
-0.0000000000000507
 11
31.91382227179551
 21
89.27184252307339
 31
-0.0000000000000507
  0
LINE
  5
32E14
330
2
100
AcDbEntity
  8
DIM
100
AcDbLine
 10
31.91382227179551
 20
89.27184252307339
 30
-0.0000000000000507
 11
32.02207544726828
 21
89.33434252307341
 31
-0.0000000000003778
  0
LINE
  5
32E15
330
2
100
AcDbEntity
  8
DIM
100
AcDbLine
 10
31.04779686801105
 20
89.7718425230734
 30
-0.0000000000000507
 11
31.04779686801106
 21
88.14684252307293
 31
-0.0000000000000507
  0
LINE
  5
32E17
330
2
100
AcDbEntity
  8
DIM
100
AcDbLine
 10
31.04779686801105
 20
88.14684252307293
 30
-0.0000000000000507
 11
31.91382227179551
 21
87.64684252307294
 31
-0.0000000000000507
  0
LINE
  5
32E18
330
2
100
AcDbEntity
  8
DIM
100
AcDbLine
 10
31.91382227179551
 20
87.64684252307294
 30
-0.0000000000000507
 11
32.02207544726828
 21
87.7093425230729
 31
-0.0000000000003778
  0
LINE
  5
32E19
330
2
100
AcDbEntity
  8
DIM
100
AcDbLine
 10
31.91382227179551
 20
89.27184252307339
 30
-0.0000000000000507
 11
31.91382227179551
 21
87.64684252307294
 31
-0.0000000000000507
  0
LINE
  5
32E1A
330
2
100
AcDbEntity
  8
DIM
100
AcDbLine
 10
32.02207544726828
 20
89.33434252307341
 30
-0.0000000000003778
 11
32.02207544726829
 21
87.70934252307293
 31
-0.0000000000003778
  0
TEXT
  5
36F51
330
2
100
AcDbEntity
  8
DIM
100
AcDbText
 10
23.9583143071349
 20
81.57112338513943
 30
-0.0000000000010893
 40
0.625
  1
TIE BACK TYP
  7
STD
100
AcDbText
  0
TEXT
  5
36F52
330
2
100
AcDbEntity
  8
DIM
100
AcDbText
 10
23.92591321572971
 20
80.51837213457098
 30
-0.0000000000010893
 40
0.625
  1
(BY OTHERS)
  7
STD
100
AcDbText
  0
SOLID
  5
36F53
330
2
100
AcDbEntity
  8
DIM
100
AcDbTrace
 10
21.94052604481364
 20
80.360896377657
 30
-0.0000000000010893
 11
21.49329819376321
 21
79.91205014152568
 31
-0.0000000000010893
 12
21.77077981411968
 22
80.48168128955815
 32
-0.0000000000010893
 13
21.77077981411968
 23
80.48168128955815
 33
-0.0000000000010893
1001
ACAD
1000
DSTYLE
1002
{
1070
   147
1040
0.09
1070
    77
1070
     0
1002
}
  0
LWPOLYLINE
  5
36F54
330
2
100
AcDbEntity
  8
DIM
100
AcDbPolyline
 90
        3
 70
     0
 43
0.0
 10
21.85565292946666
 20
80.42128883360758
 10
22.90377815433817
 20
81.89428163889113
 10
23.52877815433817
 20
81.89428163889113
1001
ACAD
1000
DSTYLE
1002
{
1070
   147
1040
0.09
1070
    77
1070
     0
1002
}
  0
ELLIPSE
  5
36F55
330
2
100
AcDbEntity
  8
DETAIL
100
AcDbEllipse
 10
20.7880704381046
 20
80.62066987515764
 30
0.0
 11
-0.0765465544619636
 21
0.1325825214724796
 31
0.0
210
0.0
220
0.0
230
-1.0
 40
0.5773502691897212
 41
-0.0000000000001785
 42
6.283185307179406
  0
LINE
  5
36F56
330
2
100
AcDbEntity
  8
DETAIL
100
AcDbLine
 10
20.72420784567468
 20
80.59534579561088
 30
0.0
 11
20.77441018406671
 21
80.6243301291956
 31
0.0
  0
LINE
  5
36F57
330
2
100
AcDbEntity
  8
DETAIL
100
AcDbLine
 10
20.73425442214416
 20
80.5780521784724
 30
0.0
 11
20.78441018406676
 21
80.60700962111983
 31
0.0
  0
LINE
  5
36F58
330
2
100
AcDbEntity
  8
DETAIL
100
AcDbLine
 10
20.86273026074264
 20
80.51135526906447
 30
0.0
 11
20.80173069214237
 21
80.6170096211199
 31
0.0
  0
LINE
  5
36F59
330
2
100
AcDbEntity
  8
DETAIL
100
AcDbLine
 10
20.84527110645178
 20
80.50159541135348
 30
0.0
 11
20.7844101840669
 21
80.60700962112004
 31
0.0
  0
SPLINE
  5
36F5A
330
2
100
AcDbEntity
  8
DETAIL
100
AcDbSpline
210
0.0
220
0.0
230
1.0
 70
     8
 71
     3
 72
    10
 73
     6
 74
     0
 42
0.0000000001
 43
0.0000000001
 40
1.499570828598683
 40
1.499570828598683
 40
1.499570828598683
 40
1.499570828598683
 40
1.537702718488323
 40
1.537702718488323
 40
1.64130316471035
 40
1.64130316471035
 40
1.64130316471035
 40
1.64130316471035
 10
20.84196970241733
 20
80.66333563530113
 30
0.0
 10
20.84293737172124
 20
80.66182296224267
 30
0.0
 10
20.84388894479844
 20
80.66029787109968
 30
0.0
 10
20.84736176443477
 20
80.65458707424379
 30
0.0
 10
20.8497490297982
 20
80.65033177048865
 30
0.0
 10
20.85198351840594
 20
80.64602310389059
 30
0.0
  0
SPLINE
  5
36F5B
330
2
100
AcDbEntity
  8
DETAIL
100
AcDbSpline
210
0.0
220
0.0
230
1.0
 70
     8
 71
     3
 72
     8
 73
     4
 74
     0
 42
0.0000000001
 43
0.0000000001
 40
2.966811343357046
 40
2.966811343357046
 40
2.966811343357046
 40
2.966811343357046
 40
3.322732157867096
 40
3.322732157867096
 40
3.322732157867096
 40
3.322732157867096
 10
20.86273026074264
 20
80.51135526906447
 30
0.0
 10
20.85797383145375
 20
80.50613241817281
 30
0.0
 10
20.85208875951101
 20
80.50300743938306
 30
0.0
 10
20.84527110645184
 20
80.50159541135338
 30
0.0
  0
SPLINE
  5
36F5C
330
2
100
AcDbEntity
  8
DETAIL
100
AcDbSpline
210
0.0
220
0.0
230
1.0
 70
     8
 71
     3
 72
     8
 73
     4
 74
     0
 42
0.0000000001
 43
0.0000000001
 40
4.641467157854078
 40
4.641467157854078
 40
4.641467157854078
 40
4.641467157854078
 40
4.783531638960901
 40
4.783531638960901
 40
4.783531638960901
 40
4.783531638960901
 10
20.73425442214376
 20
80.57805217847308
 30
0.0
 10
20.73067989811609
 20
80.58366782876147
 30
0.0
 10
20.72731606110259
 20
80.58945157034203
 30
0.0
 10
20.72420784567764
 20
80.59534579561256
 30
0.0
  0
SPLINE
  5
36F5D
330
2
100
AcDbEntity
  8
DETAIL
100
AcDbSpline
210
0.0
220
0.0
230
1.0
 70
     8
 71
     3
 72
    11
 73
     7
 74
     0
 42
0.0000000001
 43
0.0000000001
 40
6.100591545094677
 40
6.100591545094677
 40
6.100591545094677
 40
6.100591545094677
 40
6.283185307179585
 40
6.283185307179585
 40
6.283185307179585
 40
6.464971274626718
 40
6.464971274626718
 40
6.464971274626718
 40
6.464971274626718
 10
20.71370778812978
 20
80.7294697631004
 30
0.0
 10
20.71614534938204
 20
80.73220134657786
 30
0.0
 10
20.71878443142925
 20
80.73435026508164
 30
0.0
 10
20.72152388364281
 20
80.73593188855459
 30
0.0
 10
20.72425121652238
 20
80.73750651492677
 30
0.0
 10
20.72745843593429
 20
80.73868162759822
 30
0.0
 10
20.73107648703361
 20
80.73938629413712
 30
0.0
  0
LINE
  5
36F5E
330
2
100
AcDbEntity
  8
DETAIL
100
AcDbLine
 10
20.79173069214238
 20
80.63433012919558
 30
0.0
 11
20.84196970241716
 21
80.66333563530141
 31
0.0
  0
LINE
  5
36F5F
330
2
100
AcDbEntity
  8
DETAIL
100
AcDbLine
 10
20.79173069214238
 20
80.63433012919558
 30
0.0
 11
20.73107648703336
 21
80.73938629413708
 31
0.0
  0
LINE
  5
36F60
330
2
100
AcDbEntity
  8
DETAIL
100
AcDbLine
 10
20.77441018406696
 20
80.6243301291956
 30
0.0
 11
20.71370778812945
 21
80.72946976310008
 31
0.0
  0
LINE
  5
36F61
330
2
100
AcDbEntity
  8
DETAIL
100
AcDbLine
 10
20.80173069214263
 20
80.61700962111993
 30
0.0
 11
20.85198351840634
 21
80.64602310389082
 31
0.0
  0
ELLIPSE
  5
36F62
330
2
100
AcDbEntity
  8
DETAIL
100
AcDbEllipse
 10
20.8075075142305
 20
80.63189187629118
 30
0.0
 11
-0.0765465544619708
 21
0.1325825214724753
 31
0.0
210
0.0
220
0.0
230
-0.9999999999999998
 40
0.5773502691897413
 41
-0.0000000000000839
 42
3.141592653589708
  0
LINE
  5
36F63
330
2
100
AcDbEntity
  8
DETAIL
100
AcDbLine
 10
20.71152388364263
 20
80.75325239663014
 30
0.0
 11
20.73096095976852
 21
80.76447439776369
 31
0.0
  0
LINE
  5
36F64
330
2
100
AcDbEntity
  8
DETAIL
100
AcDbLine
 10
20.86461699256657
 20
80.48808735368519
 30
0.0
 11
20.88405406869247
 21
80.49930935481873
 31
0.0
  0
ELLIPSE
  5
36F65
330
2
100
AcDbEntity
  8
DETAIL
100
AcDbEllipse
 10
19.03425236914139
 20
78.93372795267172
 30
0.0
 11
0.0765465544619785
 21
0.1325825214724752
 31
0.0
210
0.0
220
0.0
230
1.0
 40
0.5773502691897235
 41
0.0
 42
6.283185307179585
  0
LINE
  5
36F66
330
2
100
AcDbEntity
  8
DETAIL
100
AcDbLine
 10
19.0981149615713
 20
78.90840387312493
 30
0.0
 11
19.04791262317928
 21
78.93738820670965
 31
0.0
  0
LINE
  5
36F67
330
2
100
AcDbEntity
  8
DETAIL
100
AcDbLine
 10
19.08806838510183
 20
78.89111025598644
 30
0.0
 11
19.03791262317923
 21
78.92006769863389
 31
0.0
  0
LINE
  5
36F68
330
2
100
AcDbEntity
  8
DETAIL
100
AcDbLine
 10
18.95959254650335
 20
78.82441334657855
 30
0.0
 11
19.02059211510362
 21
78.93006769863396
 31
0.0
  0
LINE
  5
36F69
330
2
100
AcDbEntity
  8
DETAIL
100
AcDbLine
 10
18.97705170079421
 20
78.81465348886753
 30
0.0
 11
19.03791262317909
 21
78.92006769863408
 31
0.0
  0
SPLINE
  5
36F6A
330
2
100
AcDbEntity
  8
DETAIL
100
AcDbSpline
210
0.0
220
0.0
230
1.0
 70
     8
 71
     3
 72
    10
 73
     6
 74
     0
 42
0.0000000001
 43
0.0000000001
 40
1.499570828598683
 40
1.499570828598683
 40
1.499570828598683
 40
1.499570828598683
 40
1.537702718488323
 40
1.537702718488323
 40
1.64130316471035
 40
1.64130316471035
 40
1.64130316471035
 40
1.64130316471035
 10
18.98035310482866
 20
78.9763937128152
 30
0.0
 10
18.97938543552475
 20
78.97488103975674
 30
0.0
 10
18.97843386244754
 20
78.97335594861374
 30
0.0
 10
18.97496104281121
 20
78.96764515175783
 30
0.0
 10
18.97257377744779
 20
78.9633898480027
 30
0.0
 10
18.97033928884004
 20
78.95908118140465
 30
0.0
  0
SPLINE
  5
36F6B
330
2
100
AcDbEntity
  8
DETAIL
100
AcDbSpline
210
0.0
220
0.0
230
1.0
 70
     8
 71
     3
 72
     8
 73
     4
 74
     0
 42
0.0000000001
 43
0.0000000001
 40
2.966811343357046
 40
2.966811343357046
 40
2.966811343357046
 40
2.966811343357046
 40
3.322732157867096
 40
3.322732157867096
 40
3.322732157867096
 40
3.322732157867096
 10
18.95959254650335
 20
78.82441334657855
 30
0.0
 10
18.96434897579224
 20
78.81919049568685
 30
0.0
 10
18.97023404773498
 20
78.8160655168971
 30
0.0
 10
18.97705170079415
 20
78.81465348886743
 30
0.0
  0
SPLINE
  5
36F6C
330
2
100
AcDbEntity
  8
DETAIL
100
AcDbSpline
210
0.0
220
0.0
230
1.0
 70
     8
 71
     3
 72
     8
 73
     4
 74
     0
 42
0.0000000001
 43
0.0000000001
 40
4.641467157854078
 40
4.641467157854078
 40
4.641467157854078
 40
4.641467157854078
 40
4.783531638960901
 40
4.783531638960901
 40
4.783531638960901
 40
4.783531638960901
 10
19.08806838510223
 20
78.89111025598714
 30
0.0
 10
19.0916429091299
 20
78.89672590627554
 30
0.0
 10
19.09500674614339
 20
78.90250964785609
 30
0.0
 10
19.09811496156835
 20
78.90840387312664
 30
0.0
  0
SPLINE
  5
36F6D
330
2
100
AcDbEntity
  8
DETAIL
100
AcDbSpline
210
0.0
220
0.0
230
1.0
 70
     8
 71
     3
 72
    11
 73
     7
 74
     0
 42
0.0000000001
 43
0.0000000001
 40
6.100591545094677
 40
6.100591545094677
 40
6.100591545094677
 40
6.100591545094677
 40
6.283185307179585
 40
6.283185307179585
 40
6.283185307179585
 40
6.464971274626718
 40
6.464971274626718
 40
6.464971274626718
 40
6.464971274626718
 10
19.1086150191162
 20
79.04252784061447
 30
0.0
 10
19.10617745786394
 20
79.04525942409193
 30
0.0
 10
19.10353837581673
 20
79.0474083425957
 30
0.0
 10
19.10079892360318
 20
79.04898996606862
 30
0.0
 10
19.0980715907236
 20
79.05056459244082
 30
0.0
 10
19.09486437131169
 20
79.05173970511228
 30
0.0
 10
19.09124632021237
 20
79.05244437165119
 30
0.0
  0
LINE
  5
36F6E
330
2
100
AcDbEntity
  8
DETAIL
100
AcDbLine
 10
19.03059211510361
 20
78.94738820670965
 30
0.0
 11
18.98035310482882
 21
78.97639371281548
 31
0.0
  0
LINE
  5
36F6F
330
2
100
AcDbEntity
  8
DETAIL
100
AcDbLine
 10
19.03059211510361
 20
78.94738820670965
 30
0.0
 11
19.09124632021263
 21
79.05244437165115
 31
0.0
  0
LINE
  5
36F70
330
2
100
AcDbEntity
  8
DETAIL
100
AcDbLine
 10
19.04791262317903
 20
78.93738820670967
 30
0.0
 11
19.10861501911654
 21
79.04252784061414
 31
0.0
  0
LINE
  5
36F71
330
2
100
AcDbEntity
  8
DETAIL
100
AcDbLine
 10
19.02059211510336
 20
78.93006769863399
 30
0.0
 11
18.97033928883965
 21
78.95908118140488
 31
0.0
  0
ELLIPSE
  5
36F72
330
2
100
AcDbEntity
  8
DETAIL
100
AcDbEllipse
 10
19.01481529301548
 20
78.94494995380526
 30
0.0
 11
0.0765465544619785
 21
0.1325825214724752
 31
0.0
210
0.0
220
0.0
230
1.0
 40
0.5773502691897235
 41
0.0
 42
3.141592653589792
  0
LINE
  5
36F73
330
2
100
AcDbEntity
  8
DETAIL
100
AcDbLine
 10
19.11079892360335
 20
79.06631047414419
 30
0.0
 11
19.09136184747747
 21
79.07753247527773
 31
0.0
  0
LINE
  5
36F74
330
2
100
AcDbEntity
  8
DETAIL
100
AcDbLine
 10
18.95770581467942
 20
78.80114543119923
 30
0.0
 11
18.93826873855352
 21
78.81236743233279
 31
0.0
  0
TEXT
  5
36F75
330
2
100
AcDbEntity
  8
DIM
100
AcDbText
 10
0.7082523980794587
 20
97.05039627324136
 30
0.0000000000002194
 40
0.625
  1
EXISTING STRUCTURAL
  7
STD
100
AcDbText
  0
TEXT
  5
36F76
330
2
100
AcDbEntity
  8
DIM
100
AcDbText
 10
1.242870406264998
 20
95.99764502267289
 30
0.0000000000002194
 40
0.625
  1
COLUMN (BY OTHERS)
  7
STD
100
AcDbText
  0
SOLID
  5
36F77
330
2
100
AcDbEntity
  8
DIM
100
AcDbTrace
 10
14.3354574247099
 20
93.64993986233198
 30
0.0000000000002194
 11
14.57226740215327
 21
93.06223523496573
 31
0.0000000000002194
 12
14.15765105785832
 22
93.54136880870891
 32
0.0000000000002194
 13
14.15765105785832
 23
93.54136880870891
 33
0.0000000000002194
1001
ACAD
1000
DSTYLE
1002
{
1070
   147
1040
0.09
1070
    77
1070
     0
1002
}
  0
LWPOLYLINE
  5
36F78
330
2
100
AcDbEntity
  8
DIM
100
AcDbPolyline
 90
        3
 70
     0
 43
0.0
 10
14.24655424128411
 20
93.59565433552043
 10
11.93971556315449
 20
97.37355452699304
 10
11.31471556315449
 20
97.37355452699304
1001
ACAD
1000
DSTYLE
1002
{
1070
   147
1040
0.09
1070
    77
1070
     0
1002
}
  0
ELLIPSE
  5
36F79
330
2
100
AcDbEntity
  8
DETAIL
100
AcDbEllipse
 10
16.62019750642304
 20
79.41428945310303
 30
0.0
 11
-0.0765465544619636
 21
0.1325825214724796
 31
0.0
210
0.0
220
0.0
230
-1.0
 40
0.5773502691897212
 41
-0.0000000000001785
 42
6.283185307179406
  0
LINE
  5
36F7A
330
2
100
AcDbEntity
  8
DETAIL
100
AcDbLine
 10
16.55633491399312
 20
79.38896537355623
 30
0.0
 11
16.60653725238515
 21
79.41794970714095
 31
0.0
  0
LINE
  5
36F7B
330
2
100
AcDbEntity
  8
DETAIL
100
AcDbLine
 10
16.5663814904626
 20
79.37167175641775
 30
0.0
 11
16.6165372523852
 21
79.4006291990652
 31
0.0
  0
LINE
  5
36F7C
330
2
100
AcDbEntity
  8
DETAIL
100
AcDbLine
 10
16.69485732906108
 20
79.30497484700983
 30
0.0
 11
16.63385776046081
 21
79.41062919906527
 31
0.0
  0
LINE
  5
36F7D
330
2
100
AcDbEntity
  8
DETAIL
100
AcDbLine
 10
16.67739817477022
 20
79.29521498929883
 30
0.0
 11
16.61653725238534
 21
79.40062919906539
 31
0.0
  0
SPLINE
  5
36F7E
330
2
100
AcDbEntity
  8
DETAIL
100
AcDbSpline
210
0.0
220
0.0
230
1.0
 70
     8
 71
     3
 72
    10
 73
     6
 74
     0
 42
0.0000000001
 43
0.0000000001
 40
1.499570828598683
 40
1.499570828598683
 40
1.499570828598683
 40
1.499570828598683
 40
1.537702718488323
 40
1.537702718488323
 40
1.64130316471035
 40
1.64130316471035
 40
1.64130316471035
 40
1.64130316471035
 10
16.67409677073577
 20
79.45695521324648
 30
0.0
 10
16.67506444003968
 20
79.45544254018803
 30
0.0
 10
16.67601601311688
 20
79.45391744904505
 30
0.0
 10
16.67948883275322
 20
79.44820665218914
 30
0.0
 10
16.68187609811664
 20
79.443951348434
 30
0.0
 10
16.68411058672438
 20
79.43964268183596
 30
0.0
  0
SPLINE
  5
36F7F
330
2
100
AcDbEntity
  8
DETAIL
100
AcDbSpline
210
0.0
220
0.0
230
1.0
 70
     8
 71
     3
 72
     8
 73
     4
 74
     0
 42
0.0000000001
 43
0.0000000001
 40
2.966811343357046
 40
2.966811343357046
 40
2.966811343357046
 40
2.966811343357046
 40
3.322732157867096
 40
3.322732157867096
 40
3.322732157867096
 40
3.322732157867096
 10
16.69485732906108
 20
79.30497484700983
 30
0.0
 10
16.69010089977219
 20
79.29975199611816
 30
0.0
 10
16.68421582782945
 20
79.29662701732839
 30
0.0
 10
16.67739817477028
 20
79.29521498929871
 30
0.0
  0
SPLINE
  5
36F80
330
2
100
AcDbEntity
  8
DETAIL
100
AcDbSpline
210
0.0
220
0.0
230
1.0
 70
     8
 71
     3
 72
     8
 73
     4
 74
     0
 42
0.0000000001
 43
0.0000000001
 40
4.641467157854078
 40
4.641467157854078
 40
4.641467157854078
 40
4.641467157854078
 40
4.783531638960901
 40
4.783531638960901
 40
4.783531638960901
 40
4.783531638960901
 10
16.5663814904622
 20
79.37167175641843
 30
0.0
 10
16.56280696643453
 20
79.37728740670684
 30
0.0
 10
16.55944312942104
 20
79.38307114828737
 30
0.0
 10
16.55633491399608
 20
79.38896537355794
 30
0.0
  0
SPLINE
  5
36F81
330
2
100
AcDbEntity
  8
DETAIL
100
AcDbSpline
210
0.0
220
0.0
230
1.0
 70
     8
 71
     3
 72
    11
 73
     7
 74
     0
 42
0.0000000001
 43
0.0000000001
 40
6.100591545094677
 40
6.100591545094677
 40
6.100591545094677
 40
6.100591545094677
 40
6.283185307179585
 40
6.283185307179585
 40
6.283185307179585
 40
6.464971274626718
 40
6.464971274626718
 40
6.464971274626718
 40
6.464971274626718
 10
16.54583485644822
 20
79.52308934104576
 30
0.0
 10
16.54827241770048
 20
79.52582092452324
 30
0.0
 10
16.55091149974769
 20
79.52796984302698
 30
0.0
 10
16.55365095196125
 20
79.52955146649992
 30
0.0
 10
16.55637828484081
 20
79.53112609287209
 30
0.0
 10
16.55958550425273
 20
79.53230120554358
 30
0.0
 10
16.56320355535205
 20
79.53300587208246
 30
0.0
  0
LINE
  5
36F82
330
2
100
AcDbEntity
  8
DETAIL
100
AcDbLine
 10
16.62385776046082
 20
79.42794970714094
 30
0.0
 11
16.6740967707356
 21
79.45695521324677
 31
0.0
  0
LINE
  5
36F83
330
2
100
AcDbEntity
  8
DETAIL
100
AcDbLine
 10
16.62385776046082
 20
79.42794970714094
 30
0.0
 11
16.5632035553518
 21
79.53300587208246
 31
0.0
  0
LINE
  5
36F84
330
2
100
AcDbEntity
  8
DETAIL
100
AcDbLine
 10
16.6065372523854
 20
79.41794970714095
 30
0.0
 11
16.54583485644789
 21
79.52308934104543
 31
0.0
  0
LINE
  5
36F85
330
2
100
AcDbEntity
  8
DETAIL
100
AcDbLine
 10
16.63385776046107
 20
79.41062919906528
 30
0.0
 11
16.68411058672478
 21
79.43964268183617
 31
0.0
  0
ELLIPSE
  5
36F86
330
2
100
AcDbEntity
  8
DETAIL
100
AcDbEllipse
 10
16.63963458254893
 20
79.42551145423657
 30
0.0
 11
-0.0765465544619708
 21
0.1325825214724753
 31
0.0
210
0.0
220
0.0
230
-0.9999999999999998
 40
0.5773502691897413
 41
-0.0000000000000839
 42
3.141592653589708
  0
LINE
  5
36F87
330
2
100
AcDbEntity
  8
DETAIL
100
AcDbLine
 10
16.54365095196106
 20
79.54687197457548
 30
0.0
 11
16.56308802808696
 21
79.55809397570901
 31
0.0
  0
LINE
  5
36F88
330
2
100
AcDbEntity
  8
DETAIL
100
AcDbLine
 10
16.69674406088501
 20
79.28170693163053
 30
0.0
 11
16.71618113701091
 21
79.29292893276408
 31
0.0
  0
ELLIPSE
  5
36F89
330
2
100
AcDbEntity
  8
DETAIL
100
AcDbEllipse
 10
12.83060394033129
 20
77.67729563307063
 30
0.0
 11
-0.0765465544619642
 21
0.1325825214724796
 31
0.0
210
0.0
220
0.0
230
-1.0
 40
0.5773502691897294
 41
-0.0000000000001816
 42
6.283185307179405
  0
LINE
  5
36F8A
330
2
100
AcDbEntity
  8
DETAIL
100
AcDbLine
 10
12.76674134790138
 20
77.65197155352385
 30
0.0
 11
12.81694368629341
 21
77.68095588710856
 31
0.0
  0
LINE
  5
36F8B
330
2
100
AcDbEntity
  8
DETAIL
100
AcDbLine
 10
12.77678792437085
 20
77.63467793638537
 30
0.0
 11
12.82694368629346
 21
77.6636353790328
 31
0.0
  0
LINE
  5
36F8C
330
2
100
AcDbEntity
  8
DETAIL
100
AcDbLine
 10
12.90526376296934
 20
77.56798102697743
 30
0.0
 11
12.84426419436907
 21
77.67363537903287
 31
0.0
  0
LINE
  5
36F8D
330
2
100
AcDbEntity
  8
DETAIL
100
AcDbLine
 10
12.88780460867848
 20
77.55822116926643
 30
0.0
 11
12.82694368629359
 21
77.66363537903298
 31
0.0
  0
SPLINE
  5
36F8E
330
2
100
AcDbEntity
  8
DETAIL
100
AcDbSpline
210
0.0
220
0.0
230
1.0
 70
     8
 71
     3
 72
    10
 73
     6
 74
     0
 42
0.0000000001
 43
0.0000000001
 40
1.499570828598683
 40
1.499570828598683
 40
1.499570828598683
 40
1.499570828598683
 40
1.537702718488323
 40
1.537702718488323
 40
1.64130316471035
 40
1.64130316471035
 40
1.64130316471035
 40
1.64130316471035
 10
12.88450320464403
 20
77.71996139321409
 30
0.0
 10
12.88547087394794
 20
77.71844872015562
 30
0.0
 10
12.88642244702514
 20
77.71692362901266
 30
0.0
 10
12.88989526666147
 20
77.71121283215676
 30
0.0
 10
12.8922825320249
 20
77.70695752840161
 30
0.0
 10
12.89451702063264
 20
77.70264886180356
 30
0.0
  0
SPLINE
  5
36F8F
330
2
100
AcDbEntity
  8
DETAIL
100
AcDbSpline
210
0.0
220
0.0
230
1.0
 70
     8
 71
     3
 72
     8
 73
     4
 74
     0
 42
0.0000000001
 43
0.0000000001
 40
2.966811343357046
 40
2.966811343357046
 40
2.966811343357046
 40
2.966811343357046
 40
3.322732157867096
 40
3.322732157867096
 40
3.322732157867096
 40
3.322732157867096
 10
12.90526376296934
 20
77.56798102697743
 30
0.0
 10
12.90050733368045
 20
77.56275817608576
 30
0.0
 10
12.8946222617377
 20
77.55963319729598
 30
0.0
 10
12.88780460867853
 20
77.55822116926634
 30
0.0
  0
SPLINE
  5
36F90
330
2
100
AcDbEntity
  8
DETAIL
100
AcDbSpline
210
0.0
220
0.0
230
1.0
 70
     8
 71
     3
 72
     8
 73
     4
 74
     0
 42
0.0000000001
 43
0.0000000001
 40
4.641467157854078
 40
4.641467157854078
 40
4.641467157854078
 40
4.641467157854078
 40
4.783531638960901
 40
4.783531638960901
 40
4.783531638960901
 40
4.783531638960901
 10
12.77678792437046
 20
77.63467793638605
 30
0.0
 10
12.77321340034279
 20
77.64029358667444
 30
0.0
 10
12.76984956332929
 20
77.64607732825499
 30
0.0
 10
12.76674134790434
 20
77.65197155352556
 30
0.0
  0
SPLINE
  5
36F91
330
2
100
AcDbEntity
  8
DETAIL
100
AcDbSpline
210
0.0
220
0.0
230
1.0
 70
     8
 71
     3
 72
    11
 73
     7
 74
     0
 42
0.0000000001
 43
0.0000000001
 40
6.100591545094677
 40
6.100591545094677
 40
6.100591545094677
 40
6.100591545094677
 40
6.283185307179585
 40
6.283185307179585
 40
6.283185307179585
 40
6.464971274626718
 40
6.464971274626718
 40
6.464971274626718
 40
6.464971274626718
 10
12.75624129035648
 20
77.78609552101338
 30
0.0
 10
12.75867885160874
 20
77.78882710449085
 30
0.0
 10
12.76131793365595
 20
77.79097602299462
 30
0.0
 10
12.76405738586951
 20
77.79255764646754
 30
0.0
 10
12.76678471874908
 20
77.79413227283973
 30
0.0
 10
12.76999193816099
 20
77.7953073855112
 30
0.0
 10
12.77360998926031
 20
77.79601205205008
 30
0.0
  0
LINE
  5
36F92
330
2
100
AcDbEntity
  8
DETAIL
100
AcDbLine
 10
12.83426419436908
 20
77.69095588710856
 30
0.0
 11
12.88450320464386
 21
77.71996139321439
 31
0.0
  0
LINE
  5
36F93
330
2
100
AcDbEntity
  8
DETAIL
100
AcDbLine
 10
12.83426419436908
 20
77.69095588710856
 30
0.0
 11
12.77360998926006
 21
77.79601205205008
 31
0.0
  0
LINE
  5
36F94
330
2
100
AcDbEntity
  8
DETAIL
100
AcDbLine
 10
12.81694368629366
 20
77.68095588710856
 30
0.0
 11
12.75624129035615
 21
77.78609552101305
 31
0.0
  0
LINE
  5
36F95
330
2
100
AcDbEntity
  8
DETAIL
100
AcDbLine
 10
12.84426419436933
 20
77.6736353790329
 30
0.0
 11
12.89451702063303
 21
77.70264886180379
 31
0.0
  0
ELLIPSE
  5
36F96
330
2
100
AcDbEntity
  8
DETAIL
100
AcDbEllipse
 10
12.85004101645719
 20
77.68851763420419
 30
0.0
 11
-0.0765465544619706
 21
0.1325825214724756
 31
0.0
210
0.0
220
0.0
230
-1.0
 40
0.5773502691897306
 41
-0.0000000000000915
 42
3.141592653589701
  0
LINE
  5
36F97
330
2
100
AcDbEntity
  8
DETAIL
100
AcDbLine
 10
12.75405738586932
 20
77.80987815454309
 30
0.0
 11
12.77349446199522
 21
77.82110015567664
 31
0.0
  0
LINE
  5
36F98
330
2
100
AcDbEntity
  8
DETAIL
100
AcDbLine
 10
12.90715049479327
 20
77.54471311159815
 30
0.0
 11
12.92658757091917
 21
77.5559351127317
 31
0.0
  0
LINE
  5
36F99
330
2
100
AcDbEntity
  8
0
  6
Continuous
 62
     1
100
AcDbLine
 10
14.12258168528016
 20
78.37035440479922
 30
0.0
 11
13.99456802962801
 21
78.40465556045137
 31
0.0
  0
LINE
  5
36F9A
330
2
100
AcDbEntity
  8
0
  6
Continuous
 62
     1
100
AcDbLine
 10
14.1297464427778
 20
78.37449097946919
 30
0.0
 11
14.00173278712565
 21
78.40879213512133
 31
0.0
  0
LINE
  5
36F9B
330
2
100
AcDbEntity
  8
0
  6
Continuous
 62
     1
100
AcDbLine
 10
14.01771528434993
 20
78.40450963789703
 30
0.0
 11
14.06796044269877
 21
78.43351869359523
 31
0.0
  0
LINE
  5
36F9C
330
2
100
AcDbEntity
  8
0
  6
Continuous
 62
     1
100
AcDbLine
 10
14.05635402970704
 20
78.34562784632533
 30
0.0
 11
14.10659918805588
 21
78.37463690202351
 31
0.0
  0
LINE
  5
36F9D
330
2
100
AcDbEntity
  8
0
  6
Continuous
 62
     1
100
AcDbLine
 10
14.30197619031724
 20
78.47392787057353
 30
0.0
 11
14.1739625346651
 21
78.50822902622567
 31
0.0
  0
LINE
  5
36F9E
330
2
100
AcDbEntity
  8
0
  6
Continuous
 62
     1
100
AcDbLine
 10
14.35222134866608
 20
78.5029369262717
 30
0.0
 11
14.22420769301394
 21
78.53723808192388
 31
0.0
  0
LINE
  5
36F9F
330
2
100
AcDbEntity
  8
0
  6
Continuous
 62
     1
100
AcDbLine
 10
14.35938610616372
 20
78.50707350094165
 30
0.0
 11
14.23137245051158
 21
78.5413746565938
 31
0.0
  0
LINE
  5
36FA0
330
2
100
AcDbEntity
  8
0
  6
Continuous
 62
     1
100
AcDbLine
 10
14.2948114328196
 20
78.46979129590359
 30
0.0
 11
14.16679777716745
 21
78.50409245155574
 31
0.0
  0
LINE
  5
36FA1
330
2
100
AcDbEntity
  8
0
  6
Continuous
 62
     1
100
AcDbLine
 10
14.24735494773585
 20
78.53709215936953
 30
0.0
 11
14.29760010608469
 21
78.5661012150677
 31
0.0
  0
LINE
  5
36FA2
330
2
100
AcDbEntity
  8
0
  6
Continuous
 62
     1
100
AcDbLine
 10
14.43466970650573
 20
78.57790209728475
 30
0.0
 11
14.43806735328084
 21
78.58304806623059
 31
0.0
  0
LINE
  5
36FA3
330
2
100
AcDbEntity
  8
0
  6
Continuous
 62
     1
100
AcDbLine
 10
14.43806735328084
 20
78.58304806623059
 30
0.0
 11
14.34619228220454
 21
78.60766591733005
 31
0.0
  0
LINE
  5
36FA4
330
2
100
AcDbEntity
  8
0
  6
Continuous
 62
     1
100
AcDbLine
 10
14.43466970650573
 20
78.57790209728475
 30
0.0
 11
14.3390275247069
 21
78.6035293426601
 31
0.0
  0
LINE
  5
36FA5
330
2
100
AcDbEntity
  8
0
  6
Continuous
 62
     1
100
AcDbLine
 10
14.28161760886042
 20
78.57038371229197
 30
0.0
 11
14.28878236635806
 21
78.57452028696194
 31
0.0
  0
LINE
  5
36FA6
330
2
100
AcDbEntity
  8
0
  6
Continuous
 62
     1
100
AcDbLine
 10
14.3390275247069
 20
78.6035293426601
 30
0.0
 11
14.34619228220454
 21
78.60766591733005
 31
0.0
  0
LINE
  5
36FA7
330
2
100
AcDbEntity
  8
0
  6
Continuous
 62
     1
100
AcDbLine
 10
14.4094798963023
 20
78.53612311562951
 30
0.0
 11
14.28161760886042
 21
78.57038371229197
 31
0.0
  0
LINE
  5
36FA8
330
2
100
AcDbEntity
  8
0
  6
Continuous
 62
     1
100
AcDbLine
 10
14.41287754307742
 20
78.54126908457536
 30
0.0
 11
14.28878236635806
 21
78.57452028696194
 31
0.0
  0
LINE
  5
36FA9
330
2
100
AcDbEntity
  8
0
  6
Continuous
 62
     1
100
AcDbLine
 10
14.35222134866608
 20
78.5029369262717
 30
0.0
 11
14.35938610616372
 21
78.50707350094165
 31
0.0
  0
LINE
  5
36FAA
330
2
100
AcDbEntity
  8
0
  6
Continuous
 62
     1
100
AcDbLine
 10
14.4094798963023
 20
78.53612311562951
 30
0.0
 11
14.41287754307742
 21
78.54126908457536
 31
0.0
  0
LINE
  5
36FAB
330
2
100
AcDbEntity
  8
0
  6
Continuous
 62
     1
100
AcDbLine
 10
14.2948114328196
 20
78.46979129590359
 30
0.0
 11
14.30197619031724
 21
78.47392787057353
 31
0.0
  0
LINE
  5
36FAC
330
2
100
AcDbEntity
  8
0
  6
Continuous
 62
     1
100
AcDbLine
 10
14.28599369309297
 20
78.4782103677978
 30
0.0
 11
14.33623885144181
 21
78.507219423496
 31
0.0
  0
LINE
  5
36FAD
330
2
100
AcDbEntity
  8
0
  6
Continuous
 62
     1
100
AcDbLine
 10
14.42615470319961
 20
78.58624005119958
 30
0.0
 11
14.4405454322407
 21
78.60803579680089
 31
0.0
  0
LINE
  5
36FAE
330
2
100
AcDbEntity
  8
0
  6
Continuous
 62
     1
100
AcDbLine
 10
14.4405454322407
 20
78.60803579680089
 30
0.0
 11
14.36207489603711
 21
78.60332575240267
 31
0.0
  0
LINE
  5
36FAF
330
2
100
AcDbEntity
  8
0
  6
Continuous
 62
     1
100
AcDbLine
 10
14.39892996942466
 20
78.54500632567201
 30
0.0
 11
14.4227570564245
 21
78.58109408225373
 31
0.0
  0
LINE
  5
36FB0
330
2
100
AcDbEntity
  8
0
  6
Continuous
 62
     1
100
AcDbLine
 10
14.30476486358234
 20
78.57023778973761
 30
0.0
 11
14.35501002193117
 21
78.59924684543583
 31
0.0
  0
LINE
  5
36FB1
330
2
100
AcDbEntity
  8
0
  6
Continuous
 62
     1
100
AcDbLine
 10
14.34340360893945
 20
78.51135599816593
 30
0.0
 11
14.39364876728829
 21
78.54036505386412
 31
0.0
  0
LINE
  5
36FB2
330
2
100
AcDbEntity
  8
0
  6
Continuous
 62
     1
100
AcDbLine
 10
14.22420769301394
 20
78.53723808192388
 30
0.0
 11
14.23137245051158
 21
78.5413746565938
 31
0.0
  0
LINE
  5
36FB3
330
2
100
AcDbEntity
  8
0
  6
Continuous
 62
     1
100
AcDbLine
 10
14.10938786132098
 20
78.47094682118762
 30
0.0
 11
14.11655261881862
 21
78.47508339585754
 31
0.0
  0
LINE
  5
36FB4
330
2
100
AcDbEntity
  8
0
  6
Continuous
 62
     1
100
AcDbLine
 10
14.16679777716745
 20
78.50409245155574
 30
0.0
 11
14.1739625346651
 21
78.50822902622567
 31
0.0
  0
LINE
  5
36FB5
330
2
100
AcDbEntity
  8
0
  6
Continuous
 62
     1
100
AcDbLine
 10
14.05197794547449
 20
78.4378011908195
 30
0.0
 11
14.05914270297213
 21
78.44193776548945
 31
0.0
  0
LINE
  5
36FB6
330
2
100
AcDbEntity
  8
0
  6
Continuous
 62
     1
100
AcDbLine
 10
14.24456627447076
 20
78.44078224020541
 30
0.0
 11
14.11655261881862
 21
78.47508339585754
 31
0.0
  0
LINE
  5
36FB7
330
2
100
AcDbEntity
  8
0
  6
Continuous
 62
     1
100
AcDbLine
 10
14.23740151697312
 20
78.43664566553549
 30
0.0
 11
14.10938786132098
 21
78.47094682118762
 31
0.0
  0
LINE
  5
36FB8
330
2
100
AcDbEntity
  8
0
  6
Continuous
 62
     1
100
AcDbLine
 10
14.17999160112664
 20
78.40350003516736
 30
0.0
 11
14.05197794547449
 21
78.4378011908195
 31
0.0
  0
LINE
  5
36FB9
330
2
100
AcDbEntity
  8
0
  6
Continuous
 62
     1
100
AcDbLine
 10
14.18715635862428
 20
78.40763660983729
 30
0.0
 11
14.05914270297214
 21
78.44193776548945
 31
0.0
  0
LINE
  5
36FBA
330
2
100
AcDbEntity
  8
0
  6
Continuous
 62
     1
100
AcDbLine
 10
14.23740151697312
 20
78.43664566553549
 30
0.0
 11
14.24456627447076
 21
78.44078224020541
 31
0.0
  0
LINE
  5
36FBB
330
2
100
AcDbEntity
  8
0
  6
Continuous
 62
     1
100
AcDbLine
 10
14.12258168528016
 20
78.37035440479922
 30
0.0
 11
14.1297464427778
 21
78.37449097946919
 31
0.0
  0
LINE
  5
36FBC
330
2
100
AcDbEntity
  8
0
  6
Continuous
 62
     1
100
AcDbLine
 10
14.17999160112664
 20
78.40350003516736
 30
0.0
 11
14.18715635862428
 21
78.40763660983729
 31
0.0
  0
LINE
  5
36FBD
330
2
100
AcDbEntity
  8
0
  6
Continuous
 62
     1
100
AcDbLine
 10
14.17117386140001
 20
78.41191910706156
 30
0.0
 11
14.22141901974885
 21
78.44092816275973
 31
0.0
  0
LINE
  5
36FBE
330
2
100
AcDbEntity
  8
0
  6
Continuous
 62
     1
100
AcDbLine
 10
14.13253511604289
 20
78.4708008986333
 30
0.0
 11
14.18278027439173
 21
78.49980995433146
 31
0.0
  0
LINE
  5
36FBF
330
2
100
AcDbEntity
  8
0
  6
Continuous
 62
     1
100
AcDbLine
 10
14.07512520019641
 20
78.43765526826515
 30
0.0
 11
14.12537035854525
 21
78.46666432396336
 31
0.0
  0
LINE
  5
36FC0
330
2
100
AcDbEntity
  8
0
  6
Continuous
 62
     1
100
AcDbLine
 10
14.11376394555352
 20
78.37877347669345
 30
0.0
 11
14.16400910390236
 21
78.40778253239162
 31
0.0
  0
LINE
  5
36FC1
330
2
100
AcDbEntity
  8
0
  6
Continuous
 62
     1
100
AcDbLine
 10
14.18994503188937
 20
78.50394652900141
 30
0.0
 11
14.24019019023821
 21
78.53295558469958
 31
0.0
  0
LINE
  5
36FC2
330
2
100
AcDbEntity
  8
0
  6
Continuous
 62
     1
100
AcDbLine
 10
14.22858377724649
 20
78.44506473742971
 30
0.0
 11
14.27882893559533
 21
78.47407379312787
 31
0.0
  0
LINE
  5
36FC3
330
2
100
AcDbEntity
  8
0
  6
Continuous
 62
     1
100
AcDbLine
 10
13.32600762092707
 20
77.91045215431548
 30
0.0
 11
13.19799396527493
 21
77.94475330996767
 31
0.0
  0
LINE
  5
36FC4
330
2
100
AcDbEntity
  8
0
  6
Continuous
 62
     1
100
AcDbLine
 10
13.31884286342943
 20
77.90631557964556
 30
0.0
 11
13.19082920777728
 21
77.94061673529769
 31
0.0
  0
LINE
  5
36FC5
330
2
100
AcDbEntity
  8
0
  6
Continuous
 62
     1
100
AcDbLine
 10
13.2139764624992
 20
77.94047081274337
 30
0.0
 11
13.26422162084804
 21
77.96947986844154
 31
0.0
  0
LINE
  5
36FC6
330
2
100
AcDbEntity
  8
0
  6
Continuous
 62
     1
100
AcDbLine
 10
13.0781027656624
 20
77.78083421569404
 30
0.0
 11
13.30286036620515
 21
77.91059807686983
 31
0.0
  0
LINE
  5
36FC7
330
2
100
AcDbEntity
  8
0
  6
Continuous
 62
     1
100
AcDbLine
 10
13.7207122743548
 20
78.13833499222241
 30
0.0
 11
13.59269861870265
 21
78.17263614787457
 31
0.0
  0
LINE
  5
36FC8
330
2
100
AcDbEntity
  8
0
  6
Continuous
 62
     1
100
AcDbLine
 10
13.72787703185244
 20
78.14247156689233
 30
0.0
 11
13.59986337620029
 21
78.17677272254448
 31
0.0
  0
LINE
  5
36FC9
330
2
100
AcDbEntity
  8
0
  6
Continuous
 62
     1
100
AcDbLine
 10
13.65448461878168
 20
78.11360843374851
 30
0.0
 11
13.70472977713052
 21
78.14261748944669
 31
0.0
  0
LINE
  5
36FCA
330
2
100
AcDbEntity
  8
0
  6
Continuous
 62
     1
100
AcDbLine
 10
13.61584587342457
 20
78.17249022532021
 30
0.0
 11
13.66609103177341
 21
78.20149928101837
 31
0.0
  0
LINE
  5
36FCB
330
2
100
AcDbEntity
  8
0
  6
Continuous
 62
     1
100
AcDbLine
 10
13.95751669523836
 20
78.27505408836481
 30
0.0
 11
13.82950303958621
 21
78.30935524401695
 31
0.0
  0
LINE
  5
36FCC
330
2
100
AcDbEntity
  8
0
  6
Continuous
 62
     1
100
AcDbLine
 10
13.90010677939188
 20
78.24190845799669
 30
0.0
 11
13.77209312373973
 21
78.27620961364885
 31
0.0
  0
LINE
  5
36FCD
330
2
100
AcDbEntity
  8
0
  6
Continuous
 62
     1
100
AcDbLine
 10
13.95035193774072
 20
78.27091751369488
 30
0.0
 11
13.82233828208857
 21
78.30521866934701
 31
0.0
  0
LINE
  5
36FCE
330
2
100
AcDbEntity
  8
0
  6
Continuous
 62
     1
100
AcDbLine
 10
13.89294202189424
 20
78.23777188332677
 30
0.0
 11
13.76492836624209
 21
78.27207303897892
 31
0.0
  0
LINE
  5
36FCF
330
2
100
AcDbEntity
  8
0
  6
Continuous
 62
     1
100
AcDbLine
 10
13.82671436632112
 20
78.21304532485284
 30
0.0
 11
13.87695952466996
 21
78.24205438055101
 31
0.0
  0
LINE
  5
36FD0
330
2
100
AcDbEntity
  8
0
  6
Continuous
 62
     1
100
AcDbLine
 10
13.99456802962801
 20
78.40465556045137
 30
0.0
 11
14.00173278712565
 21
78.40879213512133
 31
0.0
  0
LINE
  5
36FD1
330
2
100
AcDbEntity
  8
0
  6
Continuous
 62
     1
100
AcDbLine
 10
13.87974819793505
 20
78.33836429971515
 30
0.0
 11
13.88691295543269
 21
78.34250087438508
 31
0.0
  0
LINE
  5
36FD2
330
2
100
AcDbEntity
  8
0
  6
Continuous
 62
     1
100
AcDbLine
 10
13.93715811378153
 20
78.37150993008328
 30
0.0
 11
13.94432287127917
 21
78.37564650475319
 31
0.0
  0
LINE
  5
36FD3
330
2
100
AcDbEntity
  8
0
  6
Continuous
 62
     1
100
AcDbLine
 10
14.0077618535872
 20
78.304063144063
 30
0.0
 11
13.87974819793505
 21
78.33836429971515
 31
0.0
  0
LINE
  5
36FD4
330
2
100
AcDbEntity
  8
0
  6
Continuous
 62
     1
100
AcDbLine
 10
14.01492661108484
 20
78.30819971873293
 30
0.0
 11
13.88691295543269
 21
78.34250087438508
 31
0.0
  0
LINE
  5
36FD5
330
2
100
AcDbEntity
  8
0
  6
Continuous
 62
     1
100
AcDbLine
 10
14.06517176943368
 20
78.33720877443109
 30
0.0
 11
13.93715811378153
 21
78.37150993008328
 31
0.0
  0
LINE
  5
36FD6
330
2
100
AcDbEntity
  8
0
  6
Continuous
 62
     1
100
AcDbLine
 10
14.07233652693132
 20
78.34134534910106
 30
0.0
 11
13.94432287127918
 21
78.37564650475319
 31
0.0
  0
LINE
  5
36FD7
330
2
100
AcDbEntity
  8
0
  6
Continuous
 62
     1
100
AcDbLine
 10
14.06517176943368
 20
78.33720877443109
 30
0.0
 11
14.07233652693132
 21
78.34134534910106
 31
0.0
  0
LINE
  5
36FD8
330
2
100
AcDbEntity
  8
0
  6
Continuous
 62
     1
100
AcDbLine
 10
13.95035193774072
 20
78.27091751369488
 30
0.0
 11
13.95751669523836
 21
78.27505408836481
 31
0.0
  0
LINE
  5
36FD9
330
2
100
AcDbEntity
  8
0
  6
Continuous
 62
     1
100
AcDbLine
 10
14.0077618535872
 20
78.304063144063
 30
0.0
 11
14.01492661108484
 21
78.30819971873293
 31
0.0
  0
LINE
  5
36FDA
330
2
100
AcDbEntity
  8
0
  6
Continuous
 62
     1
100
AcDbLine
 10
13.89294202189424
 20
78.23777188332677
 30
0.0
 11
13.90010677939188
 21
78.24190845799669
 31
0.0
  0
LINE
  5
36FDB
330
2
100
AcDbEntity
  8
0
  6
Continuous
 62
     1
100
AcDbLine
 10
13.90289545265697
 20
78.33821837716081
 30
0.0
 11
13.95314061100581
 21
78.36722743285898
 31
0.0
  0
LINE
  5
36FDC
330
2
100
AcDbEntity
  8
0
  6
Continuous
 62
     1
100
AcDbLine
 10
13.94153419801408
 20
78.27933658558911
 30
0.0
 11
13.99177935636292
 21
78.30834564128728
 31
0.0
  0
LINE
  5
36FDD
330
2
100
AcDbEntity
  8
0
  6
Continuous
 62
     1
100
AcDbLine
 10
13.84548553681049
 20
78.30507274679269
 30
0.0
 11
13.89573069515933
 21
78.33408180249086
 31
0.0
  0
LINE
  5
36FDE
330
2
100
AcDbEntity
  8
0
  6
Continuous
 62
     1
100
AcDbLine
 10
13.96030536850345
 20
78.37136400752894
 30
0.0
 11
14.01055052685229
 21
78.4003730632271
 31
0.0
  0
LINE
  5
36FDF
330
2
100
AcDbEntity
  8
0
  6
Continuous
 62
     1
100
AcDbLine
 10
13.99894411386056
 20
78.3124822159572
 30
0.0
 11
14.0491892722094
 21
78.3414912716554
 31
0.0
  0
LINE
  5
36FE0
330
2
100
AcDbEntity
  8
0
  6
Continuous
 62
     1
100
AcDbLine
 10
13.8841242821676
 20
78.24619095522098
 30
0.0
 11
13.93436944051644
 21
78.27520001091916
 31
0.0
  0
LINE
  5
36FE1
330
2
100
AcDbEntity
  8
0
  6
Continuous
 62
     1
100
AcDbLine
 10
13.76492836624209
 20
78.27207303897892
 30
0.0
 11
13.77209312373973
 21
78.27620961364885
 31
0.0
  0
LINE
  5
36FE2
330
2
100
AcDbEntity
  8
0
  6
Continuous
 62
     1
100
AcDbLine
 10
13.70751845039561
 20
78.23892740861078
 30
0.0
 11
13.71468320789325
 21
78.24306398328073
 31
0.0
  0
LINE
  5
36FE3
330
2
100
AcDbEntity
  8
0
  6
Continuous
 62
     1
100
AcDbLine
 10
13.65010853454913
 20
78.20578177824265
 30
0.0
 11
13.65727329204677
 21
78.20991835291261
 31
0.0
  0
LINE
  5
36FE4
330
2
100
AcDbEntity
  8
0
  6
Continuous
 62
     1
100
AcDbLine
 10
13.77812219020128
 20
78.1714806225905
 30
0.0
 11
13.65010853454913
 21
78.20578177824265
 31
0.0
  0
LINE
  5
36FE5
330
2
100
AcDbEntity
  8
0
  6
Continuous
 62
     1
100
AcDbLine
 10
13.78528694769892
 20
78.17561719726047
 30
0.0
 11
13.65727329204677
 21
78.20991835291261
 31
0.0
  0
LINE
  5
36FE6
330
2
100
AcDbEntity
  8
0
  6
Continuous
 62
     1
100
AcDbLine
 10
13.8426968635454
 20
78.20876282762859
 30
0.0
 11
13.71468320789325
 21
78.24306398328073
 31
0.0
  0
LINE
  5
36FE7
330
2
100
AcDbEntity
  8
0
  6
Continuous
 62
     1
100
AcDbLine
 10
13.83553210604776
 20
78.20462625295864
 30
0.0
 11
13.70751845039561
 21
78.23892740861078
 31
0.0
  0
LINE
  5
36FE8
330
2
100
AcDbEntity
  8
0
  6
Continuous
 62
     1
100
AcDbLine
 10
13.82233828208857
 20
78.30521866934701
 30
0.0
 11
13.82950303958621
 21
78.30935524401695
 31
0.0
  0
LINE
  5
36FE9
330
2
100
AcDbEntity
  8
0
  6
Continuous
 62
     1
100
AcDbLine
 10
13.83553210604776
 20
78.20462625295864
 30
0.0
 11
13.8426968635454
 21
78.20876282762859
 31
0.0
  0
LINE
  5
36FEA
330
2
100
AcDbEntity
  8
0
  6
Continuous
 62
     1
100
AcDbLine
 10
13.7207122743548
 20
78.13833499222241
 30
0.0
 11
13.72787703185244
 21
78.14247156689233
 31
0.0
  0
LINE
  5
36FEB
330
2
100
AcDbEntity
  8
0
  6
Continuous
 62
     1
100
AcDbLine
 10
13.77812219020128
 20
78.1714806225905
 30
0.0
 11
13.78528694769892
 21
78.17561719726047
 31
0.0
  0
LINE
  5
36FEC
330
2
100
AcDbEntity
  8
0
  6
Continuous
 62
     1
100
AcDbLine
 10
13.71189453462816
 20
78.14675406411661
 30
0.0
 11
13.762139692977
 21
78.1757631198148
 31
0.0
  0
LINE
  5
36FED
330
2
100
AcDbEntity
  8
0
  6
Continuous
 62
     1
100
AcDbLine
 10
13.67325578927105
 20
78.20563585568834
 30
0.0
 11
13.72350094761989
 21
78.23464491138652
 31
0.0
  0
LINE
  5
36FEE
330
2
100
AcDbEntity
  8
0
  6
Continuous
 62
     1
100
AcDbLine
 10
13.78807562096401
 20
78.27192711642457
 30
0.0
 11
13.83832077931285
 21
78.30093617212276
 31
0.0
  0
LINE
  5
36FEF
330
2
100
AcDbEntity
  8
0
  6
Continuous
 62
     1
100
AcDbLine
 10
13.76930445047464
 20
78.17989969448473
 30
0.0
 11
13.81954960882348
 21
78.20890875018292
 31
0.0
  0
LINE
  5
36FF0
330
2
100
AcDbEntity
  8
0
  6
Continuous
 62
     1
100
AcDbLine
 10
13.73066570511753
 20
78.23878148605643
 30
0.0
 11
13.78091086346637
 21
78.26779054175464
 31
0.0
  0
LINE
  5
36FF1
330
2
100
AcDbEntity
  8
0
  6
Continuous
 62
     1
100
AcDbLine
 10
13.42046887116321
 20
78.0731992567702
 30
0.0
 11
13.42763362866085
 21
78.07733583144012
 31
0.0
  0
LINE
  5
36FF2
330
2
100
AcDbEntity
  8
0
  6
Continuous
 62
     1
100
AcDbLine
 10
13.54848252681535
 20
78.03889810111805
 30
0.0
 11
13.42046887116321
 21
78.0731992567702
 31
0.0
  0
LINE
  5
36FF3
330
2
100
AcDbEntity
  8
0
  6
Continuous
 62
     1
100
AcDbLine
 10
13.49823736846651
 20
78.00988904541987
 30
0.0
 11
13.37022371281437
 21
78.04419020107201
 31
0.0
  0
LINE
  5
36FF4
330
2
100
AcDbEntity
  8
0
  6
Continuous
 62
     1
100
AcDbLine
 10
13.49107261096887
 20
78.0057524707499
 30
0.0
 11
13.36305895531673
 21
78.04005362640204
 31
0.0
  0
LINE
  5
36FF5
330
2
100
AcDbEntity
  8
0
  6
Continuous
 62
     1
100
AcDbLine
 10
13.42484495539576
 20
77.98102591227602
 30
0.0
 11
13.4750901137446
 21
78.0100349679742
 31
0.0
  0
LINE
  5
36FF6
330
2
100
AcDbEntity
  8
0
  6
Continuous
 62
     1
100
AcDbLine
 10
13.38620621003864
 20
78.03990770384775
 30
0.0
 11
13.43645136838748
 21
78.06891675954592
 31
0.0
  0
LINE
  5
36FF7
330
2
100
AcDbEntity
  8
0
  6
Continuous
 62
     1
100
AcDbLine
 10
13.59269861870265
 20
78.17263614787457
 30
0.0
 11
13.59986337620029
 21
78.17677272254448
 31
0.0
  0
LINE
  5
36FF8
330
2
100
AcDbEntity
  8
0
  6
Continuous
 62
     1
100
AcDbLine
 10
13.47787878700969
 20
78.1063448871383
 30
0.0
 11
13.48504354450733
 21
78.11048146180826
 31
0.0
  0
LINE
  5
36FF9
330
2
100
AcDbEntity
  8
0
  6
Continuous
 62
     1
100
AcDbLine
 10
13.53528870285617
 20
78.13949051750643
 30
0.0
 11
13.54245346035381
 21
78.14362709217636
 31
0.0
  0
LINE
  5
36FFA
330
2
100
AcDbEntity
  8
0
  6
Continuous
 62
     1
100
AcDbLine
 10
13.61305720015948
 20
78.07618030615609
 30
0.0
 11
13.48504354450733
 21
78.11048146180826
 31
0.0
  0
LINE
  5
36FFB
330
2
100
AcDbEntity
  8
0
  6
Continuous
 62
     1
100
AcDbLine
 10
13.60589244266183
 20
78.07204373148616
 30
0.0
 11
13.47787878700969
 21
78.1063448871383
 31
0.0
  0
LINE
  5
36FFC
330
2
100
AcDbEntity
  8
0
  6
Continuous
 62
     1
100
AcDbLine
 10
13.55564728431299
 20
78.04303467578797
 30
0.0
 11
13.42763362866085
 21
78.07733583144012
 31
0.0
  0
LINE
  5
36FFD
330
2
100
AcDbEntity
  8
0
  6
Continuous
 62
     1
100
AcDbLine
 10
13.67046711600595
 20
78.1093259365242
 30
0.0
 11
13.54245346035381
 21
78.14362709217636
 31
0.0
  0
LINE
  5
36FFE
330
2
100
AcDbEntity
  8
0
  6
Continuous
 62
     1
100
AcDbLine
 10
13.66330235850832
 20
78.10518936185427
 30
0.0
 11
13.53528870285617
 21
78.13949051750643
 31
0.0
  0
LINE
  5
36FFF
330
2
100
AcDbEntity
  8
0
  6
Continuous
 62
     1
100
AcDbLine
 10
13.66330235850832
 20
78.10518936185427
 30
0.0
 11
13.67046711600595
 21
78.1093259365242
 31
0.0
  0
LINE
  5
37000
330
2
100
AcDbEntity
  8
0
  6
Continuous
 62
     1
100
AcDbLine
 10
13.54848252681535
 20
78.03889810111805
 30
0.0
 11
13.55564728431299
 21
78.04303467578797
 31
0.0
  0
LINE
  5
37001
330
2
100
AcDbEntity
  8
0
  6
Continuous
 62
     1
100
AcDbLine
 10
13.60589244266183
 20
78.07204373148616
 30
0.0
 11
13.61305720015948
 21
78.07618030615609
 31
0.0
  0
LINE
  5
37002
330
2
100
AcDbEntity
  8
0
  6
Continuous
 62
     1
100
AcDbLine
 10
13.49107261096887
 20
78.0057524707499
 30
0.0
 11
13.49823736846651
 21
78.00988904541987
 31
0.0
  0
LINE
  5
37003
330
2
100
AcDbEntity
  8
0
  6
Continuous
 62
     1
100
AcDbLine
 10
13.53966478708872
 20
78.04731717301226
 30
0.0
 11
13.58990994543756
 21
78.07632622871044
 31
0.0
  0
LINE
  5
37004
330
2
100
AcDbEntity
  8
0
  6
Continuous
 62
     1
100
AcDbLine
 10
13.5010260417316
 20
78.10619896458397
 30
0.0
 11
13.55127120008045
 21
78.13520802028214
 31
0.0
  0
LINE
  5
37005
330
2
100
AcDbEntity
  8
0
  6
Continuous
 62
     1
100
AcDbLine
 10
13.48225487124224
 20
78.01417154264413
 30
0.0
 11
13.53250002959108
 21
78.04318059834233
 31
0.0
  0
LINE
  5
37006
330
2
100
AcDbEntity
  8
0
  6
Continuous
 62
     1
100
AcDbLine
 10
13.44361612588512
 20
78.07305333421584
 30
0.0
 11
13.49386128423396
 21
78.10206238991404
 31
0.0
  0
LINE
  5
37007
330
2
100
AcDbEntity
  8
0
  6
Continuous
 62
     1
100
AcDbLine
 10
13.5970747029352
 20
78.08046280338039
 30
0.0
 11
13.64731986128404
 21
78.10947185907855
 31
0.0
  0
LINE
  5
37008
330
2
100
AcDbEntity
  8
0
  6
Continuous
 62
     1
100
AcDbLine
 10
13.55843595757808
 20
78.13934459495209
 30
0.0
 11
13.60868111592693
 21
78.16835365065026
 31
0.0
  0
LINE
  5
37009
330
2
100
AcDbEntity
  8
0
  6
Continuous
 62
     1
100
AcDbLine
 10
13.36305895531673
 20
78.04005362640208
 30
0.0
 11
13.37022371281437
 21
78.04419020107201
 31
0.0
  0
LINE
  5
3700A
330
2
100
AcDbEntity
  8
0
  6
Continuous
 62
     1
100
AcDbLine
 10
13.30564903947024
 20
78.00690799603396
 30
0.0
 11
13.31281379696789
 21
78.01104457070389
 31
0.0
  0
LINE
  5
3700B
330
2
100
AcDbEntity
  8
0
  6
Continuous
 62
     1
100
AcDbLine
 10
13.24823912362376
 20
77.97376236566582
 30
0.0
 11
13.25540388112141
 21
77.97789894033576
 31
0.0
  0
LINE
  5
3700C
330
2
100
AcDbEntity
  8
0
  6
Continuous
 62
     1
100
AcDbLine
 10
13.37625277927591
 20
77.93946121001368
 30
0.0
 11
13.24823912362377
 21
77.97376236566582
 31
0.0
  0
LINE
  5
3700D
330
2
100
AcDbEntity
  8
0
  6
Continuous
 62
     1
100
AcDbLine
 10
13.38341753677355
 20
77.9435977846836
 30
0.0
 11
13.25540388112141
 21
77.97789894033576
 31
0.0
  0
LINE
  5
3700E
330
2
100
AcDbEntity
  8
0
  6
Continuous
 62
     1
100
AcDbLine
 10
13.43366269512239
 20
77.97260684038182
 30
0.0
 11
13.30564903947024
 21
78.00690799603396
 31
0.0
  0
LINE
  5
3700F
330
2
100
AcDbEntity
  8
0
  6
Continuous
 62
     1
100
AcDbLine
 10
13.44082745262003
 20
77.97674341505175
 30
0.0
 11
13.31281379696789
 21
78.01104457070389
 31
0.0
  0
LINE
  5
37010
330
2
100
AcDbEntity
  8
0
  6
Continuous
 62
     1
100
AcDbLine
 10
13.43366269512239
 20
77.97260684038182
 30
0.0
 11
13.44082745262003
 21
77.97674341505175
 31
0.0
  0
LINE
  5
37011
330
2
100
AcDbEntity
  8
0
  6
Continuous
 62
     1
100
AcDbLine
 10
13.31884286342943
 20
77.90631557964556
 30
0.0
 11
13.32600762092707
 21
77.91045215431548
 31
0.0
  0
LINE
  5
37012
330
2
100
AcDbEntity
  8
0
  6
Continuous
 62
     1
100
AcDbLine
 10
13.37625277927591
 20
77.93946121001368
 30
0.0
 11
13.38341753677355
 21
77.9435977846836
 31
0.0
  0
LINE
  5
37013
330
2
100
AcDbEntity
  8
0
  6
Continuous
 62
     1
100
AcDbLine
 10
13.31002512370279
 20
77.91473465153979
 30
0.0
 11
13.36027028205164
 21
77.94374370723794
 31
0.0
  0
LINE
  5
37014
330
2
100
AcDbEntity
  8
0
  6
Continuous
 62
     1
100
AcDbLine
 10
13.27138637834568
 20
77.97361644311148
 30
0.0
 11
13.32163153669452
 21
78.00262549880965
 31
0.0
  0
LINE
  5
37015
330
2
100
AcDbEntity
  8
0
  6
Continuous
 62
     1
100
AcDbLine
 10
13.32879629419216
 20
78.00676207347962
 30
0.0
 11
13.379041452541
 21
78.03577112917778
 31
0.0
  0
LINE
  5
37016
330
2
100
AcDbEntity
  8
0
  6
Continuous
 62
     1
100
AcDbLine
 10
13.36743503954928
 20
77.9478802819079
 30
0.0
 11
13.41768019789812
 21
77.97688933760608
 31
0.0
  0
ARC
  5
37017
330
2
100
AcDbEntity
  8
0
  6
Continuous
 62
     1
100
AcDbCircle
 10
13.18421844005798
 20
77.57559670081644
 30
0.0
 40
0.2310475575840813
100
AcDbArc
 50
117.3406994474111
 51
169.9180560139027
  0
ARC
  5
37018
330
2
100
AcDbEntity
  8
0
  6
Continuous
 62
     1
100
AcDbCircle
 10
12.91826345116659
 20
78.03624425410276
 30
0.0
 40
0.2310475575840813
100
AcDbArc
 50
250.0819439860983
 51
302.6593005525878
  0
LINE
  5
37019
330
2
100
AcDbEntity
  8
0
  6
Continuous
 62
     1
100
AcDbLine
 10
13.19082920777728
 20
77.94061673529769
 30
0.0
 11
13.19799396527493
 21
77.94475330996767
 31
0.0
  0
LINE
  5
3701A
330
2
100
AcDbEntity
  8
0
  6
Continuous
 62
     1
100
AcDbLine
 10
13.0429465156624
 20
77.84172662689766
 30
0.0
 11
13.20681170500156
 21
77.93633423807342
 31
0.0
  0
LINE
  5
3701B
330
2
100
AcDbEntity
  8
DETAIL
  6
Continuous
100
AcDbLine
 10
14.3390275247069
 20
78.6035293426601
 30
0.0
 11
14.34507283559529
 21
78.59350960822979
 31
0.0
  0
LINE
  5
3701C
330
2
100
AcDbEntity
  8
DETAIL
  6
Continuous
100
AcDbLine
 10
14.28161760886042
 20
78.57038371229197
 30
0.0
 11
14.28766291974881
 21
78.56036397786167
 31
0.0
  0
LINE
  5
3701D
330
2
100
AcDbEntity
  8
DETAIL
  6
Continuous
100
AcDbLine
 10
14.22420769301394
 20
78.53723808192388
 30
0.0
 11
14.23025300390232
 21
78.52721834749356
 31
0.0
  0
LINE
  5
3701E
330
2
100
AcDbEntity
  8
DETAIL
  6
Continuous
100
AcDbLine
 10
14.16679777716745
 20
78.50409245155574
 30
0.0
 11
14.17284308805585
 21
78.49407271712545
 31
0.0
  0
LINE
  5
3701F
330
2
100
AcDbEntity
  8
DETAIL
  6
Continuous
100
AcDbLine
 10
14.10938786132098
 20
78.47094682118762
 30
0.0
 11
14.11543317220937
 21
78.46092708675732
 31
0.0
  0
LINE
  5
37020
330
2
100
AcDbEntity
  8
DETAIL
  6
Continuous
100
AcDbLine
 10
14.05197794547449
 20
78.4378011908195
 30
0.0
 11
14.05802325636289
 21
78.42778145638921
 31
0.0
  0
LINE
  5
37021
330
2
100
AcDbEntity
  8
DETAIL
  6
Continuous
100
AcDbLine
 10
13.99456802962801
 20
78.40465556045137
 30
0.0
 11
14.0006133405164
 21
78.39463582602106
 31
0.0
  0
LINE
  5
37022
330
2
100
AcDbEntity
  8
DETAIL
  6
Continuous
100
AcDbLine
 10
13.93715811378153
 20
78.37150993008328
 30
0.0
 11
13.94320342466992
 21
78.36149019565297
 31
0.0
  0
LINE
  5
37023
330
2
100
AcDbEntity
  8
DETAIL
  6
Continuous
100
AcDbLine
 10
13.87974819793505
 20
78.33836429971515
 30
0.0
 11
13.88579350882344
 21
78.32834456528484
 31
0.0
  0
LINE
  5
37024
330
2
100
AcDbEntity
  8
DETAIL
  6
Continuous
100
AcDbLine
 10
13.82233828208857
 20
78.30521866934701
 30
0.0
 11
13.82838359297696
 21
78.29519893491671
 31
0.0
  0
LINE
  5
37025
330
2
100
AcDbEntity
  8
DETAIL
  6
Continuous
100
AcDbLine
 10
13.76492836624209
 20
78.27207303897892
 30
0.0
 11
13.77097367713048
 21
78.2620533045486
 31
0.0
  0
LINE
  5
37026
330
2
100
AcDbEntity
  8
DETAIL
  6
Continuous
100
AcDbLine
 10
13.70751845039561
 20
78.23892740861078
 30
0.0
 11
13.713563761284
 21
78.22890767418049
 31
0.0
  0
LINE
  5
37027
330
2
100
AcDbEntity
  8
DETAIL
  6
Continuous
100
AcDbLine
 10
13.65010853454913
 20
78.20578177824265
 30
0.0
 11
13.65615384543752
 21
78.19576204381234
 31
0.0
  0
LINE
  5
37028
330
2
100
AcDbEntity
  8
DETAIL
  6
Continuous
100
AcDbLine
 10
13.59269861870265
 20
78.17263614787457
 30
0.0
 11
13.59874392959104
 21
78.16261641344425
 31
0.0
  0
LINE
  5
37029
330
2
100
AcDbEntity
  8
DETAIL
  6
Continuous
100
AcDbLine
 10
13.53528870285617
 20
78.13949051750643
 30
0.0
 11
13.54133401374456
 21
78.12947078307613
 31
0.0
  0
LINE
  5
3702A
330
2
100
AcDbEntity
  8
DETAIL
  6
Continuous
100
AcDbLine
 10
13.47787878700969
 20
78.1063448871383
 30
0.0
 11
13.48392409789808
 21
78.09632515270799
 31
0.0
  0
LINE
  5
3702B
330
2
100
AcDbEntity
  8
DETAIL
  6
Continuous
100
AcDbLine
 10
13.42046887116321
 20
78.0731992567702
 30
0.0
 11
13.4265141820516
 21
78.06317952233988
 31
0.0
  0
LINE
  5
3702C
330
2
100
AcDbEntity
  8
DETAIL
  6
Continuous
100
AcDbLine
 10
13.36305895531673
 20
78.04005362640204
 30
0.0
 11
13.36910426620512
 21
78.03003389197177
 31
0.0
  0
LINE
  5
3702D
330
2
100
AcDbEntity
  8
DETAIL
  6
Continuous
100
AcDbLine
 10
13.30564903947024
 20
78.00690799603396
 30
0.0
 11
13.31169435035864
 21
77.99688826160366
 31
0.0
  0
LINE
  5
3702E
330
2
100
AcDbEntity
  8
DETAIL
  6
Continuous
100
AcDbLine
 10
13.24823912362376
 20
77.97376236566582
 30
0.0
 11
13.25428443451216
 21
77.96374263123553
 31
0.0
  0
LINE
  5
3702F
330
2
100
AcDbEntity
  8
DETAIL
  6
Continuous
100
AcDbLine
 10
13.19082920777728
 20
77.94061673529769
 30
0.0
 11
13.19687451866567
 21
77.9305970008674
 31
0.0
  0
SOLID
  5
37030
330
2
100
AcDbEntity
  8
DIM
  6
HIDDEN2
100
AcDbTrace
 10
15.55663723991329
 20
79.37269300848218
 30
0.0
 11
16.1499864506119
 21
79.59498202892129
 31
0.0
 12
15.66080390657995
 22
79.19227104936041
 32
0.0
 13
15.66080390657995
 23
79.19227104936041
 33
0.0
  0
LWPOLYLINE
  5
37031
330
2
100
AcDbEntity
  8
DIM
  6
HIDDEN2
100
AcDbPolyline
 90
        2
 70
     0
 43
0.0
 10
15.60872057324662
 20
79.28248202892129
 10
14.62827617084577
 20
78.71642218926971
  0
TEXT
  5
37032
330
2
100
AcDbEntity
  8
DIM
100
AcDbText
 10
18.65526602323452
 20
84.35419773264266
 30
-0.0000000000000299
 40
0.625
  1
STEEL STUD
  7
STD
100
AcDbText
  0
TEXT
  5
37033
330
2
100
AcDbEntity
  8
DIM
100
AcDbText
 10
18.64162345843234
 20
83.3014464820742
 30
-0.0000000000000299
 40
0.625
  1
(BY OTHERS)
  7
STD
100
AcDbText
  0
SOLID
  5
37034
330
2
100
AcDbEntity
  8
DIM
100
AcDbTrace
 10
16.79298968536315
 20
82.01345837756726
 30
-0.0000000000000299
 11
16.49813952589701
 21
81.45262054190775
 31
-0.0000000000000299
 12
16.59515848679973
 22
82.07876989762873
 32
-0.0000000000000299
 13
16.59515848679973
 23
82.07876989762873
 33
-0.0000000000000299
  0
LWPOLYLINE
  5
37035
330
2
100
AcDbEntity
  8
DIM
100
AcDbPolyline
 90
        3
 70
     0
 43
0.0
 10
16.69407408608144
 20
82.04611413759797
 10
17.6194883970408
 20
84.84923098639436
 10
18.2444883970408
 20
84.84923098639436
  0
TEXT
  5
37036
330
2
100
AcDbEntity
  8
DIM
100
AcDbText
 10
3.531937261134556
 20
79.05225019170981
 30
0.0
 40
0.625
  1
FIELD FASTENER
  7
STD
100
AcDbText
  0
TEXT
  5
37037
330
2
100
AcDbEntity
  8
DIM
100
AcDbText
 10
9.234955678597039
 20
78.01058352504314
 30
0.0
 40
0.625
  1
TYP
  7
STD
100
AcDbText
  0
SOLID
  5
37038
330
2
100
AcDbEntity
  8
DIM
100
AcDbTrace
 10
12.92507788491113
 20
78.50244819624332
 30
0.0
 11
13.22979622377171
 21
77.94691023317823
 31
0.0
 12
12.76137467196357
 22
78.37359154779855
 32
0.0
 13
12.76137467196357
 23
78.37359154779855
 33
0.0
  0
LWPOLYLINE
  5
37039
330
2
100
AcDbEntity
  8
DIM
100
AcDbPolyline
 90
        3
 70
     0
 43
0.0
 10
12.84322627843735
 20
78.43801987202095
 10
11.97008528296266
 20
79.54728344546151
 10
11.34508528296266
 20
79.54728344546151
  0
TEXT
  5
3703A
330
2
100
AcDbEntity
  8
DIM
100
AcDbText
 10
-0.4863181667005013
 20
73.27225256136734
 30
-0.0000000000000208
 40
0.625
  1
TAPE & FLOAT AFTER
  7
STD
100
AcDbText
  0
TEXT
  5
3703B
330
2
100
AcDbEntity
  8
DIM
100
AcDbText
 10
-3.202467552785084
 20
72.21950131079892
 30
-0.0000000000000208
 40
0.625
  1
SECURING COLUMN COVER
  7
STD
100
AcDbText
  0
TEXT
  5
3703C
330
2
100
AcDbEntity
  8
DIM
100
AcDbText
 10
-1.711591017996544
 20
71.16675006023048
 30
-0.0000000000000208
 40
0.625
  1
HALVES TO STRUCTURE
  7
STD
100
AcDbText
  0
SOLID
  5
3703D
330
2
100
AcDbEntity
  8
DIM
100
AcDbTrace
 10
11.06481968455428
 20
75.90371235962462
 30
-0.0000000000000208
 11
11.48583741134951
 21
76.37723085785741
 31
-0.0000000000000208
 12
11.2411509665106
 22
75.79276166435227
 32
-0.0000000000000208
 13
11.2411509665106
 23
75.79276166435227
 33
-0.0000000000000208
  0
LWPOLYLINE
  5
3703E
330
2
100
AcDbEntity
  8
DIM
100
AcDbPolyline
 90
        3
 70
     0
 43
0.0
 10
11.15298532553244
 20
75.84823701198844
 10
9.84388306113033
 20
73.76771214526913
 10
9.21888306113033
 20
73.76771214526913
  0
SOLID
  5
3703F
330
2
100
AcDbEntity
  8
DIM
  6
HIDDEN2
100
AcDbTrace
 10
36.93478836620065
 20
91.52292422629075
 30
0.0
 11
36.57877883978148
 21
91.38955081402729
 31
0.0
 12
36.87228836620064
 22
91.63117740176383
 32
0.0
 13
36.87228836620064
 23
91.63117740176383
 33
0.0
  0
LWPOLYLINE
  5
37040
330
2
100
AcDbEntity
  8
DIM
  6
HIDDEN2
100
AcDbPolyline
 90
        2
 70
     0
 43
0.0
 10
36.90353836620064
 20
91.57705081402729
 10
38.41511342331619
 20
92.44975908015327
  0
ARC
  5
37041
330
2
100
AcDbEntity
  8
DETAIL
100
AcDbCircle
 10
39.58798050785418
 20
93.03533343033086
 30
0.0
 40
0.0419597166300864
100
AcDbArc
 50
293.871767733575
 51
335.6571256286394
  0
ARC
  5
37043
330
2
100
AcDbEntity
  8
DETAIL
100
AcDbCircle
 10
39.54559295994086
 20
93.05451033619906
 30
0.0
 40
0.088483451828104
100
AcDbArc
 50
335.6571298247414
 51
0.0
  0
ARC
  5
37044
330
2
100
AcDbEntity
  8
DETAIL
100
AcDbCircle
 10
39.4954967705719
 20
93.05451033619906
 30
0.0
 40
0.1385796411970475
100
AcDbArc
 50
0.0
 51
16.55052447378482
  0
ARC
  5
37045
330
2
100
AcDbEntity
  8
DETAIL
100
AcDbCircle
 10
39.42765273700336
 20
93.03434892547564
 30
0.0
 40
0.2093560170099377
100
AcDbArc
 50
16.55052447391131
 51
43.4494522528328
  0
ARC
  5
37047
330
2
100
AcDbEntity
  8
DETAIL
100
AcDbCircle
 10
39.47903504765056
 20
93.08302287667999
 30
0.0
 40
0.1385796411964503
100
AcDbArc
 50
43.44947552614849
 51
60.00000000001505
  0
ARC
  5
37048
330
2
100
AcDbEntity
  8
DETAIL
100
AcDbCircle
 10
39.50408314233471
 20
93.12640744930586
 30
0.0
 40
0.0884834518280445
100
AcDbArc
 50
59.99999999998043
 51
84.34287017528651
  0
ARC
  5
37049
330
2
100
AcDbEntity
  8
DETAIL
100
AcDbCircle
 10
39.50866922864353
 20
93.17270459553677
 30
0.0
 40
0.0419597166302206
100
AcDbArc
 50
84.34287017524082
 51
126.1282361184623
  0
ARC
  5
3704B
330
2
100
AcDbEntity
  8
DETAIL
100
AcDbCircle
 10
39.5848081008616
 20
93.0771512083659
 30
0.0
 40
0.0884834518280248
100
AcDbArc
 50
244.8202325265603
 51
264.3428701753222
  0
ARC
  5
3704C
330
2
100
AcDbEntity
  8
DETAIL
100
AcDbCircle
 10
39.58022201455287
 20
93.03085406213499
 30
0.0
 40
0.0419597166302107
100
AcDbArc
 50
264.342870175181
 51
335.6571256286394
  0
ARC
  5
3704E
330
2
100
AcDbEntity
  8
DETAIL
100
AcDbCircle
 10
39.53783446663971
 20
93.05003096800311
 30
0.0
 40
0.088483451828104
100
AcDbArc
 50
335.6571298247414
 51
0.0
  0
ARC
  5
3704F
330
2
100
AcDbEntity
  8
DETAIL
100
AcDbCircle
 10
39.48773827727077
 20
93.05003096800311
 30
0.0
 40
0.1385796411970475
100
AcDbArc
 50
0.0
 51
16.55052447378482
  0
ARC
  5
37050
330
2
100
AcDbEntity
  8
DETAIL
100
AcDbCircle
 10
39.41989424370222
 20
93.02986955727972
 30
0.0
 40
0.2093560170099377
100
AcDbArc
 50
16.55052447391131
 51
43.4494522528328
  0
ARC
  5
37052
330
2
100
AcDbEntity
  8
DETAIL
100
AcDbCircle
 10
39.47127655434942
 20
93.07854350848407
 30
0.0
 40
0.1385796411964503
100
AcDbArc
 50
43.44947552614849
 51
60.00000000001505
  0
ARC
  5
37053
330
2
100
AcDbEntity
  8
DETAIL
100
AcDbCircle
 10
39.49632464903356
 20
93.12192808110994
 30
0.0
 40
0.0884834518280445
100
AcDbArc
 50
59.99999999998043
 51
84.34287017528651
  0
ARC
  5
37054
330
2
100
AcDbEntity
  8
DETAIL
100
AcDbCircle
 10
39.5009107353424
 20
93.16822522734085
 30
0.0
 40
0.0419597166302206
100
AcDbArc
 50
84.34287017524082
 51
155.6571057807966
  0
ARC
  5
37056
330
2
100
AcDbEntity
  8
DETAIL
100
AcDbCircle
 10
39.54329828325521
 20
93.14904832147274
 30
0.0
 40
0.0884834518277979
100
AcDbArc
 50
155.6571298246214
 51
175.1797674734503
  0
SPLINE
  5
37057
330
2
100
AcDbEntity
  8
DETAIL
 62
     5
100
AcDbSpline
210
0.0
220
0.0
230
1.0
 70
    24
 71
     1
 72
     4
 73
     2
 74
     0
 42
0.0000000001
 43
0.0000000001
 40
0.7496619291046455
 40
0.7496619291046455
 40
0.7726199195898677
 40
0.7726199195898677
 10
14.08508299511575
 20
76.38509238176883
 30
-0.0000000000000193
 10
14.26907836196201
 20
76.26830323462063
 30
-0.0000000000000175
  0
SPLINE
  5
37058
330
2
100
AcDbEntity
  8
DETAIL
 62
     5
100
AcDbSpline
210
0.0
220
0.0
230
1.0
 70
    24
 71
     1
 72
     4
 73
     2
 74
     0
 42
0.0000000001
 43
0.0000000001
 40
0.7726199195898677
 40
0.7726199195898677
 40
0.7955779100750898
 40
0.7955779100750898
 10
14.26907836196201
 20
76.26830323462063
 30
-0.0000000000000175
 10
14.45819606770737
 20
76.15854822653279
 30
-0.0000000000000193
  0
SPLINE
  5
37059
330
2
100
AcDbEntity
  8
DETAIL
 62
     5
100
AcDbSpline
210
0.0
220
0.0
230
1.0
 70
    24
 71
     1
 72
     4
 73
     2
 74
     0
 42
0.0000000001
 43
0.0000000001
 40
0.7955779100750898
 40
0.7955779100750898
 40
0.8185359005603116
 40
0.8185359005603116
 10
14.45819606770737
 20
76.15854822653279
 30
-0.0000000000000193
 10
14.65101126607694
 20
76.05666225172178
 30
-0.0000000000000157
  0
SPLINE
  5
3705A
330
2
100
AcDbEntity
  8
DETAIL
 62
     5
100
AcDbSpline
210
0.0
220
0.0
230
1.0
 70
    24
 71
     1
 72
     4
 73
     2
 74
     0
 42
0.0000000001
 43
0.0000000001
 40
0.8185359005603116
 40
0.8185359005603116
 40
0.8414938910455337
 40
0.8414938910455337
 10
14.65101126607694
 20
76.05666225172178
 30
-0.0000000000000157
 10
14.84601810173969
 20
75.96331128545412
 30
-0.0000000000000122
  0
SPLINE
  5
3705B
330
2
100
AcDbEntity
  8
DETAIL
 62
     5
100
AcDbSpline
210
0.0
220
0.0
230
1.0
 70
    24
 71
     1
 72
     4
 73
     2
 74
     0
 42
0.0000000001
 43
0.0000000001
 40
0.8414938910455337
 40
0.8414938910455337
 40
0.8644518815307558
 40
0.8644518815307558
 10
14.84601810173969
 20
75.96331128545412
 30
-0.0000000000000122
 10
15.04165979822766
 20
75.87898121356345
 30
-0.0000000000000122
  0
VIEWPORT
  5
5D
102
{ACAD_XDICTIONARY
360
370C7
102
}
330
D
100
AcDbEntity
 67
     1
  8
0
100
AcDbViewport
 10
5.102836672053318
 20
3.882552595148703
 30
0.0
 40
18.54021412367474
 41
7.822711755576602
 68
     1
 69
     1
 12
5.102836672053318
 22
3.882552595148703
 13
0.0
 23
0.0
 14
0.5
 24
0.5
 15
0.5
 25
0.5
 16
0.0
 26
0.0
 36
1.0
 17
0.0
 27
0.0
 37
0.0
 42
50.0
 43
0.0
 44
0.0
 45
7.822711755576602
 50
0.0
 51
0.0
 72
   100
 90
    32800
  1

281
     0
 71
     1
 74
     0
110
0.0
120
0.0
130
0.0
111
1.0
121
0.0
131
0.0
112
0.0
122
1.0
132
0.0
 79
     0
146
0.0
  0
ENDSEC
  0
SECTION
  2
OBJECTS
  0
DICTIONARY
  5
7
330
0
100
AcDbDictionary
281
     1
  3
ACAD_2007HEADERVARS_RT
350
370C3
  3
ACAD_CIP_PREVIOUS_PRODUCT_INFO
350
328ED
  3
ACAD_COLOR
350
885
  3
ACAD_FIELDLIST
350
1393
  3
ACAD_GROUP
350
24
  3
ACAD_LAYOUT
350
C
  3
ACAD_MATERIAL
350
884
  3
ACAD_MLEADERSTYLE
350
32044
  3
ACAD_MLINESTYLE
350
25
  3
ACAD_PLOTSETTINGS
350
26
  3
ACAD_PLOTSTYLENAME
350
6
  3
ACAD_SCALELIST
350
32022
  3
ACAD_TABLESTYLE
350
886
  3
ACAD_VISUALSTYLE
350
10B2
  3
ACAD_WIPEOUT_VARS
350
29515
  3
AcadDim
350
343A3
  3
ACDB_RECOMPOSE_DATA
350
370C1
  3
AcDbVariableDictionary
350
3AC
  3
AEC_CLASSIFICATION_SYSTEM_DEFS
350
A2E
  3
AEC_PROPERTY_SET_DEFS
350
29478
  3
ASE_INDEX_DICTIONARY
350
32271
  3
DWGPROPS
350
370C2
  0
DICTIONARY
  5
139C
330
1A
100
AcDbDictionary
280
     1
281
     1
  0
DICTIONARY
  5
899
330
11
100
AcDbDictionary
280
     1
281
     1
  3
ACAD_LAYERFILTERS
360
294B9
  3
ACAD_LAYERSTATES
360
89A
  3
ACLYDICTIONARY
360
294B8
  0
DICTIONARY
  5
3204F
330
4
100
AcDbDictionary
280
     1
281
     1
  3
ADSK_XREC_LAYER_RECONCILED
360
32050
  0
DICTIONARY
  5
1A62
330
1A61
100
AcDbDictionary
280
     1
281
     1
  3
ADSK_XREC_LAYER_RECONCILED
360
1A63
  0
DICTIONARY
  5
1A80
330
1A7F
100
AcDbDictionary
280
     1
281
     1
  3
ADSK_XREC_LAYER_RECONCILED
360
1A81
  0
DICTIONARY
  5
2A3D8
330
2
100
AcDbDictionary
280
     1
281
     1
  3
ACAD_SORTENTS
360
2A3D9
  0
DICTIONARY
  5
1D72
330
D
100
AcDbDictionary
280
     1
281
     1
  3
ACAD_SORTENTS
360
1D73
  0
DICTIONARY
  5
370C7
330
5D
100
AcDbDictionary
280
     1
281
     1
  3
ACAD_XREC_ROUNDTRIP
360
370C8
  0
DICTIONARY
  5
370C3
102
{ACAD_REACTORS
330
7
102
}
330
7
100
AcDbDictionary
281
     1
  3
INTERFEREVPVS
350
370C4
  0
XRECORD
  5
328ED
102
{ACAD_REACTORS
330
7
102
}
330
7
100
AcDbXrecord
280
     1
300
AMECH_PP
300
2012
300
PDSP_F_S
  0
DICTIONARY
  5
885
102
{ACAD_REACTORS
330
7
102
}
330
7
100
AcDbDictionary
281
     1
  0
FIELDLIST
  5
1393
102
{ACAD_REACTORS
330
7
102
}
330
7
100
AcDbIdSet
 90
        0
100
AcDbFieldList
  0
DICTIONARY
  5
24
102
{ACAD_REACTORS
330
7
102
}
330
7
100
AcDbDictionary
281
     1
  0
DICTIONARY
  5
C
102
{ACAD_REACTORS
330
7
102
}
330
7
100
AcDbDictionary
281
     1
  3
Layout1
350
10
  3
Model
350
B
  0
DICTIONARY
  5
884
102
{ACAD_REACTORS
330
7
102
}
330
7
100
AcDbDictionary
281
     1
  3
ByBlock
350
10B0
  3
ByLayer
350
10AF
  3
Global
350
10B1
  0
DICTIONARY
  5
32044
102
{ACAD_REACTORS
330
7
102
}
330
7
100
AcDbDictionary
281
     1
  3
Standard
350
32045
  0
DICTIONARY
  5
25
102
{ACAD_REACTORS
330
7
102
}
330
7
100
AcDbDictionary
281
     1
  3
STANDARD
350
28
  0
DICTIONARY
  5
26
102
{ACAD_REACTORS
330
7
102
}
330
7
100
AcDbDictionary
281
     1
  3
5000N
350
1A1F
  3
Minolta
350
1A22
  3
MP80
350
29492
  3
PDF
350
1A20
  0
ACDBDICTIONARYWDFLT
  5
6
102
{ACAD_REACTORS
330
7
102
}
330
7
100
AcDbDictionary
281
     1
  3
Normal
350
5
100
AcDbDictionaryWithDefault
340
5
  0
DICTIONARY
  5
32022
102
{ACAD_REACTORS
330
7
102
}
330
7
100
AcDbDictionary
281
     1
  3
A0
350
32023
  3
A1
350
32024
  3
A2
350
32025
  3
A3
350
32026
  3
A4
350
32027
  3
A5
350
32028
  3
A6
350
32029
  3
A7
350
3202A
  3
A8
350
3202B
  3
A9
350
3202C
  3
B0
350
3202D
  3
B1
350
3202E
  3
B2
350
3202F
  3
B3
350
32030
  3
B4
350
32031
  3
B5
350
32032
  3
B6
350
32033
  3
B7
350
32034
  3
B8
350
32035
  3
B9
350
32036
  3
C0
350
32037
  3
C1
350
32038
  3
C2
350
32039
  3
C3
350
3203A
  3
C4
350
3203B
  3
C5
350
3203C
  3
C6
350
3203D
  3
C7
350
3203E
  3
C8
350
3203F
  3
C9
350
32040
  3
D0
350
32041
  3
D1
350
32042
  3
D2
350
32043
  0
DICTIONARY
  5
886
102
{ACAD_REACTORS
330
7
102
}
330
7
100
AcDbDictionary
281
     1
  3
Standard
350
887
  0
DICTIONARY
  5
10B2
102
{ACAD_REACTORS
330
7
102
}
330
7
100
AcDbDictionary
281
     1
  3
2dWireframe
350
10B8
  3
3D Hidden
350
1D4F
  3
3dWireframe
350
1D50
  3
Basic
350
10B7
  3
Brighten
350
10BE
  3
ColorChange
350
10C2
  3
Conceptual
350
1D51
  3
Dim
350
10BD
  3
EdgeColorOff
350
32021
  3
Facepattern
350
10C1
  3
Flat
350
10B3
  3
FlatWithEdges
350
10B4
  3
Gouraud
350
10B5
  3
GouraudWithEdges
350
10B6
  3
Hidden
350
328DF
  3
JitterOff
350
3201F
  3
Linepattern
350
10C0
  3
OverhangOff
350
32020
  3
Realistic
350
1D52
  3
Shaded
350
328E4
  3
Shaded with edges
350
328E3
  3
Shades of Gray
350
328E0
  3
Sketchy
350
328E1
  3
Thicken
350
10BF
  3
Wireframe
350
328DE
  3
X-Ray
350
328E2
  0
WIPEOUTVARIABLES
  5
29515
102
{ACAD_REACTORS
330
7
102
}
330
7
100
AcDbWipeoutVariables
 70
     1
  0
XRECORD
  5
343A3
102
{ACAD_REACTORS
330
7
102
}
330
7
100
AcDbXrecord
280
     1
 90
   990106
  3

 60
     0
 61
     0
 62
     1
 63
     1
 64
     0
 65
     0
 66
     1
 67
     3
 68
     0
 69
     0
 70
     0
 71
     0
 72
     0
 40
0.0
170
     2
340
343A5
  0
XRECORD
  5
370C1
102
{ACAD_REACTORS
330
7
102
}
330
7
100
AcDbXrecord
280
     1
 90
        1
330
887
  0
DICTIONARY
  5
3AC
102
{ACAD_REACTORS
330
7
102
}
330
7
100
AcDbDictionary
281
     1
  3
CANNOSCALE
350
32166
  3
CMLEADERSTYLE
350
32164
  3
CTABLESTYLE
350
89F
  3
DIMASSOC
350
3AD
  3
DRAWORDERCTL
350
370BE
  3
INDEXCTL
350
3595B
  3
LAYEREVAL
350
32168
  3
LAYERNOTIFY
350
32169
  3
LIGHTINGUNITS
350
32167
  3
MSLTSCALE
350
32165
  3
SOLIDHIST
350
3595D
  3
SORTENTS
350
3595A
  3
XCLIPFRAME
350
370BF
  0
DICTIONARY
  5
A2E
102
{ACAD_REACTORS
330
7
102
}
330
7
100
AcDbDictionary
281
     1
  0
DICTIONARY
  5
29478
102
{ACAD_REACTORS
330
7
102
}
330
7
100
AcDbDictionary
281
     1
  0
DICTIONARY
  5
32271
102
{ACAD_REACTORS
330
7
102
}
330
7
100
AcDbDictionary
281
     1
  3
ASEBlockHierarchyIndexRecord
350
32272
1001
DCO15
1040
1678439811.196
  0
XRECORD
  5
370C2
102
{ACAD_REACTORS
330
7
102
}
330
7
100
AcDbXrecord
280
     1
  1
DWGPROPS COOKIE
  2

  3

  4

  6

  7

  8
jlee
  9

300
=
301
=
302
=
303
=
304
=
305
=
306
=
307
=
308
=
309
=
 40
0.6596202546296296
 41
2451225.386950695
 42
2457147.501374757
  1

 90
        0
  0
DICTIONARY
  5
294B9
102
{ACAD_REACTORS
330
899
102
}
330
899
100
AcDbDictionary
281
     1
  0
DICTIONARY
  5
89A
102
{ACAD_REACTORS
330
899
102
}
330
899
100
AcDbDictionary
281
     1
  3
_LAYISO_STATE
350
29D42
1001
AcLayerTools
1000
B
1000
0
  0
DICTIONARY
  5
294B8
102
{ACAD_REACTORS
330
899
102
}
330
899
100
AcDbDictionary
281
     1
1001
ACAD
1000
<All
  0
XRECORD
  5
32050
102
{ACAD_REACTORS
330
3204F
102
}
330
3204F
100
AcDbXrecord
280
     1
290
     1
  0
XRECORD
  5
1A63
102
{ACAD_REACTORS
330
1A62
102
}
330
1A62
100
AcDbXrecord
280
     1
290
     1
  0
XRECORD
  5
1A81
102
{ACAD_REACTORS
330
1A80
102
}
330
1A80
100
AcDbXrecord
280
     1
290
     1
  0
SORTENTSTABLE
  5
2A3D9
102
{ACAD_REACTORS
330
2A3D8
102
}
330
2A3D8
100
AcDbSortentsTable
330
2
331
32C17
  5
32C32
331
32C13
  5
32C2E
331
32C6E
  5
36F99
331
32C6A
  5
36F95
331
36FCC
  5
32DD4
331
32BC7
  5
32BCC
331
36FC8
  5
32DCF
331
37007
  5
36F68
331
32BC3
  5
32BC8
331
36FC4
  5
32DCA
331
32C0E
  5
32C29
331
37003
  5
36F64
331
3703E
  5
32C83
331
32C0A
  5
32C25
331
3703A
  5
32C85
331
36FC0
  5
32DC6
331
32D9E
  5
36FD1
331
36F54
  5
37039
331
32D9A
  5
36FCD
331
32D96
  5
36FC9
331
32DD5
  5
37006
331
36F8F
  5
32D90
331
36F8B
  5
32D8C
331
32D92
  5
36FC5
331
32DD1
  5
37002
331
32E18
  5
37035
331
32C66
  5
36F91
331
32C3A
  5
32C7D
331
36FFF
  5
36F60
331
36FFB
  5
36F5C
331
32C06
  5
32C21
331
37036
  5
32D81
331
32B4F
  5
32B4F
331
36FBC
  5
32DC2
331
36FB8
  5
32DBE
331
36FF7
  5
36F58
331
32C02
  5
32C1D
331
32B4B
  5
32B4B
331
37032
  5
32D85
331
36FB4
  5
32DB9
331
32BFE
  5
32C19
331
36FF3
  5
36F54
331
32B47
  5
32B47
331
3702E
  5
36F8F
331
3702A
  5
36F8B
331
32B43
  5
32B43
331
36FB0
  5
32DB5
331
36F87
  5
3705A
331
32D8E
  5
36FC1
331
32DCD
  5
37000
331
32DC9
  5
36FFC
331
32E14
  5
37032
331
36F83
  5
37056
331
32D8A
  5
36FBD
331
32D86
  5
36FB9
331
32DC5
  5
36FF8
331
32E10
  5
37008
331
36F7F
  5
37052
331
36F7B
  5
3704E
331
32D82
  5
36FB5
331
32DC1
  5
36FF4
331
32E04
  5
3702D
331
32C36
  5
32C79
331
32C32
  5
32C75
331
32C2E
  5
32C71
331
32C2A
  5
32C6D
331
36FEF
  5
32E1A
331
36FEB
  5
32E15
331
37026
  5
36F87
331
32B3F
  5
32B3F
331
36FAC
  5
32DB0
331
36FA8
  5
32DAB
331
36FE7
  5
32E0F
331
32B3B
  5
32B3B
331
37022
  5
36F83
331
36FA4
  5
32DA7
331
32BDE
  5
32BFF
331
36FE3
  5
32E09
331
32B37
  5
32B37
331
3701E
  5
36F7F
331
37059
  5
32BC2
331
36FA0
  5
32DA3
331
3701A
  5
36F7B
331
32BDA
  5
32BDF
331
36F77
  5
3700E
331
32DBD
  5
36FF0
331
32DB9
  5
36FEC
331
36F73
  5
3702B
331
32C86
  5
36FB0
331
32DB5
  5
36FE8
331
32DF8
  5
3701C
331
36F6F
  5
37027
331
36F6B
  5
37023
331
32C82
  5
36FAD
331
32DB1
  5
36FE4
331
32DF4
  5
37018
331
32DF0
  5
37014
331
32C26
  5
32C69
331
32C22
  5
32C63
331
32C1E
  5
32C39
331
32C1A
  5
32C35
331
36FDF
  5
32E05
331
36FDB
  5
32DF8
331
32BD6
  5
32BDB
331
37016
  5
36F77
331
32B2F
  5
32B2F
331
36F9C
  5
32D9E
331
36F98
  5
32D99
331
36FD7
  5
32DEF
331
32BD2
  5
32BD7
331
37012
  5
36F73
331
36F94
  5
32D95
331
32BCE
  5
32BD3
331
36FD3
  5
32DDB
331
3700E
  5
36F6F
331
37049
  5
32C16
331
36F90
  5
32D91
331
32BCA
  5
32BCF
331
3700A
  5
36F6B
331
36F67
  5
3701F
331
32C7E
  5
36FA9
331
32DAD
  5
36FE0
331
32DA9
  5
36FDC
331
36F63
  5
3704A
331
32C7A
  5
36FA5
331
32C76
  5
36FA1
331
32DA5
  5
36FD8
331
36F5F
  5
37046
331
32DA1
  5
36FD4
331
32DDC
  5
3700D
331
36F5B
  5
37042
331
32DD8
  5
37009
331
32C16
  5
32C31
331
32C12
  5
32C2D
331
32C6D
  5
36F98
331
32C69
  5
36F94
331
36FCF
  5
32DD7
331
36FCB
  5
32DD3
331
32BC6
  5
32BCB
331
37045
  5
32C12
331
36FC7
  5
32DCD
331
37006
  5
36F67
331
32BC2
  5
32BC7
331
37041
  5
32C0E
331
36FC3
  5
32DC9
331
37002
  5
36F63
331
32C0D
  5
32C28
331
32B5E
  5
32B5E
331
3703D
  5
32C82
331
32C09
  5
32C24
331
37039
  5
32C89
331
36F57
  5
3703E
331
32D9D
  5
36FD0
331
32D99
  5
36FCC
331
36F53
  5
37038
331
32D95
  5
36FC8
331
32DD4
  5
37005
331
36F8E
  5
32D8F
331
36F8A
  5
32D8B
331
32D91
  5
36FC4
331
32C39
  5
32C7C
331
36FFE
  5
36F5F
331
36FBF
  5
32DC5
331
36FBB
  5
32DC1
331
36FFA
  5
36F5B
331
32C05
  5
32C20
331
32B4E
  5
32B4E
331
37035
  5
32D84
331
36FB7
  5
32DBD
331
32C01
  5
32C1C
331
36FF6
  5
36F57
331
32B4A
  5
32B4A
331
37031
  5
32D89
331
36FB3
  5
32DB8
331
32BFD
  5
32C18
331
36FF2
  5
36F53
331
32B46
  5
32B46
331
3702D
  5
36F8E
331
37029
  5
36F8A
331
32B42
  5
32B42
331
32DCC
  5
36FFF
331
32E17
  5
37034
331
36F86
  5
37059
331
32D8D
  5
36FC0
331
32DC8
  5
36FFB
331
32E13
  5
37031
331
36F82
  5
37055
331
32D89
  5
36FBC
331
32D85
  5
36FB8
331
32DC4
  5
36FF7
331
36F7E
  5
37051
331
36F7A
  5
3704D
331
32D81
  5
36FB4
331
32DC0
  5
36FF3
331
32C35
  5
32C78
331
32C31
  5
32C74
331
32C2D
  5
32C70
331
32C29
  5
32C6C
331
36FEE
  5
32E19
331
36FAF
  5
32DB4
331
36FEA
  5
32E14
331
37025
  5
36F86
331
32B3E
  5
32B3E
331
36FAB
  5
32DAE
331
36FA7
  5
32DAA
331
36FE6
  5
32E0E
331
32B3A
  5
32B3A
331
37021
  5
36F82
331
36FA3
  5
32DA6
331
32BDD
  5
32BFE
331
36FE2
  5
32E08
331
32B36
  5
32B36
331
3701D
  5
36F7E
331
37058
  5
32BC1
331
37019
  5
36F7A
331
32B32
  5
32B32
331
32BD9
  5
32BDE
331
36F76
  5
37011
331
32DBC
  5
36FEF
331
32DB8
  5
36FEB
331
36F72
  5
3702A
331
32C89
  5
36FB3
331
32C85
  5
36FAF
331
32DB4
  5
36FE7
331
32DF7
  5
3701B
331
36F6E
  5
37026
331
36F6A
  5
37022
331
32DB0
  5
36FE3
331
32DF3
  5
37017
331
32C25
  5
32C68
331
32C21
  5
32C3C
331
32C1D
  5
32C38
331
32C19
  5
32C34
331
36F9F
  5
32DA2
331
36FDE
  5
32E04
331
36FDA
  5
32DF7
331
32BD5
  5
32BDA
331
37015
  5
36F76
331
37054
  5
32C0B
331
32B2E
  5
32B2E
331
36F9B
  5
32D9C
331
36F97
  5
32D98
331
36FD6
  5
32DEE
331
32BD1
  5
32BD6
331
37011
  5
36F72
331
37050
  5
32C07
331
3704C
  5
32C03
331
36F93
  5
32D94
331
32BCD
  5
32BD2
331
36FD2
  5
32DDA
331
3700D
  5
36F6E
331
37048
  5
32C15
331
37009
  5
36F6A
331
32BC9
  5
32BCE
331
32DEF
  5
37013
331
36F66
  5
3701E
331
32C7D
  5
36FA8
331
32DAC
  5
36FDF
331
32DA8
  5
36FDB
331
36F62
  5
37049
331
32C79
  5
36FA4
331
32C75
  5
36FA0
331
32DA4
  5
36FD7
331
36F5E
  5
37045
331
36F5A
  5
37041
331
32C71
  5
36F9C
331
32DA0
  5
36FD3
331
32DDB
  5
3700C
331
32C15
  5
32C30
331
32C11
  5
32C2C
331
32C6C
  5
36F97
331
32C68
  5
36F93
331
36FCE
  5
32DD6
331
36FCA
  5
32DD2
331
32BC5
  5
32BCA
331
37044
  5
32C11
331
36FC6
  5
32DCC
331
37005
  5
36F66
331
32BC1
  5
32BC6
331
37040
  5
32C81
331
36FC2
  5
32DC8
331
3703C
  5
32C87
331
32C0C
  5
32C27
331
37001
  5
36F62
331
32C08
  5
32C23
331
37038
  5
32C88
331
36F56
  5
3703D
331
32D9C
  5
36FCF
331
32D98
  5
36FCB
331
36F52
  5
3703B
331
36F8D
  5
32D8E
331
32D94
  5
36FC7
331
32DD3
  5
37004
331
36F89
  5
32D8A
331
32D90
  5
36FC3
331
32E1A
  5
37037
331
32C3C
  5
32C7F
331
32C38
  5
32C7B
331
36FFD
  5
36F5E
331
36FBE
  5
32DC4
331
36FBA
  5
32DC0
331
32C04
  5
32C1F
331
36FF9
  5
36F5A
331
32B4D
  5
32B4D
331
37034
  5
32D83
331
36FB6
  5
32DBC
331
32C00
  5
32C1B
331
36FF5
  5
36F56
331
32B49
  5
32B49
331
37030
  5
32D88
331
36FB2
  5
32DB7
331
36FF1
  5
36F52
331
32B45
  5
32B45
331
3702C
  5
36F8D
331
37028
  5
36F89
331
32B41
  5
32B41
331
32DCF
  5
37001
331
32DCB
  5
36FFE
331
36F85
  5
37058
331
32D8C
  5
36FBF
331
32D88
  5
36FBB
331
32DC7
  5
36FFA
331
32E12
  5
37030
331
36F81
  5
37054
331
32D84
  5
36FB7
331
32DC3
  5
36FF6
331
32E06
  5
3702F
331
36F7D
  5
37050
331
36F79
  5
3704C
331
32C34
  5
32C77
331
32C30
  5
32C73
331
32C2C
  5
32C6F
331
32C28
  5
32C6B
331
36FED
  5
32E18
331
36FAE
  5
32DB3
331
36FAA
  5
32DAD
331
36FE9
  5
32E13
331
32B3D
  5
32B3D
331
37024
  5
36F85
331
36FA6
  5
32DA9
331
32BE0
  5
32C01
331
36FE5
  5
32E0D
331
32B39
  5
32B39
331
37020
  5
36F81
331
3705B
  5
32BC4
331
36FA2
  5
32DA5
331
32BDC
  5
32BFD
331
36FE1
  5
32E07
331
32B35
  5
32B35
331
3701C
  5
36F7D
331
32BD8
  5
32BDD
331
37018
  5
36F79
331
32B31
  5
32B31
331
32DBF
  5
36FF2
331
32DBB
  5
36FEE
331
36F75
  5
37010
331
32DB7
  5
36FEA
331
36F71
  5
37029
331
32C88
  5
36FB2
331
32DB3
  5
36FE6
331
32DF6
  5
3701A
331
36F6D
  5
37025
331
36F69
  5
37021
331
32C80
  5
36FAB
331
32DF2
  5
37016
331
32C24
  5
32C67
331
32C20
  5
32C3B
331
32C1C
  5
32C37
331
32C18
  5
32C33
331
36FDD
  5
32DFA
331
37057
  5
32BC0
331
36F9E
  5
32DA1
331
36FD9
  5
32DF3
331
32BD4
  5
32BD9
331
37014
  5
36F75
331
37053
  5
32C0A
331
36F9A
  5
32D9B
331
36F96
  5
32D97
331
36FD5
  5
32DDF
331
32BD0
  5
32BD5
331
37010
  5
36F71
331
3704F
  5
32C06
331
3704B
  5
32C02
331
36F92
  5
32D93
331
32BCC
  5
32BD1
331
36FD1
  5
32DD9
331
3700C
  5
36F6D
331
37008
  5
36F69
331
32BC8
  5
32BCD
331
32DAF
  5
36FE2
331
32DEE
  5
37012
331
36F65
  5
3701D
331
32C7C
  5
36FA7
331
32DAB
  5
36FDE
331
32DA7
  5
36FDA
331
36F61
  5
37048
331
32C78
  5
36FA3
331
32C74
  5
36F9F
331
32DA3
  5
36FD6
331
36F5D
  5
37044
331
36F59
  5
37040
331
32C70
  5
36F9B
331
32DDA
  5
3700B
331
32C14
  5
32C2F
331
32C6F
  5
36F9A
331
32C10
  5
32C2B
331
32C6B
  5
36F96
331
37047
  5
32C14
331
36FCD
  5
32DD5
331
36FC9
  5
32DD1
331
32BC4
  5
32BC9
331
37043
  5
32C10
331
36FC5
  5
32DCB
331
32C0F
  5
32C2A
331
37004
  5
36F65
331
32BC0
  5
32BC5
331
3703F
  5
32C80
331
36FC1
  5
32DC7
331
3703B
  5
32C86
331
32C0B
  5
32C26
331
37000
  5
36F61
331
32D9F
  5
36FD2
331
36F55
  5
3703C
331
32D9B
  5
36FCE
331
32D97
  5
36FCA
331
32DD6
  5
37007
331
36F51
  5
3703A
331
36F8C
  5
32D8D
331
32D93
  5
36FC6
331
32DD2
  5
37003
331
32E19
  5
37036
331
36F88
  5
3705B
331
32C67
  5
36F92
331
32C63
  5
32D87
331
32C3B
  5
32C7E
331
36FFC
  5
36F5D
331
32C07
  5
32C22
331
37037
  5
32D82
331
36FBD
  5
32DC3
331
36FB9
  5
32DBF
331
36FF8
  5
36F59
331
32C03
  5
32C1E
331
32B4C
  5
32B4C
331
37033
  5
32D86
331
36FB5
  5
32DBB
331
32BFF
  5
32C1A
331
36FF4
  5
36F55
331
32B48
  5
32B48
331
3702F
  5
36F90
331
3702B
  5
36F8C
331
36FB1
  5
32DB6
331
32B44
  5
32B44
331
36FF0
  5
36F51
331
32B40
  5
32B40
331
32D8F
  5
36FC2
331
32DCA
  5
36FFD
331
32E15
  5
37033
331
36F84
  5
37057
331
32D8B
  5
36FBE
331
32D87
  5
36FBA
331
32DC6
  5
36FF9
331
36F80
  5
37053
331
36F7C
  5
3704F
331
32D83
  5
36FB6
331
32DC2
  5
36FF5
331
32E05
  5
3702E
331
36F78
  5
3700F
331
32C37
  5
32C7A
331
32C33
  5
32C76
331
32C2F
  5
32C72
331
32C2B
  5
32C6E
331
36FEC
  5
32E17
331
37027
  5
36F88
331
36FAD
  5
32DB1
331
36FA9
  5
32DAC
331
36FE8
  5
32E12
331
37023
  5
36F84
331
36FA5
  5
32DA8
331
36FE4
  5
32E0A
331
32BDF
  5
32C00
331
32B38
  5
32B38
331
3701F
  5
36F80
331
3705A
  5
32BC3
331
36FA1
  5
32DA4
331
36FE0
  5
32E06
331
32BDB
  5
32BE0
331
32B34
  5
32B34
331
3701B
  5
36F7C
331
32B30
  5
32B30
331
32DBE
  5
36FF1
331
32DBA
  5
36FED
331
36F74
  5
3702C
331
32C87
  5
36FB1
331
32DB6
  5
36FE9
331
36F70
  5
37028
331
32C83
  5
36FAE
331
32DB2
  5
36FE5
331
32DF5
  5
37019
331
36F6C
  5
37024
331
36F68
  5
37020
331
32DF1
  5
37015
331
32C27
  5
32C6A
331
32C23
  5
32C66
331
32C1F
  5
32C3A
331
32C1B
  5
32C36
331
36FDC
  5
32DF9
331
32BD7
  5
32BDC
331
37017
  5
36F78
331
37056
  5
32C0D
331
36F9D
  5
32D9F
331
36F99
  5
32D9A
331
36FD8
  5
32DF1
331
32BD3
  5
32BD8
331
37013
  5
36F74
331
37052
  5
32C09
331
36F95
  5
32D96
331
36FD4
  5
32DDE
331
32BCF
  5
32BD4
331
3700F
  5
36F70
331
3704E
  5
32C05
331
36F91
  5
32D92
331
36FD0
  5
32DD8
331
32BCB
  5
32BD0
331
3700B
  5
36F6C
331
32C7F
  5
36FAA
331
32DAE
  5
36FE1
331
32DAA
  5
36FDD
331
36F64
  5
3704B
331
32C7B
  5
36FA6
331
32DA6
  5
36FD9
331
36F60
  5
37047
331
32C77
  5
36FA2
331
32C73
  5
36F9E
331
32DA2
  5
36FD5
331
36F5C
  5
37043
331
36F58
  5
3703F
331
32DD9
  5
3700A
  0
SORTENTSTABLE
  5
1D73
102
{ACAD_REACTORS
330
1D72
102
}
330
1D72
100
AcDbSortentsTable
330
D
331
5D
  5
5D
  0
XRECORD
  5
370C8
102
{ACAD_REACTORS
330
370C7
102
}
330
370C7
100
AcDbXrecord
280
     1
102
SHADEPLOT
 70
     0
  0
XRECORD
  5
370C4
102
{ACAD_REACTORS
330
370C3
102
}
330
370C3
100
AcDbXrecord
280
     1
340
1D50
  0
LAYOUT
  5
10
102
{ACAD_XDICTIONARY
360
89C
102
}
102
{ACAD_REACTORS
330
C
102
}
330
C
100
AcDbPlotSettings
  1

  2
CAD LP235N
  4
Letter
  6

 40
5.027082920074462
 41
5.027099609375
 42
5.027069091796875
 43
5.027069091796875
 44
215.8999938964844
 45
279.3999938964844
 46
4.310214820833584
 47
5.069412597656278
 48
0.0
 49
0.0
140
10.205
141
7.764780009564798
142
1.0
143
1.0
 70
   692
 72
     0
 73
     1
 74
     4
  7
GORDON-BLK.ctb
 75
    16
147
1.0
148
0.0
149
0.0
100
AcDbLayout
  1
Layout1
 70
     1
 71
     1
 10
-0.2079161059762549
 20
-0.2079166691697489
 11
10.79208365372785
 21
8.29208309053436
 12
0.0
 22
0.0
 32
0.0
 14
0.0
 24
0.0
 34
0.0
 15
10.205
 25
7.764780009564798
 35
0.0
146
0.0
 13
0.0
 23
0.0
 33
0.0
 16
1.0
 26
0.0
 36
0.0
 17
0.0
 27
1.0
 37
0.0
 76
     0
330
D
331
5D
1001
ACAD_PSEXT
1000
CAD LP235N
1000
LANIER LP235N PCL 6
1000
192.168.100.208
1000

1070
     0
  0
LAYOUT
  5
B
102
{ACAD_XDICTIONARY
360
32141
102
}
102
{ACAD_REACTORS
330
C
102
}
330
C
100
AcDbPlotSettings
  1

  2
HP 1055CM+ Roll.pc3
  4
User257
  6

 40
4.995333194732666
 41
13.2922945022583
 42
4.99530029296875
 43
13.29296875
 44
899.1599731445312
 45
15239.9150390625
 46
0.0
 47
0.0
 48
1.592118068029931
 49
1.083964621542295
140
10.45538313863936
141
6.686027752030966
142
1.0
143
1.0
 70
 11952
 72
     0
 73
     1
 74
     4
  7
5000N-BLACK.ctb
 75
    16
147
1.0
148
-40.4397989279603
149
-27.53270138717434
100
AcDbLayout
  1
Model
 70
     1
 71
     0
 10
0.0
 20
0.0
 11
12.0
 21
9.0
 12
0.0
 22
0.0
 32
0.0
 14
0.0
 24
0.0
 34
0.0
 15
0.0
 25
0.0
 35
0.0
146
0.0
 13
0.0
 23
0.0
 33
0.0
 16
1.0
 26
0.0
 36
0.0
 17
0.0
 27
1.0
 37
0.0
 76
     0
330
2
331
882
  0
MATERIAL
  5
10B0
102
{ACAD_XDICTIONARY
360
37077
102
}
102
{ACAD_REACTORS
330
884
102
}
330
884
100
AcDbMaterial
  1
ByBlock
 73
     1
 78
     1
172
     1
176
     1
270
     1
274
     1
  0
MATERIAL
  5
10AF
102
{ACAD_XDICTIONARY
360
37075
102
}
102
{ACAD_REACTORS
330
884
102
}
330
884
100
AcDbMaterial
  1
ByLayer
 73
     1
 78
     1
172
     1
176
     1
270
     1
274
     1
  0
MATERIAL
  5
10B1
102
{ACAD_XDICTIONARY
360
37079
102
}
102
{ACAD_REACTORS
330
884
102
}
330
884
100
AcDbMaterial
  1
Global
 73
     1
 78
     1
172
     1
176
     1
270
     1
274
     1
  0
MLEADERSTYLE
  5
32045
102
{ACAD_REACTORS
330
32044
102
}
330
32044
100
AcDbMLeaderStyle
170
     2
171
     1
172
     0
 90
        2
 40
0.0
 41
0.0
173
     1
 91
-1056964608
340
16
 92
       -2
290
     1
 42
0.09
291
     1
 43
0.36
  3
Standard
 44
0.18
300

342
13
174
     1
178
     6
175
     1
176
     0
 93
-1056964608
 45
0.18
292
     0
297
     0
 46
0.18
 94
-1056964608
 47
1.0
 49
1.0
140
1.0
293
     1
141
0.0
294
     1
177
     0
142
1.0
295
     0
296
     0
143
0.125
1001
ACAD_MLEADERVER
1070
     2
  0
MLINESTYLE
  5
28
102
{ACAD_REACTORS
330
25
102
}
330
25
100
AcDbMlineStyle
  2
STANDARD
 70
     0
  3

 62
   256
 51
90.0
 52
90.0
 71
     2
 49
0.5
 62
   256
  6
BYLAYER
 49
-0.5
 62
   256
  6
BYLAYER
  0
PLOTSETTINGS
  5
1A1F
102
{ACAD_XDICTIONARY
360
370E2
102
}
102
{ACAD_REACTORS
330
26
102
}
330
26
100
AcDbPlotSettings
  1
5000N
  2
HP 5000 N
  4
Letter
  6

 40
5.027082920074462
 41
5.408084392547606
 42
5.365737915039061
 43
5.365753173828125
 44
215.8999938964844
 45
279.3999938964844
 46
4.140880409212495
 47
4.709578165054337
 48
0.0
 49
0.0
140
10.205
141
7.764780009564798
142
1.0
143
1.0
 70
  2740
 72
     0
 73
     1
 74
     4
  7
GORDON-BLK.ctb
 75
    16
147
1.0
148
0.0
149
0.0
1001
ACAD_PSEXT
1000
HP 5000 N
1000
HP LaserJet 5100 PS
1000
IP_192.168.100.208
1000

1070
     0
  0
PLOTSETTINGS
  5
1A22
102
{ACAD_XDICTIONARY
360
370E6
102
}
102
{ACAD_REACTORS
330
26
102
}
330
26
100
AcDbPlotSettings
  1
Minolta
  2
\\User-server\Minolta
  4
Letter
  6

 40
6.085416316986081
 41
6.085421085357666
 42
6.085403442382812
 43
6.085418701171875
 44
215.8999938964844
 45
279.3999938964844
 46
3.251880947084776
 47
4.011077054977445
 48
0.0
 49
0.0
140
10.205
141
7.764780009564798
142
1.0
143
1.0
 70
  2740
 72
     0
 73
     1
 74
     4
  7
GORDON-BLK.ctb
 75
    16
147
1.0
148
0.0
149
0.0
1001
ACAD_PSEXT
1000
\\User-server\Minolta
1000
CopierBW Ver 1.1
1000
\\User-server
1000

1070
     0
  0
PLOTSETTINGS
  5
29492
102
{ACAD_XDICTIONARY
360
370F0
102
}
102
{ACAD_REACTORS
330
26
102
}
330
26
100
AcDbPlotSettings
  1
MP80
  2
\\exchange-server\MP80
  4
Letter
  6

 40
5.027082920074462
 41
5.027085781097412
 42
5.027069091796875
 43
5.027069091796875
 44
215.8999938964844
 45
279.3999938964844
 46
4.310214820833584
 47
5.069419511795068
 48
0.0
 49
0.0
140
10.205
141
7.764780009564798
142
1.0
143
1.0
 70
  2740
 72
     0
 73
     1
 74
     4
  7
GORDON-BLK.ctb
 75
    16
147
1.0
148
0.0
149
0.0
1001
ACAD_PSEXT
1000
\\exchange-server\MP80
1000
LANIER MP 8000/LD280 PCL 6
1000
\\exchange-server
1000

1070
     0
  0
PLOTSETTINGS
  5
1A20
102
{ACAD_XDICTIONARY
360
370E4
102
}
102
{ACAD_REACTORS
330
26
102
}
330
26
100
AcDbPlotSettings
  1
PDF
  2
Acrobat PDFWriter
  4
Letter
  6

 40
3.174999952316283
 41
3.174999952316283
 42
3.175003051757812
 43
3.17498779296875
 44
215.8999938964844
 45
279.3999938964844
 46
6.162289324732188
 47
6.921503075599713
 48
0.0
 49
0.0
140
10.205
141
7.764780009564798
142
1.0
143
1.0
 70
  2740
 72
     0
 73
     1
 74
     4
  7
GORDON-BLK.ctb
 75
    16
147
1.0
148
0.0
149
0.0
1001
ACAD_PSEXT
1000
Acrobat PDFWriter
1000
Adobe PDF Converter
1000
My Documents
1000
Creates Adobe PDF
1070
     0
  0
ACDBPLACEHOLDER
  5
5
102
{ACAD_REACTORS
330
6
102
}
330
6
  0
SCALE
  5
32023
102
{ACAD_REACTORS
330
32022
102
}
330
32022
100
AcDbScale
 70
     0
300
1:1
140
1.0
141
1.0
290
     1
  0
SCALE
  5
32024
102
{ACAD_REACTORS
330
32022
102
}
330
32022
100
AcDbScale
 70
     0
300
1:2
140
1.0
141
2.0
290
     0
  0
SCALE
  5
32025
102
{ACAD_REACTORS
330
32022
102
}
330
32022
100
AcDbScale
 70
     0
300
1:4
140
1.0
141
4.0
290
     0
  0
SCALE
  5
32026
102
{ACAD_REACTORS
330
32022
102
}
330
32022
100
AcDbScale
 70
     0
300
1:5
140
1.0
141
5.0
290
     0
  0
SCALE
  5
32027
102
{ACAD_REACTORS
330
32022
102
}
330
32022
100
AcDbScale
 70
     0
300
1:8
140
1.0
141
8.0
290
     0
  0
SCALE
  5
32028
102
{ACAD_REACTORS
330
32022
102
}
330
32022
100
AcDbScale
 70
     0
300
1:10
140
1.0
141
10.0
290
     0
  0
SCALE
  5
32029
102
{ACAD_REACTORS
330
32022
102
}
330
32022
100
AcDbScale
 70
     0
300
1:16
140
1.0
141
16.0
290
     0
  0
SCALE
  5
3202A
102
{ACAD_REACTORS
330
32022
102
}
330
32022
100
AcDbScale
 70
     0
300
1:20
140
1.0
141
20.0
290
     0
  0
SCALE
  5
3202B
102
{ACAD_REACTORS
330
32022
102
}
330
32022
100
AcDbScale
 70
     0
300
1:30
140
1.0
141
30.0
290
     0
  0
SCALE
  5
3202C
102
{ACAD_REACTORS
330
32022
102
}
330
32022
100
AcDbScale
 70
     0
300
1:40
140
1.0
141
40.0
290
     0
  0
SCALE
  5
3202D
102
{ACAD_REACTORS
330
32022
102
}
330
32022
100
AcDbScale
 70
     0
300
1:50
140
1.0
141
50.0
290
     0
  0
SCALE
  5
3202E
102
{ACAD_REACTORS
330
32022
102
}
330
32022
100
AcDbScale
 70
     0
300
1:100
140
1.0
141
100.0
290
     0
  0
SCALE
  5
3202F
102
{ACAD_REACTORS
330
32022
102
}
330
32022
100
AcDbScale
 70
     0
300
2:1
140
2.0
141
1.0
290
     0
  0
SCALE
  5
32030
102
{ACAD_REACTORS
330
32022
102
}
330
32022
100
AcDbScale
 70
     0
300
4:1
140
4.0
141
1.0
290
     0
  0
SCALE
  5
32031
102
{ACAD_REACTORS
330
32022
102
}
330
32022
100
AcDbScale
 70
     0
300
8:1
140
8.0
141
1.0
290
     0
  0
SCALE
  5
32032
102
{ACAD_REACTORS
330
32022
102
}
330
32022
100
AcDbScale
 70
     0
300
10:1
140
10.0
141
1.0
290
     0
  0
SCALE
  5
32033
102
{ACAD_REACTORS
330
32022
102
}
330
32022
100
AcDbScale
 70
     0
300
100:1
140
100.0
141
1.0
290
     0
  0
SCALE
  5
32034
102
{ACAD_REACTORS
330
32022
102
}
330
32022
100
AcDbScale
 70
     0
300
1/128" = 1'-0"
140
0.0078125
141
12.0
290
     0
  0
SCALE
  5
32035
102
{ACAD_REACTORS
330
32022
102
}
330
32022
100
AcDbScale
 70
     0
300
1/64" = 1'-0"
140
0.015625
141
12.0
290
     0
  0
SCALE
  5
32036
102
{ACAD_REACTORS
330
32022
102
}
330
32022
100
AcDbScale
 70
     0
300
1/32" = 1'-0"
140
0.03125
141
12.0
290
     0
  0
SCALE
  5
32037
102
{ACAD_REACTORS
330
32022
102
}
330
32022
100
AcDbScale
 70
     0
300
1/16" = 1'-0"
140
0.0625
141
12.0
290
     0
  0
SCALE
  5
32038
102
{ACAD_REACTORS
330
32022
102
}
330
32022
100
AcDbScale
 70
     0
300
3/32" = 1'-0"
140
0.09375
141
12.0
290
     0
  0
SCALE
  5
32039
102
{ACAD_REACTORS
330
32022
102
}
330
32022
100
AcDbScale
 70
     0
300
1/8" = 1'-0"
140
0.125
141
12.0
290
     0
  0
SCALE
  5
3203A
102
{ACAD_REACTORS
330
32022
102
}
330
32022
100
AcDbScale
 70
     0
300
3/16" = 1'-0"
140
0.1875
141
12.0
290
     0
  0
SCALE
  5
3203B
102
{ACAD_REACTORS
330
32022
102
}
330
32022
100
AcDbScale
 70
     0
300
1/4" = 1'-0"
140
0.25
141
12.0
290
     0
  0
SCALE
  5
3203C
102
{ACAD_REACTORS
330
32022
102
}
330
32022
100
AcDbScale
 70
     0
300
3/8" = 1'-0"
140
0.375
141
12.0
290
     0
  0
SCALE
  5
3203D
102
{ACAD_REACTORS
330
32022
102
}
330
32022
100
AcDbScale
 70
     0
300
1/2" = 1'-0"
140
0.5
141
12.0
290
     0
  0
SCALE
  5
3203E
102
{ACAD_REACTORS
330
32022
102
}
330
32022
100
AcDbScale
 70
     0
300
3/4" = 1'-0"
140
0.75
141
12.0
290
     0
  0
SCALE
  5
3203F
102
{ACAD_REACTORS
330
32022
102
}
330
32022
100
AcDbScale
 70
     0
300
1" = 1'-0"
140
1.0
141
12.0
290
     0
  0
SCALE
  5
32040
102
{ACAD_REACTORS
330
32022
102
}
330
32022
100
AcDbScale
 70
     0
300
1-1/2" = 1'-0"
140
1.5
141
12.0
290
     0
  0
SCALE
  5
32041
102
{ACAD_REACTORS
330
32022
102
}
330
32022
100
AcDbScale
 70
     0
300
3" = 1'-0"
140
3.0
141
12.0
290
     0
  0
SCALE
  5
32042
102
{ACAD_REACTORS
330
32022
102
}
330
32022
100
AcDbScale
 70
     0
300
6" = 1'-0"
140
6.0
141
12.0
290
     0
  0
SCALE
  5
32043
102
{ACAD_REACTORS
330
32022
102
}
330
32022
100
AcDbScale
 70
     0
300
1'-0" = 1'-0"
140
12.0
141
12.0
290
     0
  0
TABLESTYLE
  5
887
102
{ACAD_XDICTIONARY
360
35908
102
}
102
{ACAD_REACTORS
330
886
102
}
330
886
100
AcDbTableStyle
  3
Standard
 70
     0
 71
     0
 40
0.06
 41
0.06
280
     0
281
     0
  7
STANDARD
140
0.18
170
     2
 62
     0
 63
     7
283
     0
274
    -2
284
     1
 64
     0
275
    -2
285
     1
 65
     0
276
    -2
286
     1
 66
     0
277
    -2
287
     1
 67
     0
278
    -2
288
     1
 68
     0
279
    -2
289
     1
 69
     0
  7
STANDARD
140
0.25
170
     5
 62
     0
 63
     7
283
     0
274
    -2
284
     1
 64
     0
275
    -2
285
     1
 65
     0
276
    -2
286
     1
 66
     0
277
    -2
287
     1
 67
     0
278
    -2
288
     1
 68
     0
279
    -2
289
     1
 69
     0
  7
STANDARD
140
0.18
170
     5
 62
     0
 63
     7
283
     0
274
    -2
284
     1
 64
     0
275
    -2
285
     1
 65
     0
276
    -2
286
     1
 66
     0
277
    -2
287
     1
 67
     0
278
    -2
288
     1
 68
     0
279
    -2
289
     1
 69
     0
  0
VISUALSTYLE
  5
10B8
102
{ACAD_XDICTIONARY
360
370D4
102
}
102
{ACAD_REACTORS
330
10B2
102
}
330
10B2
100
AcDbVisualStyle
  2

 70
     4
 71
     0
 72
     2
 73
     0
 90
        0
 40
-0.6
 41
-30.0
 62
     5
 63
     7
 74
     1
 91
        4
 64
     7
 65
   257
 75
     1
175
     1
 42
1.0
 92
        0
 66
   257
 43
1.0
 76
     1
 77
     6
 78
     2
 67
     7
 79
     5
170
     0
171
     0
290
     0
174
     0
 93
        1
 44
0.0
173
     0
291
     0
 45
0.0
1001
ACAD
1000
AcDbSavedByObjectVersion
1070
     0
  0
VISUALSTYLE
  5
1D4F
102
{ACAD_XDICTIONARY
360
370E8
102
}
102
{ACAD_REACTORS
330
10B2
102
}
330
10B2
100
AcDbVisualStyle
  2

 70
     6
 71
     1
 72
     2
 73
     2
 90
        0
 40
-0.6
 41
-30.0
 62
     5
 63
     7
 74
     2
 91
        2
 64
     7
 65
   257
 75
     2
175
     1
 42
40.0
 92
        0
 66
   257
 43
1.0
 76
     1
 77
     6
 78
     2
 67
     7
 79
     3
170
     0
171
     0
290
     0
174
     0
 93
        1
 44
0.0
173
     0
291
     0
 45
0.0
1001
ACAD
1000
AcDbSavedByObjectVersion
1070
     0
  0
VISUALSTYLE
  5
1D50
102
{ACAD_XDICTIONARY
360
370EA
102
}
102
{ACAD_REACTORS
330
10B2
102
}
330
10B2
100
AcDbVisualStyle
  2

 70
     5
 71
     0
 72
     2
 73
     0
 90
        0
 40
-0.6
 41
-30.0
 62
     5
 63
     7
 74
     1
 91
        4
 64
     7
 65
   257
 75
     1
175
     1
 42
1.0
 92
        0
 66
   257
 43
1.0
 76
     1
 77
     6
 78
     2
 67
     7
 79
     5
170
     0
171
     0
290
     0
174
     0
 93
        1
 44
0.0
173
     0
291
     0
 45
0.0
1001
ACAD
1000
AcDbSavedByObjectVersion
1070
     0
  0
VISUALSTYLE
  5
10B7
102
{ACAD_XDICTIONARY
360
370D2
102
}
102
{ACAD_REACTORS
330
10B2
102
}
330
10B2
100
AcDbVisualStyle
  2

 70
     7
 71
     1
 72
     0
 73
     1
 90
        0
 40
-0.6
 41
-30.0
 62
     5
 63
     7
 74
     0
 91
        4
 64
     7
 65
   257
 75
     1
175
     1
 42
1.0
 92
        8
 66
     7
 43
1.0
 76
     1
 77
     6
 78
     2
 67
     7
 79
     5
170
     0
171
     0
290
     0
174
     0
 93
        1
 44
0.0
173
     0
291
     1
 45
0.0
1001
ACAD
1000
AcDbSavedByObjectVersion
1070
     0
  0
VISUALSTYLE
  5
10BE
102
{ACAD_XDICTIONARY
360
370D8
102
}
102
{ACAD_REACTORS
330
10B2
102
}
330
10B2
100
AcDbVisualStyle
  2

 70
    12
 71
     2
 72
     2
 73
     0
 90
        0
 40
-0.6
 41
-30.0
 62
     5
 63
     7
 74
     1
 91
        4
 64
     7
 65
   257
 75
     1
175
     1
 42
1.0
 92
        8
 66
     7
 43
1.0
 76
     1
 77
     6
 78
     2
 67
     7
 79
     5
170
     0
171
     0
290
     0
174
     0
 93
        1
 44
50.0
173
     0
291
     1
 45
0.0
1001
ACAD
1000
AcDbSavedByObjectVersion
1070
     0
  0
VISUALSTYLE
  5
10C2
102
{ACAD_XDICTIONARY
360
370E0
102
}
102
{ACAD_REACTORS
330
10B2
102
}
330
10B2
100
AcDbVisualStyle
  2

 70
    16
 71
     2
 72
     2
 73
     3
 90
        0
 40
-0.6
 41
-30.0
 62
     5
 63
     8
 74
     1
 91
        4
 64
     7
 65
   257
 75
     1
175
     1
 42
1.0
 92
        8
 66
     8
 43
1.0
 76
     1
 77
     6
 78
     2
 67
     7
 79
     5
170
     0
171
     0
290
     0
174
     0
 93
        1
 44
0.0
173
     0
291
     1
 45
0.0
1001
ACAD
1000
AcDbSavedByObjectVersion
1070
     0
  0
VISUALSTYLE
  5
1D51
102
{ACAD_XDICTIONARY
360
370EC
102
}
102
{ACAD_REACTORS
330
10B2
102
}
330
10B2
100
AcDbVisualStyle
  2

 70
     9
 71
     3
 72
     2
 73
     0
 90
        0
 40
-0.6
 41
-30.0
 62
     5
 63
     7
 74
     2
 91
        2
 64
     7
 65
   257
 75
     1
175
     1
 42
40.0
 92
        8
 66
     7
 43
1.0
 76
     1
 77
     6
 78
     2
 67
     7
 79
     3
170
     0
171
     0
290
     0
174
     0
 93
        1
 44
0.0
173
     0
291
     0
 45
0.0
1001
ACAD
1000
AcDbSavedByObjectVersion
1070
     0
  0
VISUALSTYLE
  5
10BD
102
{ACAD_XDICTIONARY
360
370D6
102
}
102
{ACAD_REACTORS
330
10B2
102
}
330
10B2
100
AcDbVisualStyle
  2

 70
    11
 71
     2
 72
     2
 73
     0
 90
        0
 40
-0.6
 41
-30.0
 62
     5
 63
     7
 74
     1
 91
        4
 64
     7
 65
   257
 75
     1
175
     1
 42
1.0
 92
        8
 66
     7
 43
1.0
 76
     1
 77
     6
 78
     2
 67
     7
 79
     5
170
     0
171
     0
290
     0
174
     0
 93
        1
 44
-50.0
173
     0
291
     1
 45
0.0
1001
ACAD
1000
AcDbSavedByObjectVersion
1070
     0
  0
VISUALSTYLE
  5
32021
102
{ACAD_XDICTIONARY
360
370F6
102
}
102
{ACAD_REACTORS
330
10B2
102
}
330
10B2
100
AcDbVisualStyle
  2

 70
    22
 71
     2
 72
     2
 73
     0
 90
        0
 40
-0.6
 41
-30.0
 62
     5
 63
     7
 74
     1
 91
        4
 64
     7
 65
   257
 75
     1
175
     1
 42
1.0
 92
        8
 66
     7
 43
1.0
 76
     1
 77
     6
 78
     2
 67
     7
 79
     5
170
     0
171
     0
290
     0
174
     0
 93
        1
 44
0.0
173
     0
291
     1
 45
0.0
1001
ACAD
1000
AcDbSavedByObjectVersion
1070
     0
  0
VISUALSTYLE
  5
10C1
102
{ACAD_XDICTIONARY
360
370DE
102
}
102
{ACAD_REACTORS
330
10B2
102
}
330
10B2
100
AcDbVisualStyle
  2

 70
    15
 71
     2
 72
     2
 73
     0
 90
        0
 40
-0.6
 41
-30.0
 62
     5
 63
     7
 74
     1
 91
        4
 64
     7
 65
   257
 75
     1
175
     1
 42
1.0
 92
        8
 66
     7
 43
1.0
 76
     1
 77
     6
 78
     2
 67
     7
 79
     5
170
     0
171
     0
290
     0
174
     0
 93
        1
 44
0.0
173
     0
291
     1
 45
0.0
1001
ACAD
1000
AcDbSavedByObjectVersion
1070
     0
  0
VISUALSTYLE
  5
10B3
102
{ACAD_XDICTIONARY
360
370CA
102
}
102
{ACAD_REACTORS
330
10B2
102
}
330
10B2
100
AcDbVisualStyle
  2

 70
     0
 71
     2
 72
     1
 73
     1
 90
        2
 40
-0.6
 41
30.0
 62
     5
 63
     7
 74
     0
 91
        4
 64
     7
 65
   257
 75
     1
175
     1
 42
1.0
 92
        8
 66
     7
 43
1.0
 76
     1
 77
     6
 78
     2
 67
     7
 79
     5
170
     0
171
     0
290
     0
174
     0
 93
       13
 44
0.0
173
     0
291
     1
 45
0.0
1001
ACAD
1000
AcDbSavedByObjectVersion
1070
     0
  0
VISUALSTYLE
  5
10B4
102
{ACAD_XDICTIONARY
360
370CC
102
}
102
{ACAD_REACTORS
330
10B2
102
}
330
10B2
100
AcDbVisualStyle
  2

 70
     1
 71
     2
 72
     1
 73
     1
 90
        2
 40
-0.6
 41
30.0
 62
     5
 63
     7
 74
     1
 91
        4
 64
     7
 65
   257
 75
     1
175
     1
 42
1.0
 92
        0
 66
   257
 43
1.0
 76
     1
 77
     6
 78
     2
 67
     7
 79
     5
170
     0
171
     0
290
     0
174
     0
 93
       13
 44
0.0
173
     0
291
     1
 45
0.0
1001
ACAD
1000
AcDbSavedByObjectVersion
1070
     0
  0
VISUALSTYLE
  5
10B5
102
{ACAD_XDICTIONARY
360
370CE
102
}
102
{ACAD_REACTORS
330
10B2
102
}
330
10B2
100
AcDbVisualStyle
  2

 70
     2
 71
     2
 72
     2
 73
     1
 90
        2
 40
-0.6
 41
30.0
 62
     5
 63
     7
 74
     0
 91
        4
 64
     7
 65
   257
 75
     1
175
     1
 42
1.0
 92
        0
 66
     7
 43
1.0
 76
     1
 77
     6
 78
     2
 67
     7
 79
     5
170
     0
171
     0
290
     0
174
     0
 93
       13
 44
0.0
173
     0
291
     1
 45
0.0
1001
ACAD
1000
AcDbSavedByObjectVersion
1070
     0
  0
VISUALSTYLE
  5
10B6
102
{ACAD_XDICTIONARY
360
370D0
102
}
102
{ACAD_REACTORS
330
10B2
102
}
330
10B2
100
AcDbVisualStyle
  2

 70
     3
 71
     2
 72
     2
 73
     1
 90
        2
 40
-0.6
 41
30.0
 62
     5
 63
     7
 74
     1
 91
        4
 64
     7
 65
   257
 75
     1
175
     1
 42
1.0
 92
        0
 66
   257
 43
1.0
 76
     1
 77
     6
 78
     2
 67
     7
 79
     5
170
     0
171
     0
290
     0
174
     0
 93
       13
 44
0.0
173
     0
291
     1
 45
0.0
1001
ACAD
1000
AcDbSavedByObjectVersion
1070
     0
  0
VISUALSTYLE
  5
328DF
102
{ACAD_XDICTIONARY
360
370FA
102
}
102
{ACAD_REACTORS
330
10B2
102
}
330
10B2
100
AcDbVisualStyle
  2

 70
     6
 71
     1
 72
     2
 73
     2
 90
        0
 40
-0.6
 41
-30.0
 62
     5
 63
     7
 74
     2
 91
        2
 64
     7
 65
   257
 75
     2
175
     1
 42
40.0
 92
        0
 66
   257
 43
1.0
 76
     1
 77
     6
 78
     2
 67
     7
 79
     3
170
     0
171
     0
290
     0
174
     0
 93
        1
 44
0.0
173
     0
291
     0
 45
0.0
1001
ACAD
1000
AcDbSavedByObjectVersion
1070
     0
  0
VISUALSTYLE
  5
3201F
102
{ACAD_XDICTIONARY
360
370F2
102
}
102
{ACAD_REACTORS
330
10B2
102
}
330
10B2
100
AcDbVisualStyle
  2

 70
    20
 71
     2
 72
     2
 73
     0
 90
        0
 40
-0.6
 41
-30.0
 62
     5
 63
     7
 74
     1
 91
        4
 64
     7
 65
   257
 75
     1
175
     1
 42
1.0
 92
       10
 66
     7
 43
1.0
 76
     1
 77
     6
 78
     2
 67
     7
 79
     5
170
     0
171
     0
290
     0
174
     0
 93
        1
 44
0.0
173
     0
291
     1
 45
0.0
1001
ACAD
1000
AcDbSavedByObjectVersion
1070
     0
  0
VISUALSTYLE
  5
10C0
102
{ACAD_XDICTIONARY
360
370DC
102
}
102
{ACAD_REACTORS
330
10B2
102
}
330
10B2
100
AcDbVisualStyle
  2

 70
    14
 71
     2
 72
     2
 73
     0
 90
        0
 40
-0.6
 41
-30.0
 62
     5
 63
     7
 74
     1
 91
        4
 64
     7
 65
   257
 75
     7
175
     7
 42
1.0
 92
        8
 66
     7
 43
1.0
 76
     1
 77
     6
 78
     2
 67
     7
 79
     5
170
     0
171
     0
290
     0
174
     0
 93
        1
 44
0.0
173
     0
291
     1
 45
0.0
1001
ACAD
1000
AcDbSavedByObjectVersion
1070
     0
  0
VISUALSTYLE
  5
32020
102
{ACAD_XDICTIONARY
360
370F4
102
}
102
{ACAD_REACTORS
330
10B2
102
}
330
10B2
100
AcDbVisualStyle
  2

 70
    21
 71
     2
 72
     2
 73
     0
 90
        0
 40
-0.6
 41
-30.0
 62
     5
 63
     7
 74
     1
 91
        4
 64
     7
 65
   257
 75
     1
175
     1
 42
1.0
 92
        9
 66
     7
 43
1.0
 76
     1
 77
     6
 78
     2
 67
     7
 79
     5
170
     0
171
     0
290
     0
174
     0
 93
        1
 44
0.0
173
     0
291
     1
 45
0.0
1001
ACAD
1000
AcDbSavedByObjectVersion
1070
     0
  0
VISUALSTYLE
  5
1D52
102
{ACAD_XDICTIONARY
360
370EE
102
}
102
{ACAD_REACTORS
330
10B2
102
}
330
10B2
100
AcDbVisualStyle
  2

 70
     8
 71
     2
 72
     2
 73
     0
 90
        0
 40
-0.6
 41
-30.0
 62
     5
 63
     7
 74
     1
 91
        0
 64
     7
 65
   257
 75
     1
175
     1
 42
1.0
 92
        8
 66
     8
 43
1.0
 76
     1
 77
     6
 78
     2
 67
     7
 79
     5
170
     0
171
     0
290
     0
174
     0
 93
       13
 44
0.0
173
     0
291
     0
 45
0.0
1001
ACAD
1000
AcDbSavedByObjectVersion
1070
     0
  0
VISUALSTYLE
  5
328E4
102
{ACAD_XDICTIONARY
360
37104
102
}
102
{ACAD_REACTORS
330
10B2
102
}
330
10B2
100
AcDbVisualStyle
  2

 70
    27
 71
     2
 72
     2
 73
     1
 90
        2
 40
-0.6
 41
30.0
 62
     5
 63
     7
 74
     0
 91
        4
 64
     7
 65
   257
 75
     1
175
     1
 42
1.0
 92
        8
 66
   257
 43
1.0
 76
     1
 77
     6
 78
     2
 67
     8
 79
     3
170
     0
171
     0
290
     0
174
     0
 93
        5
 44
0.0
173
     0
291
     0
 45
0.0
1001
ACAD
1000
AcDbSavedByObjectVersion
1070
     0
  0
VISUALSTYLE
  5
328E3
102
{ACAD_XDICTIONARY
360
37102
102
}
102
{ACAD_REACTORS
330
10B2
102
}
330
10B2
100
AcDbVisualStyle
  2

 70
    26
 71
     2
 72
     2
 73
     1
 90
        2
 40
-0.6
 41
30.0
 62
     5
 63
     7
 74
     1
 91
       10
 64
     7
 65
   257
 75
     2
175
     1
 42
1.0
 92
        8
 66
   257
 43
1.0
 76
     1
 77
     6
 78
     2
 67
     7
 79
     3
170
     0
171
     0
290
     0
174
     0
 93
        5
 44
0.0
173
     0
291
     0
 45
0.0
1001
ACAD
1000
AcDbSavedByObjectVersion
1070
     0
  0
VISUALSTYLE
  5
328E0
102
{ACAD_XDICTIONARY
360
370FC
102
}
102
{ACAD_REACTORS
330
10B2
102
}
330
10B2
100
AcDbVisualStyle
  2

 70
    23
 71
     2
 72
     2
 73
     3
 90
        0
 40
-0.6
 41
-30.0
 62
     5
 63
     7
 74
     2
 91
        2
 64
     7
 65
     7
 75
     1
175
     1
 42
40.0
 92
        8
 66
     7
 43
1.0
 76
     1
 77
     6
 78
     2
 67
     7
 79
     3
170
     0
171
     0
290
     0
174
     0
 93
        1
 44
0.0
173
     0
291
     0
 45
0.0
1001
ACAD
1000
AcDbSavedByObjectVersion
1070
     0
  0
VISUALSTYLE
  5
328E1
102
{ACAD_XDICTIONARY
360
370FE
102
}
102
{ACAD_REACTORS
330
10B2
102
}
330
10B2
100
AcDbVisualStyle
  2

 70
    24
 71
     1
 72
     2
 73
     2
 90
        0
 40
-0.6
 41
-30.0
 62
     5
 63
     7
 74
     2
 91
        2
 64
     7
 65
     7
 75
     1
175
     1
 42
40.0
 92
       11
 66
     7
 43
1.0
 76
     1
 77
     6
 78
     2
 67
     7
 79
     6
170
     0
171
     0
290
     0
174
     0
 93
        1
 44
0.0
173
     0
291
     0
 45
0.0
1001
ACAD
1000
AcDbSavedByObjectVersion
1070
     0
  0
VISUALSTYLE
  5
10BF
102
{ACAD_XDICTIONARY
360
370DA
102
}
102
{ACAD_REACTORS
330
10B2
102
}
330
10B2
100
AcDbVisualStyle
  2

 70
    13
 71
     2
 72
     2
 73
     0
 90
        0
 40
-0.6
 41
-30.0
 62
     5
 63
     7
 74
     1
 91
        4
 64
     7
 65
   257
 75
     1
175
     1
 42
1.0
 92
       12
 66
     7
 43
1.0
 76
     1
 77
     6
 78
     2
 67
     7
 79
     5
170
     0
171
     0
290
     0
174
     0
 93
        1
 44
0.0
173
     0
291
     1
 45
0.0
1001
ACAD
1000
AcDbSavedByObjectVersion
1070
     0
  0
VISUALSTYLE
  5
328DE
102
{ACAD_XDICTIONARY
360
370F8
102
}
102
{ACAD_REACTORS
330
10B2
102
}
330
10B2
100
AcDbVisualStyle
  2

 70
     5
 71
     0
 72
     2
 73
     0
 90
        0
 40
-0.6
 41
-30.0
 62
     5
 63
     7
 74
     1
 91
        4
 64
     7
 65
   257
 75
     1
175
     1
 42
1.0
 92
        0
 66
   257
 43
1.0
 76
     1
 77
     6
 78
     2
 67
     7
 79
     3
170
     0
171
     0
290
     0
174
     0
 93
        1
 44
0.0
173
     0
291
     0
 45
0.0
1001
ACAD
1000
AcDbSavedByObjectVersion
1070
     0
  0
VISUALSTYLE
  5
328E2
102
{ACAD_XDICTIONARY
360
37100
102
}
102
{ACAD_REACTORS
330
10B2
102
}
330
10B2
100
AcDbVisualStyle
  2

 70
    25
 71
     2
 72
     2
 73
     1
 90
        1
 40
0.5
 41
-30.0
 62
     5
 63
     7
 74
     1
 91
        0
 64
     7
 65
   257
 75
     1
175
     1
 42
1.0
 92
        8
 66
     7
 43
1.0
 76
     1
 77
     6
 78
     2
 67
     7
 79
     3
170
     0
171
     0
290
     0
174
     0
 93
       13
 44
0.0
173
     0
291
     0
 45
0.0
1001
ACAD
1000
AcDbSavedByObjectVersion
1070
     0
  0
DICTIONARYVAR
  5
32166
102
{ACAD_REACTORS
330
3AC
102
}
330
3AC
100
DictionaryVariables
280
     0
  1
1:1
  0
DICTIONARYVAR
  5
32164
102
{ACAD_REACTORS
330
3AC
102
}
330
3AC
100
DictionaryVariables
280
     0
  1
STANDARD
  0
DICTIONARYVAR
  5
89F
102
{ACAD_REACTORS
330
3AC
102
}
330
3AC
100
DictionaryVariables
280
     0
  1
STANDARD
  0
DICTIONARYVAR
  5
3AD
102
{ACAD_REACTORS
330
3AC
102
}
330
3AC
100
DictionaryVariables
280
     0
  1
1
  0
DICTIONARYVAR
  5
370BE
102
{ACAD_REACTORS
330
3AC
102
}
330
3AC
100
DictionaryVariables
280
     0
  1
0
  0
DICTIONARYVAR
  5
3595B
102
{ACAD_REACTORS
330
3AC
102
}
330
3AC
100
DictionaryVariables
280
     0
  1
0
  0
DICTIONARYVAR
  5
32168
102
{ACAD_REACTORS
330
3AC
102
}
330
3AC
100
DictionaryVariables
280
     0
  1
1
  0
DICTIONARYVAR
  5
32169
102
{ACAD_REACTORS
330
3AC
102
}
330
3AC
100
DictionaryVariables
280
     0
  1
15
  0
DICTIONARYVAR
  5
32167
102
{ACAD_REACTORS
330
3AC
102
}
330
3AC
100
DictionaryVariables
280
     0
  1
0
  0
DICTIONARYVAR
  5
32165
102
{ACAD_REACTORS
330
3AC
102
}
330
3AC
100
DictionaryVariables
280
     0
  1
0
  0
DICTIONARYVAR
  5
3595D
102
{ACAD_REACTORS
330
3AC
102
}
330
3AC
100
DictionaryVariables
280
     0
  1
1
  0
DICTIONARYVAR
  5
3595A
102
{ACAD_REACTORS
330
3AC
102
}
330
3AC
100
DictionaryVariables
280
     0
  1
127
  0
DICTIONARYVAR
  5
370BF
102
{ACAD_REACTORS
330
3AC
102
}
330
3AC
100
DictionaryVariables
280
     0
  1
2
  0
XRECORD
  5
32272
102
{ACAD_REACTORS
330
32271
102
}
330
32271
100
AcDbXrecord
280
     1
330
0
330
2913F
330
0
330
0
330
0
330
0
330
0
330
0
330
0
330
0
330
0
330
0
330
0
330
0
330
0
330
0
330
0
330
0
330
0
330
0
330
0
330
0
330
0
330
0
330
0
330
0
330
0
330
0
330
0
330
0
330
0
330
0
330
0
  0
XRECORD
  5
29D42
102
{ACAD_REACTORS
330
89A
102
}
330
89A
100
AcDbXrecord
280
     1
 91
      535
301

290
     0
302
DIM
330
0
 90
        8
 62
    31
370
    -3
331
8
  1
Color_31
330
0
 90
        8
 62
     2
370
    -3
331
8
  1
Color_2
330
0
 90
        8
 62
     2
370
    -3
331
8
  1
Color_2
330
0
 90
        8
 62
   250
370
    -3
331
8
  1
Color_250
330
0
 90
        0
 62
   253
370
    -3
331
8
  1
Color_253
330
0
 90
        8
 62
    60
370
    -3
331
8
  1
Color_60
330
0
 90
        8
 62
     2
370
    -3
331
8
  1
Color_2
330
0
 90
        8
 62
     2
370
    -3
331
0
  1
Color_2
330
0
 90
        8
 62
     3
370
    -3
331
8
  1
Color_3
330
0
 90
        8
 62
     6
370
    -3
331
8
  1
Color_6
330
0
 90
        0
 62
   251
370
    -3
331
8
  1
Color_251
330
1A7F
 90
        8
 62
     1
370
    -3
331
8
  1
Color_1
330
0
 90
        8
 62
   253
370
    -3
331
0
  1
Color_253
330
0
 90
        8
 62
     2
370
    -3
331
8
  1
Color_2
330
0
 90
        8
 62
     4
370
    -3
331
8
  1
Color_4
330
0
 90
        8
 62
     1
370
    -3
331
8
  1
Color_1
330
0
 90
        8
 62
     6
370
    -3
331
8
  1
Color_6
330
0
 90
        8
 62
     5
370
    -3
331
8
  1
Color_5
330
0
 90
        8
 62
    52
370
    -3
331
8
  1
Color_52
330
0
 90
        8
 62
     2
370
    -3
331
8
  1
Color_2
330
0
 90
        8
 62
     1
370
    -3
331
8
  1
Color_1
330
1A61
 90
        8
 62
     1
370
    -3
331
8
  1
Color_1
330
73
 90
        0
 62
   252
370
    -3
331
8
  1
Color_252
330
32
 90
        8
 62
     3
370
    -3
331
8
  1
Color_3
330
4
 90
        8
 62
     7
370
    -3
331
8
  1
Color_7
  0
DICTIONARY
  5
89C
330
10
100
AcDbDictionary
280
     1
281
     1
  3
ACAD_XREC_ROUNDTRIP
360
370C6
  3
ADSK_XREC_LAYOUTTHUMBNAIL
360
89D
  0
DICTIONARY
  5
32141
330
B
100
AcDbDictionary
280
     1
281
     1
  3
ACAD_XREC_ROUNDTRIP
360
370C5
  3
ADSK_XREC_LAYOUTTHUMBNAIL
360
32142
  0
DICTIONARY
  5
37077
330
10B0
100
AcDbDictionary
280
     1
281
     1
  3
ACAD_XREC_ROUNDTRIP
360
37078
  0
DICTIONARY
  5
37075
330
10AF
100
AcDbDictionary
280
     1
281
     1
  3
ACAD_XREC_ROUNDTRIP
360
37076
  0
DICTIONARY
  5
37079
330
10B1
100
AcDbDictionary
280
     1
281
     1
  3
ACAD_XREC_ROUNDTRIP
360
3707A
  0
DICTIONARY
  5
370E2
330
1A1F
100
AcDbDictionary
280
     1
281
     1
  3
ACAD_XREC_ROUNDTRIP
360
370E3
  0
DICTIONARY
  5
370E6
330
1A22
100
AcDbDictionary
280
     1
281
     1
  3
ACAD_XREC_ROUNDTRIP
360
370E7
  0
DICTIONARY
  5
370F0
330
29492
100
AcDbDictionary
280
     1
281
     1
  3
ACAD_XREC_ROUNDTRIP
360
370F1
  0
DICTIONARY
  5
370E4
330
1A20
100
AcDbDictionary
280
     1
281
     1
  3
ACAD_XREC_ROUNDTRIP
360
370E5
  0
DICTIONARY
  5
35908
330
887
100
AcDbDictionary
280
     1
281
     1
  3
ACAD_ROUNDTRIP_2008_TABLESTYLE_CELLSTYLEMAP
360
370C0
  3
ACAD_XREC_ROUNDTRIP
360
370C9
  0
DICTIONARY
  5
370D4
330
10B8
100
AcDbDictionary
280
     1
281
     1
  3
ACAD_XREC_ROUNDTRIP
360
370D5
  0
DICTIONARY
  5
370E8
330
1D4F
100
AcDbDictionary
280
     1
281
     1
  3
ACAD_XREC_ROUNDTRIP
360
370E9
  0
DICTIONARY
  5
370EA
330
1D50
100
AcDbDictionary
280
     1
281
     1
  3
ACAD_XREC_ROUNDTRIP
360
370EB
  0
DICTIONARY
  5
370D2
330
10B7
100
AcDbDictionary
280
     1
281
     1
  3
ACAD_XREC_ROUNDTRIP
360
370D3
  0
DICTIONARY
  5
370D8
330
10BE
100
AcDbDictionary
280
     1
281
     1
  3
ACAD_XREC_ROUNDTRIP
360
370D9
  0
DICTIONARY
  5
370E0
330
10C2
100
AcDbDictionary
280
     1
281
     1
  3
ACAD_XREC_ROUNDTRIP
360
370E1
  0
DICTIONARY
  5
370EC
330
1D51
100
AcDbDictionary
280
     1
281
     1
  3
ACAD_XREC_ROUNDTRIP
360
370ED
  0
DICTIONARY
  5
370D6
330
10BD
100
AcDbDictionary
280
     1
281
     1
  3
ACAD_XREC_ROUNDTRIP
360
370D7
  0
DICTIONARY
  5
370F6
330
32021
100
AcDbDictionary
280
     1
281
     1
  3
ACAD_XREC_ROUNDTRIP
360
370F7
  0
DICTIONARY
  5
370DE
330
10C1
100
AcDbDictionary
280
     1
281
     1
  3
ACAD_XREC_ROUNDTRIP
360
370DF
  0
DICTIONARY
  5
370CA
330
10B3
100
AcDbDictionary
280
     1
281
     1
  3
ACAD_XREC_ROUNDTRIP
360
370CB
  0
DICTIONARY
  5
370CC
330
10B4
100
AcDbDictionary
280
     1
281
     1
  3
ACAD_XREC_ROUNDTRIP
360
370CD
  0
DICTIONARY
  5
370CE
330
10B5
100
AcDbDictionary
280
     1
281
     1
  3
ACAD_XREC_ROUNDTRIP
360
370CF
  0
DICTIONARY
  5
370D0
330
10B6
100
AcDbDictionary
280
     1
281
     1
  3
ACAD_XREC_ROUNDTRIP
360
370D1
  0
DICTIONARY
  5
370FA
330
328DF
100
AcDbDictionary
280
     1
281
     1
  3
ACAD_XREC_ROUNDTRIP
360
370FB
  0
DICTIONARY
  5
370F2
330
3201F
100
AcDbDictionary
280
     1
281
     1
  3
ACAD_XREC_ROUNDTRIP
360
370F3
  0
DICTIONARY
  5
370DC
330
10C0
100
AcDbDictionary
280
     1
281
     1
  3
ACAD_XREC_ROUNDTRIP
360
370DD
  0
DICTIONARY
  5
370F4
330
32020
100
AcDbDictionary
280
     1
281
     1
  3
ACAD_XREC_ROUNDTRIP
360
370F5
  0
DICTIONARY
  5
370EE
330
1D52
100
AcDbDictionary
280
     1
281
     1
  3
ACAD_XREC_ROUNDTRIP
360
370EF
  0
DICTIONARY
  5
37104
330
328E4
100
AcDbDictionary
280
     1
281
     1
  3
ACAD_XREC_ROUNDTRIP
360
37105
  0
DICTIONARY
  5
37102
330
328E3
100
AcDbDictionary
280
     1
281
     1
  3
ACAD_XREC_ROUNDTRIP
360
37103
  0
DICTIONARY
  5
370FC
330
328E0
100
AcDbDictionary
280
     1
281
     1
  3
ACAD_XREC_ROUNDTRIP
360
370FD
  0
DICTIONARY
  5
370FE
330
328E1
100
AcDbDictionary
280
     1
281
     1
  3
ACAD_XREC_ROUNDTRIP
360
370FF
  0
DICTIONARY
  5
370DA
330
10BF
100
AcDbDictionary
280
     1
281
     1
  3
ACAD_XREC_ROUNDTRIP
360
370DB
  0
DICTIONARY
  5
370F8
330
328DE
100
AcDbDictionary
280
     1
281
     1
  3
ACAD_XREC_ROUNDTRIP
360
370F9
  0
DICTIONARY
  5
37100
330
328E2
100
AcDbDictionary
280
     1
281
     1
  3
ACAD_XREC_ROUNDTRIP
360
37101
  0
XRECORD
  5
370C6
102
{ACAD_REACTORS
330
89C
102
}
330
89C
100
AcDbXrecord
280
     1
102
SHADEPLOT
 70
     0
102
SHADEPLOTRESLEVEL
 70
     2
102
SHADEPLOTCUSTOMDPI
 70
   300
  0
XRECORD
  5
89D
102
{ACAD_REACTORS
330
89C
102
}
330
89C
100
AcDbXrecord
280
     1
310
28000000B40000008B0000000100080000000000BC610000000000000000000000010000000000000000000000000000C8C8C8000000000000000000000000000000000000000000000000000000000000000000330000006600000099000000CC000000FF00000000330000333300006633000099330000CC330000FF3300
310
0000660000336600006666000099660000CC660000FF66000000990000339900006699000099990000CC990000FF99000000CC000033CC000066CC000099CC0000CCCC0000FFCC000000FF000033FF000066FF000099FF0000CCFF0000FFFF000000003300330033006600330099003300CC003300FF003300003333003333
310
33006633330099333300CC333300FF33330000663300336633006666330099663300CC663300FF66330000993300339933006699330099993300CC993300FF99330000CC330033CC330066CC330099CC3300CCCC3300FFCC330000FF330033FF330066FF330099FF3300CCFF3300FFFF330000006600330066006600660099
310
006600CC006600FF00660000336600333366006633660099336600CC336600FF33660000666600336666006666660099666600CC666600FF66660000996600339966006699660099996600CC996600FF99660000CC660033CC660066CC660099CC6600CCCC6600FFCC660000FF660033FF660066FF660099FF6600CCFF6600
310
FFFF660000009900330099006600990099009900CC009900FF00990000339900333399006633990099339900CC339900FF33990000669900336699006666990099669900CC669900FF66990000999900339999006699990099999900CC999900FF99990000CC990033CC990066CC990099CC9900CCCC9900FFCC990000FF99
310
0033FF990066FF990099FF9900CCFF9900FFFF99000000CC003300CC006600CC009900CC00CC00CC00FF00CC000033CC003333CC006633CC009933CC00CC33CC00FF33CC000066CC003366CC006666CC009966CC00CC66CC00FF66CC000099CC003399CC006699CC009999CC00CC99CC00FF99CC0000CCCC0033CCCC0066CC
310
CC0099CCCC00CCCCCC00FFCCCC0000FFCC0033FFCC0066FFCC0099FFCC00CCFFCC00FFFFCC000000FF003300FF006600FF009900FF00CC00FF00FF00FF000033FF003333FF006633FF009933FF00CC33FF00FF33FF000066FF003366FF006666FF009966FF00CC66FF00FF66FF000099FF003399FF006699FF009999FF00CC
310
99FF00FF99FF0000CCFF0033CCFF0066CCFF0099CCFF00CCCCFF00FFCCFF0000FFFF0033FFFF0066FFFF0099FFFF00CCFFFF00FFFFFF00000000000D0D0D001A1A1A00282828003535350043434300505050005D5D5D006B6B6B00787878008686860093939300A1A1A100AEAEAE00BBBBBB00C9C9C900D6D6D600E4E4E400
310
F1F1F100FFFFFF000000000000000000000000000000000000000000000000000000000000000000000000000000000000000000000000000000000000000000000000000000000000000000000000000000000000000000000000000000000000000000000000000000000000000000000000000000000000000000000000
310
00000000000000000000000000000000000000000000000000000000000000000000000000000000000000000000000000000000000000000000000000000000000000000000000000000000000000000000000000000000000000000000000000000000000000000000000000000000000000000000000000000000000000
310
00000000000000000000000000000000000000000000000000000000000000000000000000000000000000000000000000000000000000000000000000000000000000000000000000000000000000000000000000000000000000000000000000000000000000000000000000000000000000000000000000000000000000
310
00000000000000000000000000000000000000000000000000000000000000000000000000000000000000000000000000000000000000000000000000000000000000000000000000000000000000000000000000000000000000000000000000000000000000000000000000000000000000000000000000000000000000
310
00000000000000000000000000000000000000000000000000000000000000000000000000000000000000000000000000000000000000000000000000000000000000000000000000000000000000000000000000000000000000000000000000000000000000000000000000000000000000000000000000000000000000
310
00000000000000000000000000000000000000000000000000000000000000000000000000000000000000000000000000000000000000000000000000000000000000000000000000000000000000000000000000000000000000000000000000000000000000000000000000000000000000000000000000000000000000
310
00000000000000000000000000000000000000000000000000000000000000000000000000000000000000000000000000000000000000000000000000000000000000000000000000000000000000000000000000000000000000000000000000000000000000000000000000000000000000000000000000000000000000
310
00000000000000000000000000000000000000000000000000000000000000000000000000000000000000000000000000000000000000000000000000000000000000000000000000000000000000000000000000000000000000000000000000000000000000000000000000000000000000000000000000000000000000
310
00000000000000000000000000000000000000000000000000000000000000000000000000000000000000000000000000000000000000000000000000000000000000000000000000000000000000000000000000000000000000000000000000000000000000000000000000000000000000000000000000000000000000
310
00000000000000000000000000000000000000000000000000000000000000000000000000000000000000000000000000000000000000000000000000000000000000000000000000000000000000000000000000000000000000000000000000000000000000000000000000000000000000000000000000000000000000
310
00000000000000000000000000000000000000000000000000000000000000000000000000000000000000000000000000000000000000000000000000000000000000000000000000000000000000000000000000000000000000000000000000000000000000000000000000000000000000000000000000000000000000
310
00000000000000000000000000000000000000000000000000000000000000000000000000000000000000000000000000000000000000000000000000000000000000000000000000000000000000000000000000000000000000000000000000000000000000000000000000000000000000000000000000000000000000
310
00000000000000000000000000000000000000000000000000000000000000000000000000000000000000000000000000000000000000000000000000000000000000000000000000000000000000000000000000000000000000000000000000000000000000000000000000000000000000000000000000000000000000
310
00000000000000000000000000000000000000000000000000000000000000000000000000000000000000000000000000000000000000000000000000000000000000000000000000000000000000000000000000000000000000000000000000000000000000000000000000000000000000000000000000000000000000
310
00000000000000000000000000000000000000000000000000000000000000000000000000000000000000000000000000000000000000000000000000000000000000000000000000000000000000000000000000000000000000000000000000000000000000000000000000000000000000000000000000000000000000
310
00000000000000000000000000000000000000000000000000000000000000000000000000000000000000000000000000000000000000000000000000000000000000000000000000000000000000000000000000000000000000000000000000000000000000000000000000000000000000000000000000000000000000
310
00000000000000000000000000000000000000000000000000000000000000000000000000000000000000000000000000000000000000000000000000000000000000000000000000000000000000000000000000000000000000000000000000000000000000000000000000000000000000000000000000000000000000
310
00000000000000000000000000000000000000000000000000000000000000000000000000000000000000000000000000000000000000000000000000000000000000000000000000000000000000000000000000000000000000000000000000000000000000000000000000000000000000000000000000000000000000
310
00000000000000000000000000000000000000000000000000000000000000000000000000000000000000000000000000000000000000000000000000000000000000000000000000000000000000000000000000000000000000000000000000000000000000000000000000000000000000000000000000000000000000
310
00000000000000000000000000000000000000000000000000000000000000000000000000000000000000000000000000000000000000000000000000000000000000000000000000000000000000000000000000000000000000000000000000000000000000000000000000000000000000000000000000000000000000
310
00000000000000000000000000000000000000000000000000000000000000000000000000000000000000000000000000000000000000000000000000000000000000000000000000000000000000000000000000000000000000000000000000000000000000000000000000000000000000000000000000000000000000
310
00000000000000000000000000000000000000000000000000000000000000000000000000000000000000000000000000000000000000000000000000000000000000000000000000000000000000000000000000000000000000000000000000000000000000000000000000000000000000000000000000000000000000
310
00000000000000000000000000000000000000000000000000000000000000000000000000000000000000000000000000000000000000000000000000000000000000000000000000000000000000000000000000000000000000000000000000000000000000000000000000000000000000000000000000000000000000
310
00000000000000000000000000000000000000000000000000000000000000000000000000000000000000000000000000000000000000000000000000000000000000000000000000000000000000000000000000000000000000000000000000000000000000000000000000000000000000000000000000000000000000
310
00000000000000000000000000000000000000000000000000000000000000000000000000000000000000000000000000000000000000000000000000000000000000000000000000000000000000000000000000000000000000000000000000000000000000000000000000000000000000000000000000000000000000
310
00000000000000000000000000000000000000000000000000000000000000000000000000000000000000000000000000000000000000000000000000000000000000000000000000000000000000000000000000000000000000000000000000000000000000000000000000000000000000000000000000000000000000
310
00000000000000000000000000000000000000000000000000000000000000000000000000000000000000000000000000000000000000000000000000000000000000000000000000000000000000000000000000000000000000000000000000000000000000000000000000000000000000000000000000000000000000
310
00000000000000000000000000000000000000000000000000000000000000000000000000000000000000000000000000000000000000000000000000000000000000000000000000000000000000000000000000000000000000000000000000000000000000000000000000000000000000000000000000000000000000
310
00000000000000000000000000000000000000000000000000000000000000000000000000000000000000000000000000000000000000000000000000000000000000000000000000000000000000000000000000000000000000000000000000000000000000000000000000000000000000000000000000000000000000
310
00000000000000000000000000000000000000000000000000000000000000000000000000000000000000000000000000000000000000000000000000000000000000000000000000000000000000000000000000000000000000000000000000000000000000000000000000000000000000000000000000000000000000
310
00000000000000000000000000000000000000000000000000000000000000000000000000000000000000000000000000000000000000000000000000000000000000000000000000000000000000000000000000000000000000000000000000000000000000000000000000000000000000000000000000000000000000
310
00000000000000000000000000000000000000000000000000000000000000000000000000000000000000000000000000000000000000000000000000000000000000000000000000000000000000000000000000000000000000000000000000000000000000000000000000000000000000000000000000000000000000
310
00000000000000000000000000000000000000000000000000000000000000000000000000000000000000000000000000000000000000000000000000000000000000000000000000000000000000000000000000000000000000000000000000000000000000000000000000000000000000000000000000000000000000
310
00000000000000000000000000000000000000000000000000000000000000000000000000000000000000000000000000000000000000000000000000000000000000000000000000000000000000000000000000000000000000000000000000000000000000000000000000000000000000000000000000000000000000
310
00000000000000000000000000000000000000000000000000000000000000000000000000000000000000000000000000000000000000000000000000000000000000000000000000000000000000000000000000000000000000000000000000000000000000000000000000000000000000000000000000000000000000
310
00000000000000000000000000000000000000000000000000000000000000000000000000000000000000000000000000000000000000000000000000000000000000000000000000000000000000000000000000000000000000000000000000000000000000000000000000000000000000000000000000000000000000
310
00000000000000000000000000000000000000000000000000000000000000000000000000000000000000000000000000000000000000000000000000000000000000000000000000000000000000000000000000000000000000000000000000000000000000000000000000000000000000000000000000000000000000
310
00000000000000000000000000000000000000000000000000000000000000000000000000000000000000000000000000000000000000000000000000000000000000000000000000000000000000000000000000000000000000000000000000000000000000000000000000000000000000000000000000000000000000
310
00000000000000000000000000000000000000000000000000000000000000000000000000000000000000000000000000000000000000000000000000000000000000000000000000000000000000000000000000000000000000000000000000000000000000000000000000000000000000000000000000000000000000
310
00000000000000000000000000000000000000000000000000000000000000000000000000000000000000000000000000000000000000000000000000000000000000000000000000000000000000000000000000000000000000000000000000000000000000000000000000000000000000000000000000000000000000
310
00000000000000000000000000000000000000000000000000000000000000000000000000000000000000000000000000000000000000000000000000000000000000000000000000000000000000000000000000000000000000000000000000000000000000000000000000000000000000000000000000000000000000
310
00000000000000000000000000000000000000000000000000000000000000000000000000000000000000000000000000000000000000000000000000000000000000000000000000000000000000000000000000000000000000000000000000000000000000000000000000000000000000000000000000000000000000
310
00000000000000000000000000000000000000000000000000000000000000000000000000000000000000000000000000000000000000000000000000000000000000000000000000000000000000000000000000000000000000000000000000000000000000000000000000000000000000000000000000000000000000
310
00000000000000000000000000000000000000000000000000000000000000000000000000000000000000000000000000000000000000000000000000000000000000000000000000000000000000000000000000000000000000000000000000000000000000000000000000000000000000000000000000000000000000
310
00000000000000000000000000000000000000000000000000000000000000000000000000000000000000000000000000000000000000000000000000000000000000000000000000000000000000000000000000000000000000000000000000000000000000000000000000000000000000000000000000000000000000
310
00000000000000000000000000000000000000000000000000000000000000000000000000000000000000000000000000000000000000000000000000000000000000000000000000000000000000000000000000000000000000000000000000000000000000000000000000000000000000000000000000000000000000
310
00000000000000000000000000000000000000000000000000000000000000000000000000000000000000000000000000000000000000000000000000000000000000000000000000000000000000000000000000000000000000000000000000000000000000000000000000000000000000000000000000000000000000
310
00000000000000000000000000000000000000000000000000000000000000000000000000000000000000000000000000000000000000000000000000000000000000000000000000000000000000000000000000000000000000000000000000000000000000000000000000000000000000000000000000000000000000
310
00000000000000000000000000000000000000000000000000000000000000000000000000000000000000000000000000000000000000000000000000000000000000000000000000000000000000000000000000000000000000000000000000000000000000000000000000000000000000000000000000000000000000
310
00000000000000000000000000000000000000000000000000000000000000000000000000000000000000000000000000000000000000000000000000000000000000000000000000000000000000000000000000000000000000000000000000000000000000000000000000000000000000000000000000000000000000
310
00000000000000000000000000000000000000000000000000000000000000000000000000000000000000000000000000000000000000000000000000000000000000000000000000000000000000000000000000000000000000000000000000000000000000000000000000000000000000000000000000000000000000
310
00000000000000000000000000000000000000000000000000000000000000000000000000000000000000000000000000000000000000000000000000000000000000000000000000000000000000000000000000000000000000000000000000000000000000000000000000000000000000000000000000000000000000
310
00000000000000000000000000000000000000000000000000000000000000000000000000000000000000000000000000000000000000000000000000000000000000000000000000000000000000000000000000000000000000000000000000000000000000000000000000000000000000000000000000000000000000
310
00000000000000000000000000000000000000000000000000000000000000000000000000000000000000000000000000000000000000000000000000000000000000000000000000000000000000000000000000000000000000000000000000000000000000000000000000000000000000000000000000000000000000
310
00000000000000000000000000000000000000000000000000000000000000000000000000000000000000000000000000000000000000000000000000000000000000000000000000000000000000000000000000000000000000000000000000000000000000000000000000000000000000000000000000000000000000
310
00000000000000000000000000000000000000000000000000000000000000000000000000000000000000000000000000000000000000000000000000000000000000000000000000000000000000000000000000000000000000000000000000000000000000000000000000000000000000000000000000000000000000
310
00000000000000000000000000000000000000000000000000000000000000000000000000000000000000000000000000000000000000000000000000000000000000000000000000000000000000000000000000000000000000000000000000000000000000000000000000000000000000000000000000000000000000
310
00000000000000000000000000000000000000000000000000000000000000000000000000000000000000000000000000000000000000000000000000000000000000000000000000000000000000000000000000000000000000000000000000000000000000000000000000000000000000000000000000000000000000
310
00000000000000000000000000000000000000000000000000000000000000000000000000000000000000000000000000000000000000000000000000000000000000000000000000000000000000000000000000000000000000000000000000000000000000000000000000000000000000000000000000000000000000
310
00000000000000000000000000000000000000000000000000000000000000000000000000000000000000000000000000000000000000000000000000000000000000000000000000000000000000000000000000000000000000000000000000000000000000000000000000000000000000000000000000000000000000
310
00000000000000000000000000000000000000000000000000000000000000000000000000000000000000000000000000000000000000000000000000000000000000000000000000000000000000000000000000000000000000000000000000000000000000000000000000000000000000000000000000000000000000
310
00000000000000000000000000000000000000000000000000000000000000000000000000000000000000000000000000000000000000000000000000000000000000000000000000000000000000000000000000000000000000000000000000000000000000000000000000000000000000000000000000000000000000
310
00000000000000000000000000000000000000000000000000000000000000000000000000000000000000000000000000000000000000000000000000000000000000000000000000000000000000000000000000000000000000000000000000000000000000000000000000000000000000000000000000000000000000
310
00000000000000000000000000000000000000000000000000000000000000000000000000000000000000000000000000000000000000000000000000000000000000000000000000000000000000000000000000000000000000000000000000000000000000000000000000000000000000000000000000000000000000
310
00000000000000000000000000000000000000000000000000000000000000000000000000000000000000000000000000000000000000000000000000000000000000000000000000000000000000000000000000000000000000000000000000000000000000000000000000000000000000000000000000000000000000
310
00000000000000000000000000000000000000000000000000000000000000000000000000000000000000000000000000000000000000000000000000000000000000000000000000000000000000000000000000000000000000000000000000000000000000000000000000000000000000000000000000000000000000
310
00000000000000000000000000000000000000000000000000000000000000000000000000000000000000000000000000000000000000000000000000000000000000000000000000000000000000000000000000000000000000000000000000000000000000000000000000000000000000000000000000000000000000
310
00000000000000000000000000000000000000000000000000000000000000000000000000000000000000000000000000000000000000000000000000000000000000000000000000000000000000000000000000000000000000000000000000000000000000000000000000000000000000000000000000000000000000
310
00000000000000000000000000000000000000000000000000000000000000000000000000000000000000000000000000000000000000000000000000000000000000000000000000000000000000000000000000000000000000000000000000000000000000000000000000000000000000000000000000000000000000
310
00000000000000000000000000000000000000000000000000000000000000000000000000000000000000000000000000000000000000000000000000000000000000000000000000000000000000000000000000000000000000000000000000000000000000000000000000000000000000000000000000000000000000
310
00000000000000000000000000000000000000000000000000000000000000000000000000000000000000000000000000000000000000000000000000000000000000000000000000000000000000000000000000000000000000000000000000000000000000000000000000000000000000000000000000000000000000
310
00000000000000000000000000000000000000000000000000000000000000000000000000000000000000000000000000000000000000000000000000000000000000000000000000000000000000000000000000000000000000000000000000000000000000000000000000000000000000000000000000000000000000
310
00000000000000000000000000000000000000000000000000000000000000000000000000000000000000000000000000000000000000000000000000000000000000000000000000000000000000000000000000000000000000000000000000000000000000000000000000000000000000000000000000000000000000
310
00000000000000000000000000000000000000000000000000000000000000000000000000000000000000000000000000000000000000000000000000000000000000000000000000000000000000000000000000000000000000000000000000000000000000000000000000000000000000000000000000000000000000
310
00000000000000000000000000000000000000000000000000000000000000000000000000000000000000000000000000000000000000000000000000000000000000000000000000000000000000000000000000000000000000000000000000000000000000000000000000000000000000000000000000000000000000
310
00000000000000000000000000000000000000000000000000000000000000000000000000000000000000000000000000000000000000000000000000000000000000000000000000000000000000000000000000000000000000000000000000000000000000000000000000000000000000000000000000000000000000
310
00000000000000000000000000000000000000000000000000000000000000000000000000000000000000000000000000000000000000000000000000000000000000000000000000000000000000000000000000000000000000000000000000000000000000000000000000000000000000000000000000000000000000
310
00000000000000000000000000000000000000000000000000000000000000000000000000000000000000000000000000000000000000000000000000000000000000000000000000000000000000000000000000000000000000000000000000000000000000000000000000000000000000000000000000000000000000
310
00000000000000000000000000000000000000000000000000000000000000000000000000000000000000000000000000000000000000000000000000000000000000000000000000000000000000000000000000000000000000000000000000000000000000000000000000000000000000000000000000000000000000
310
00000000000000000000000000000000000000000000000000000000000000000000000000000000000000000000000000000000000000000000000000000000000000000000000000000000000000000000000000000000000000000000000000000000000000000000000000000000000000000000000000000000000000
310
00000000000000000000000000000000000000000000000000000000000000000000000000000000000000000000000000000000000000000000000000000000000000000000000000000000000000000000000000000000000000000000000000000000000000000000000000000000000000000000000000000000000000
310
00000000000000000000000000000000000000000000000000000000000000000000000000000000000000000000000000000000000000000000000000000000000000000000000000000000000000000000000000000000000000000000000000000000000000000000000000000000000000000000000000000000000000
310
00000000000000000000000000000000000000000000000000000000000000000000000000000000000000000000000000000000000000000000000000000000000000000000000000000000000000000000000000000000000000000000000000000000000000000000000000000000000000000000000000000000000000
310
00000000000000000000000000000000000000000000000000000000000000000000000000000000000000000000000000000000000000000000000000000000000000000000000000000000000000000000000000000000000000000000000000000000000000000000000000000000000000000000000000000000000000
310
00000000000000000000000000000000000000000000000000000000000000000000000000000000000000000000000000000000000000000000000000000000000000000000000000000000000000000000000000000000000000000000000000000000000000000000000000000000000000000000000000000000000000
310
00000000000000000000000000000000000000000000000000000000000000000000000000000000000000000000000000000000000000000000000000000000000000000000000000000000000000000000000000000000000000000000000000000000000000000000000000000000000000000000000000000000000000
310
00000000000000000000000000000000000000000000000000000000000000000000000000000000000000000000000000000000000000000000000000000000000000000000000000000000000000000000000000000000000000000000000000000000000000000000000000000000000000000000000000000000000000
310
00000000000000000000000000000000000000000000000000000000000000000000000000000000000000000000000000000000000000000000000000000000000000000000000000000000000000000000000000000000000000000000000000000000000000000000000000000000000000000000000000000000000000
310
00000000000000000000000000000000000000000000000000000000000000000000000000000000000000000000000000000000000000000000000000000000000000000000000000000000000000000000000000000000000000000000000000000000000000000000000000000000000000000000000000000000000000
310
00000000000000000000000000000000000000000000000000000000000000000000000000000000000000000000000000000000000000000000000000000000000000000000000000000000000000000000000000000000000000000000000000000000000000000000000000000000000000000000000000000000000000
310
00000000000000000000000000000000000000000000000000000000000000000000000000000000000000000000000000000000000000000000000000000000000000000000000000000000000000000000000000000000000000000000000000000000000000000000000000000000000000000000000000000000000000
310
00000000000000000000000000000000000000000000000000000000000000000000000000000000000000000000000000000000000000000000000000000000000000000000000000000000000000000000000000000000000000000000000000000000000000000000000000000000000000000000000000000000000000
310
00000000000000000000000000000000000000000000000000000000000000000000000000000000000000000000000000000000000000000000000000000000000000000000000000000000000000000000000000000000000000000000000000000000000000000000000000000000000000000000000000000000000000
310
00000000000000000000000000000000000000000000000000000000000000000000000000000000000000000000000000000000000000000000000000000000000000000000000000000000000000000000000000000000000000000000000000000000000000000000000000000000000000000000000000000000000000
310
00000000000000000000000000000000000000000000000000000000000000000000000000000000000000000000000000000000000000000000000000000000000000000000000000000000000000000000000000000000000000000000000000000000000000000000000000000000000000000000000000000000000000
310
00000000000000000000000000000000000000000000000000000000000000000000000000000000000000000000000000000000000000000000000000000000000000000000000000000000000000000000000000000000000000000000000000000000000000000000000000000000000000000000000000000000000000
310
00000000000000000000000000000000000000000000000000000000000000000000000000000000000000000000000000000000000000000000000000000000000000000000000000000000000000000000000000000000000000000000000000000000000000000000000000000000000000000000000000000000000000
310
00000000000000000000000000000000000000000000000000000000000000000000000000000000000000000000000000000000000000000000000000000000000000000000000000000000000000000000000000000000000000000000000000000000000000000000000000000000000000000000000000000000000000
310
00000000000000000000000000000000000000000000000000000000000000000000000000000000000000000000000000000000000000000000000000000000000000000000000000000000000000000000000000000000000000000000000000000000000000000000000000000000000000000000000000000000000000
310
00000000000000000000000000000000000000000000000000000000000000000000000000000000000000000000000000000000000000000000000000000000000000000000000000000000000000000000000000000000000000000000000000000000000000000000000000000000000000000000000000000000000000
310
00000000000000000000000000000000000000000000000000000000000000000000000000000000000000000000000000000000000000000000000000000000000000000000000000000000000000000000000000000000000000000000000000000000000000000000000000000000000000000000000000000000000000
310
00000000000000000000000000000000000000000000000000000000000000000000000000000000000000000000000000000000000000000000000000000000000000000000000000000000000000000000000000000000000000000000000000000000000000000000000000000000000000000000000000000000000000
310
00000000000000000000000000000000000000000000000000000000000000000000000000000000000000000000000000000000000000000000000000000000000000000000000000000000000000000000000000000000000000000000000000000000000000000000000000000000000000000000000000000000000000
310
00000000000000000000000000000000000000000000000000000000000000000000000000000000000000000000000000000000000000000000000000000000000000000000000000000000000000000000000000000000000000000000000000000000000000000000000000000000000000000000000000000000000000
310
00000000000000000000000000000000000000000000000000000000000000000000000000000000000000000000000000000000000000000000000000000000000000000000000000000000000000000000000000000000000000000000000000000000000000000000000000000000000000000000000000000000000000
310
00000000000000000000000000000000000000000000000000000000000000000000000000000000000000000000000000000000000000000000000000000000000000000000000000000000000000000000000000000000000000000000000000000000000000000000000000000000000000000000000000000000000000
310
00000000000000000000000000000000000000000000000000000000000000000000000000000000000000000000000000000000000000000000000000000000000000000000000000000000000000000000000000000000000000000000000000000000000000000000000000000000000000000000000000000000000000
310
00000000000000000000000000000000000000000000000000000000000000000000000000000000000000000000000000000000000000000000000000000000000000000000000000000000000000000000000000000000000000000000000000000000000000000000000000000000000000000000000000000000000000
310
00000000000000000000000000000000000000000000000000000000000000000000000000000000000000000000000000000000000000000000000000000000000000000000000000000000000000000000000000000000000000000000000000000000000000000000000000000000000000000000000000000000000000
310
00000000000000000000000000000000000000000000000000000000000000000000000000000000000000000000000000000000000000000000000000000000000000000000000000000000000000000000000000000000000000000000000000000000000000000000000000000000000000000000000000000000000000
310
00000000000000000000000000000000000000000000000000000000000000000000000000000000000000000000000000000000000000000000000000000000000000000000000000000000000000000000000000000000000000000000000000000000000000000000000000000000000000000000000000000000000000
310
00000000000000000000000000000000000000000000000000000000000000000000000000000000000000000000000000000000000000000000000000000000000000000000000000000000000000000000000000000000000000000000000000000000000000000000000000000000000000000000000000000000000000
310
00000000000000000000000000000000000000000000000000000000000000000000000000000000000000000000000000000000000000000000000000000000000000000000000000000000000000000000000000000000000000000000000000000000000000000000000000000000000000000000000000000000000000
310
00000000000000000000000000000000000000000000000000000000000000000000000000000000000000000000000000000000000000000000000000000000000000000000000000000000000000000000000000000000000000000000000000000000000000000000000000000000000000000000000000000000000000
310
00000000000000000000000000000000000000000000000000000000000000000000000000000000000000000000000000000000000000000000000000000000000000000000000000000000000000000000000000000000000000000000000000000000000000000000000000000000000000000000000000000000000000
310
00000000000000000000000000000000000000000000000000000000000000000000000000000000000000000000000000000000000000000000000000000000000000000000000000000000000000000000000000000000000000000000000000000000000000000000000000000000000000000000000000000000000000
310
00000000000000000000000000000000000000000000000000000000000000000000000000000000000000000000000000000000000000000000000000000000000000000000000000000000000000000000000000000000000000000000000000000000000000000000000000000000000000000000000000000000000000
310
00000000000000000000000000000000000000000000000000000000000000000000000000000000000000000000000000000000000000000000000000000000000000000000000000000000000000000000000000000000000000000000000000000000000000000000000000000000000000000000000000000000000000
310
00000000000000000000000000000000000000000000000000000000000000000000000000000000000000000000000000000000000000000000000000000000000000000000000000000000000000000000000000000000000000000000000000000000000000000000000000000000000000000000000000000000000000
310
00000000000000000000000000000000000000000000000000000000000000000000000000000000000000000000000000000000000000000000000000000000000000000000000000000000000000000000000000000000000000000000000000000000000000000000000000000000000000000000000000000000000000
310
00000000000000000000000000000000000000000000000000000000000000000000000000000000000000000000000000000000000000000000000000000000000000000000000000000000000000000000000000000000000000000000000000000000000000000000000000000000000000000000000000000000000000
310
00000000000000000000000000000000000000000000000000000000000000000000000000000000000000000000000000000000000000000000000000000000000000000000000000000000000000000000000000000000000000000000000000000000000000000000000000000000000000000000000000000000000000
310
00000000000000000000000000000000000000000000000000000000000000000000000000000000000000000000000000000000000000000000000000000000000000000000000000000000000000000000000000000000000000000000000000000000000000000000000000000000000000000000000000000000000000
310
00000000000000000000000000000000000000000000000000000000000000000000000000000000000000000000000000000000000000000000000000000000000000000000000000000000000000000000000000000000000000000000000000000000000000000000000000000000000000000000000000000000000000
310
00000000000000000000000000000000000000000000000000000000000000000000000000000000000000000000000000000000000000000000000000000000000000000000000000000000000000000000000000000000000000000000000000000000000000000000000000000000000000000000000000000000000000
310
00000000000000000000000000000000000000000000000000000000000000000000000000000000000000000000000000000000000000000000000000000000000000000000000000000000000000000000000000000000000000000000000000000000000000000000000000000000000000000000000000000000000000
310
00000000000000000000000000000000000000000000000000000000000000000000000000000000000000000000000000000000000000000000000000000000000000000000000000000000000000000000000000000000000000000000000000000000000000000000000000000000000000000000000000000000000000
310
00000000000000000000000000000000000000000000000000000000000000000000000000000000000000000000000000000000000000000000000000000000000000000000000000000000000000000000000000000000000000000000000000000000000000000000000000000000000000000000000000000000000000
310
00000000000000000000000000000000000000000000000000000000000000000000000000000000000000000000000000000000000000000000000000000000000000000000000000000000000000000000000000000000000000000000000000000000000000000000000000000000000000000000000000000000000000
310
00000000000000000000000000000000000000000000000000000000000000000000000000000000000000000000000000000000000000000000000000000000000000000000000000000000000000000000000000000000000000000000000000000000000000000000000000000000000000000000000000000000000000
310
00000000000000000000000000000000000000000000000000000000000000000000000000000000000000000000000000000000000000000000000000000000000000000000000000000000000000000000000000000000000000000000000000000000000000000000000000000000000000000000000000000000000000
310
00000000000000000000000000000000000000000000000000000000000000000000000000000000000000000000000000000000000000000000000000000000000000000000000000000000000000000000000000000000000000000000000000000000000000000000000000000000000000000000000000000000000000
310
00000000000000000000000000000000000000000000000000000000000000000000000000000000000000000000000000000000000000000000000000000000000000000000000000000000000000000000000000000000000000000000000000000000000000000000000000000000000000000000000000000000000000
310
00000000000000000000000000000000000000000000000000000000000000000000000000000000000000000000000000000000000000000000000000000000000000000000000000000000000000000000000000000000000000000000000000000000000000000000000000000000000000000000000000000000000000
310
00000000000000000000000000000000000000000000000000000000000000000000000000000000000000000000000000000000000000000000000000000000000000000000000000000000000000000000000000000000000000000000000000000000000000000000000000000000000000000000000000000000000000
310
00000000000000000000000000000000000000000000000000000000000000000000000000000000000000000000000000000000000000000000000000000000000000000000000000000000000000000000000000000000000000000000000000000000000000000000000000000000000000000000000000000000000000
310
00000000000000000000000000000000000000000000000000000000000000000000000000000000000000000000000000000000000000000000000000000000000000000000000000000000000000000000000000000000000000000000000000000000000000000000000000000000000000000000000000000000000000
310
00000000000000000000000000000000000000000000000000000000000000000000000000000000000000000000000000000000000000000000000000000000000000000000000000000000000000000000000000000000000000000000000000000000000000000000000000000000000000000000000000000000000000
310
00000000000000000000000000000000000000000000000000000000000000000000000000000000000000000000000000000000000000000000000000000000000000000000000000000000000000000000000000000000000000000000000000000000000000000000000000000000000000000000000000000000000000
310
00000000000000000000000000000000000000000000000000000000000000000000000000000000000000000000000000000000000000000000000000000000000000000000000000000000000000000000000000000000000000000000000000000000000000000000000000000000000000000000000000000000000000
310
00000000000000000000000000000000000000000000000000000000000000000000000000000000000000000000000000000000000000000000000000000000000000000000000000000000000000000000000000000000000000000000000000000000000000000000000000000000000000000000000000000000000000
310
00000000000000000000000000000000000000000000000000000000000000000000000000000000000000000000000000000000000000000000000000000000000000000000000000000000000000000000000000000000000000000000000000000000000000000000000000000000000000000000000000000000000000
310
00000000000000000000000000000000000000000000000000000000000000000000000000000000000000000000000000000000000000000000000000000000000000000000000000000000000000000000000000000000000000000000000000000000000000000000000000000000000000000000000000000000000000
310
00000000000000000000000000000000000000000000000000000000000000000000000000000000000000000000000000000000000000000000000000000000000000000000000000000000000000000000000000000000000000000000000000000000000000000000000000000000000000000000000000000000000000
310
00000000000000000000000000000000000000000000000000000000000000000000000000000000000000000000000000000000000000000000000000000000000000000000000000000000000000000000000000000000000000000000000000000000000000000000000000000000000000000000000000000000000000
310
00000000000000000000000000000000000000000000000000000000000000000000000000000000000000000000000000000000000000000000000000000000000000000000000000000000000000000000000000000000000000000000000000000000000000000000000000000000000000000000000000000000000000
310
00000000000000000000000000000000000000000000000000000000000000000000000000000000000000000000000000000000000000000000000000000000000000000000000000000000000000000000000000000000000000000000000000000000000000000000000000000000000000000000000000000000000000
310
00000000000000000000000000000000000000000000000000000000000000000000000000000000000000000000000000000000000000000000000000000000000000000000000000000000000000000000000000000000000000000000000000000000000000000000000000000000000000000000000000000000000000
310
00000000000000000000000000000000000000000000000000000000000000000000000000000000000000000000000000000000000000000000000000000000000000000000000000000000000000000000000000000000000000000000000000000000000000000000000000000000000000000000000000000000000000
310
00000000000000000000000000000000000000000000000000000000000000000000000000000000000000000000000000000000000000000000000000000000000000000000000000000000000000000000000000000000000000000000000000000000000000000000000000000000000000000000000000000000000000
310
00000000000000000000000000000000000000000000000000000000000000000000000000000000000000000000000000000000000000000000000000000000000000000000000000000000000000000000000000000000000000000000000000000000000000000000000000000000000000000000000000000000000000
310
00000000000000000000000000000000000000000000000000000000000000000000000000000000000000000000000000000000000000000000000000000000000000000000000000000000000000000000000000000000000000000000000000000000000000000000000000000000000000000000000000000000000000
310
00000000000000000000000000000000000000000000000000000000000000000000000000000000000000000000000000000000000000000000000000000000000000000000000000000000000000000000000000000000000000000000000000000000000000000000000000000000000000000000000000000000000000
310
00000000000000000000000000000000000000000000000000000000000000000000000000000000000000000000000000000000000000000000000000000000000000000000000000000000000000000000000000000000000000000000000000000000000000000000000000000000000000000000000000000000000000
310
00000000000000000000000000000000000000000000000000000000000000000000000000000000000000000000000000000000000000000000000000000000000000000000000000000000000000000000000000000000000000000000000000000000000000000000000000000000000000000000000000000000000000
310
00000000000000000000000000000000000000000000000000000000000000000000000000000000000000000000000000000000000000000000000000000000000000000000000000000000000000000000000000000000000000000000000000000000000000000000000000000000000000000000000000000000000000
310
00000000000000000000000000000000000000000000000000000000000000000000000000000000000000000000000000000000000000000000000000000000000000000000000000000000000000000000000000000000000000000000000000000000000000000000000000000000000000000000000000000000000000
310
00000000000000000000000000000000000000000000000000000000000000000000000000000000000000000000000000000000000000000000000000000000000000000000000000000000000000000000000000000000000000000000000000000000000000000000000000000000000000000000000000000000000000
310
00000000000000000000000000000000000000000000000000000000000000000000000000000000000000000000000000000000000000000000000000000000000000000000000000000000000000000000000000000000000000000000000000000000000000000000000000000000000000000000000000000000000000
310
00000000000000000000000000000000000000000000000000000000000000000000000000000000000000000000000000000000000000000000000000000000000000000000000000000000000000000000000000000000000000000000000000000000000000000000000000000000000000000000000000000000000000
310
00000000000000000000000000000000000000000000000000000000000000000000000000000000000000000000000000000000000000000000000000000000000000000000000000000000000000000000000000000000000000000000000000000000000000000000000000000000000000000000000000000000000000
310
00000000000000000000000000000000000000000000000000000000000000000000000000000000000000000000000000000000000000000000000000000000000000000000000000000000000000000000000000000000000000000000000000000000000000000000000000000000000000000000000000000000000000
310
00000000000000000000000000000000000000000000000000000000000000000000000000000000000000000000000000000000000000000000000000000000000000000000000000000000000000000000000000000000000000000000000000000000000000000000000000000000000000000000000000000000000000
310
00000000000000000000000000000000000000000000000000000000000000000000000000000000000000000000000000000000000000000000000000000000000000000000000000000000000000000000000000000000000000000000000000000000000000000000000000000000000000000000000000000000000000
310
00000000000000000000000000000000000000000000000000000000000000000000000000000000000000000000000000000000000000000000000000000000000000000000000000000000000000000000000000000000000000000000000000000000000000000000000000000000000000000000000000000000000000
310
00000000000000000000000000000000000000000000000000000000000000000000000000000000000000000000000000000000000000000000000000000000000000000000000000000000000000000000000000000000000000000000000000000000000000000000000000000000000000000000000000000000000000
310
00000000000000000000000000000000000000000000000000000000000000000000000000000000000000000000000000000000000000000000000000000000000000000000000000000000000000000000000000000000000000000000000000000000000000000000000000000000000000000000000000000000000000
310
00000000000000000000000000000000000000000000000000000000000000000000000000000000000000000000000000000000000000000000000000000000000000000000000000000000000000000000000000000000000000000000000000000000000000000000000000000000000000000000000000000000000000
310
00000000000000000000000000000000000000000000000000000000000000000000000000000000000000000000000000000000000000000000000000000000000000000000000000000000000000000000000000000000000000000000000000000000000000000000000000000000000000000000000000000000000000
310
00000000000000000000000000000000000000000000000000000000000000000000000000000000000000000000000000000000000000000000000000000000000000000000000000000000000000000000000000000000000000000000000000000000000000000000000000000000000000000000000000000000000000
310
00000000000000000000000000000000000000000000000000000000000000000000000000000000000000000000000000000000000000000000000000000000000000000000000000000000000000000000000000000000000000000000000000000000000000000000000000000000000000000000000000000000000000
310
00000000000000000000000000000000000000000000000000000000000000000000000000000000000000000000000000000000000000000000000000000000000000000000000000000000000000000000000000000000000000000000000000000000000000000000000000000000000000000000000000000000000000
310
00000000000000000000000000000000000000000000000000000000000000000000000000000000000000000000000000000000000000000000000000000000000000000000000000000000000000000000000000000000000000000000000000000000000000000000000000000000000000000000000000000000000000
310
00000000000000000000000000000000000000000000000000000000000000000000000000000000000000000000000000000000000000000000000000000000000000000000000000000000000000000000000000000000000000000000000000000000000000000000000000000000000000000000000000000000000000
310
00000000000000000000000000000000000000000000000000000000000000000000000000000000000000000000000000000000000000000000000000000000000000000000000000000000000000000000000000000000000000000000000000000000000000000000000000000000000000000000000000000000000000
310
00000000000000000000000000000000000000000000000000000000000000000000000000000000000000000000000000000000000000000000000000000000000000000000000000000000000000000000000000000000000000000000000000000000000000000000000000000000000000000000000000000000000000
310
00000000000000000000000000000000000000000000000000000000000000000000000000000000000000000000000000000000000000000000000000000000000000000000000000000000000000000000000000000000000000000000000000000000000000000000000000000000000000000000000000000000000000
310
00000000000000000000000000000000000000000000000000000000000000000000000000000000000000000000000000000000000000000000000000000000000000000000000000000000000000000000000000000000000000000000000000000000000000000000000000000000000000000000000000000000000000
310
00000000000000000000000000000000000000000000000000000000000000000000000000000000000000000000000000000000000000000000000000000000000000000000000000000000000000000000000000000000000000000000000000000000000000000000000000000000000000000000000000000000000000
310
00000000000000000000000000000000000000000000000000000000000000000000000000000000000000000000000000000000000000000000000000000000000000000000000000000000000000000000000000000000000000000000000000000000000000000000000000000000000000000000000000000000000000
310
00000000000000000000000000000000000000000000000000000000000000000000000000000000000000000000000000000000000000000000000000000000000000000000000000000000000000000000000000000000000000000000000000000000000000000000000000000000000000000000000000000000000000
310
00000000000000000000000000000000000000000000000000000000000000000000000000000000000000000000000000000000000000000000000000000000000000000000000000000000000000000000000000000000000000000000000000000000000000000000000000000000000000000000000000000000000000
310
00000000000000000000000000000000000000000000000000000000000000000000000000000000000000000000000000000000000000000000000000000000000000000000000000000000000000000000000000000000000000000000000000000000000000000000000000000000000000000000000000000000000000
310
00000000000000000000000000000000000000000000000000000000000000000000000000000000000000000000000000000000000000000000000000000000000000000000000000000000000000000000000000000000000000000000000000000000000000000000000000000000000000000000000000000000000000
310
00000000000000000000000000000000000000000000000000000000000000000000000000000000000000000000000000000000000000000000000000000000000000000000000000000000000000000000000000000000000000000000000000000000000000000000000000000000000000000000000000000000000000
310
00000000000000000000000000000000000000000000000000000000000000000000000000000000000000000000000000000000000000000000000000000000000000000000000000000000000000000000000000000000000000000000000000000000000000000000000000000000000000000000000000000000000000
310
00000000000000000000000000000000000000000000000000000000000000000000000000000000000000000000000000000000000000000000000000000000000000000000000000000000000000000000000000000000000000000000000000000000000000000000000000000000000000000000000000000000000000
310
00000000000000000000000000000000000000000000000000000000000000000000000000000000000000000000000000000000000000000000000000000000000000000000000000000000000000000000000000000000000000000000000000000000000000000000000000000000000000000000000000000000000000
310
00000000000000000000000000000000000000000000000000000000000000000000000000000000000000000000000000000000000000000000000000000000000000000000000000000000000000000000000000000000000000000000000000000000000000000000000000000000000000000000000000000000000000
310
00000000000000000000000000000000000000000000000000000000000000000000000000000000000000000000000000000000000000000000000000000000000000000000000000000000000000000000000000000000000000000000000000000000000000000000000000000000000000000000000000000000000000
310
00000000000000000000000000000000000000000000000000000000000000000000000000000000000000000000000000000000000000000000000000000000000000000000000000000000000000000000000000000000000000000000000000000000000000000000000000000000000000000000000000000000000000
310
00000000000000000000000000000000000000000000000000000000000000000000000000000000000000000000000000000000000000000000000000000000000000000000000000000000000000000000000000000000000000000000000000000000000000000000000000000000000000000000000000000000000000
310
00000000000000000000000000000000000000000000000000000000000000000000000000000000000000000000000000000000000000000000000000000000000000000000000000000000000000000000000000000000000000000000000000000000000000000000000000000000000000000000000000000000000000
310
00000000000000000000000000000000000000000000000000000000000000000000000000000000000000000000000000000000000000000000000000000000000000000000000000000000000000000000000000000000000000000000000000000000000000000000000000000000000000000000000000000000000000
310
00000000000000000000000000000000000000000000000000000000000000000000000000000000000000000000000000000000000000000000000000000000000000000000000000000000000000000000000000000000000000000000000000000000000000000000000000000000000000000000000000000000000000
310
00000000000000000000000000000000000000000000000000000000000000000000000000000000000000000000000000000000000000000000000000000000000000000000000000000000000000000000000000000000000000000000000000000000000000000000000000000000000000000000000000000000000000
310
00000000000000000000000000000000000000000000000000000000000000000000000000000000000000000000000000000000000000000000000000000000000000000000000000000000000000000000000000000000000000000000000000000000000000000000000000000000000000000000000000000000000000
310
00000000000000000000000000000000000000000000000000000000000000000000000000000000000000000000000000
  0
XRECORD
  5
370C5
102
{ACAD_REACTORS
330
32141
102
}
330
32141
100
AcDbXrecord
280
     1
102
SHADEPLOT
 70
     0
102
SHADEPLOTRESLEVEL
 70
     2
102
SHADEPLOTCUSTOMDPI
 70
   300
  0
XRECORD
  5
32142
102
{ACAD_REACTORS
330
32141
102
}
330
32141
100
AcDbXrecord
280
     1
310
28000000000100006C0000000100080000000000006C0000000000000000000000010000000000000000000000000000C8C8C8000000000000000000000000000000000000000000000000000000000000000000330000006600000099000000CC000000FF00000000330000333300006633000099330000CC330000FF3300
310
0000660000336600006666000099660000CC660000FF66000000990000339900006699000099990000CC990000FF99000000CC000033CC000066CC000099CC0000CCCC0000FFCC000000FF000033FF000066FF000099FF0000CCFF0000FFFF000000003300330033006600330099003300CC003300FF003300003333003333
310
33006633330099333300CC333300FF33330000663300336633006666330099663300CC663300FF66330000993300339933006699330099993300CC993300FF99330000CC330033CC330066CC330099CC3300CCCC3300FFCC330000FF330033FF330066FF330099FF3300CCFF3300FFFF330000006600330066006600660099
310
006600CC006600FF00660000336600333366006633660099336600CC336600FF33660000666600336666006666660099666600CC666600FF66660000996600339966006699660099996600CC996600FF99660000CC660033CC660066CC660099CC6600CCCC6600FFCC660000FF660033FF660066FF660099FF6600CCFF6600
310
FFFF660000009900330099006600990099009900CC009900FF00990000339900333399006633990099339900CC339900FF33990000669900336699006666990099669900CC669900FF66990000999900339999006699990099999900CC999900FF99990000CC990033CC990066CC990099CC9900CCCC9900FFCC990000FF99
310
0033FF990066FF990099FF9900CCFF9900FFFF99000000CC003300CC006600CC009900CC00CC00CC00FF00CC000033CC003333CC006633CC009933CC00CC33CC00FF33CC000066CC003366CC006666CC009966CC00CC66CC00FF66CC000099CC003399CC006699CC009999CC00CC99CC00FF99CC0000CCCC0033CCCC0066CC
310
CC0099CCCC00CCCCCC00FFCCCC0000FFCC0033FFCC0066FFCC0099FFCC00CCFFCC00FFFFCC000000FF003300FF006600FF009900FF00CC00FF00FF00FF000033FF003333FF006633FF009933FF00CC33FF00FF33FF000066FF003366FF006666FF009966FF00CC66FF00FF66FF000099FF003399FF006699FF009999FF00CC
310
99FF00FF99FF0000CCFF0033CCFF0066CCFF0099CCFF00CCCCFF00FFCCFF0000FFFF0033FFFF0066FFFF0099FFFF00CCFFFF00FFFFFF00000000000D0D0D001A1A1A00282828003535350043434300505050005D5D5D006B6B6B00787878008686860093939300A1A1A100AEAEAE00BBBBBB00C9C9C900D6D6D600E4E4E400
310
F1F1F100FFFFFF000000000000000000000000000000000000000000000000000000000000000000000000000000000000000000000000000000000000000000000000000000000000000000000000000000000000000000000000000000000000000000000000000000000000000000000000000000000000000000000000
310
000000000000280000000000000000000000BE282800000000000000000000000000000000000000000000000000000000000000000000000000000000000000000000000000000000000000000000000000000000000000000028000000000000000000000000000000000000000000000000000000000000000000000000
310
00000000000000000000000000000000000000000000000000000000000000000000000000000000000000000000000000000000000000000000000000000000000000000000000000000000000000000000000000000000000000000000000000000000000000000000000000000000000000000000000000000000000000
310
0000000000000000280000BE0000000000000000BE2828000000000000000000000000000000000000282828282828B628B62828282828282828282828280000000000000000000000000000000000000000000000000000000000002800000000000000000000000000000000000000000000000000000000000000000000
310
00000000000000000000000000000000000000000000000000000000000000000000000000000000000000000000000000000000000000000000000000000000000000000000000000000000000000000000000000000000000000000000000000000000000000000000000000000000000000000000000000000000000000
310
0000BEBEBEBEBE0000002800BEBEBE00000000000000282828000000000000000000000000002828282828000000000000B600B6000000000000000000000000282828282800000000000000000000000000000000000000000000000000280000000000000000000000000000000000000000000000000000000000000000
310
00000000000000000000000000000000000000000000000000000000000000000000000000000000000000000000000000000000000000000000000000000000000000000000000000000000000000000000000000000000000000000000000000000000000000000000000000000000000000000000000000000000000000
310
00000000BEBEBEBEBE00000028000000BEBEBE0000000000BE2828000000000000000000282828280000000000000000000000B600B60000000000000000000000000000000000B628282800000000000000000000000000000000000000000028000000000000000000000000000000000000000000000000000000000000
310
00000000000000000000000000000000000000000000000000000000000000000000000000000000000000000000000000000000000000000000000000000000000000000000000000000000000000000000000000000000000000000000000000000000000000000000000000000000000000000000000000000000000000
310
000000000000BEBEBEBEBE000000280000BE0000BEBE00000000BE2828000000000000282828BE0000000000000000000000000000B600B60000000000000000000000000000000000B60000BEB6BE280000000000000000000000000000000000002800000000000000000000000000000000000000000000000000000000
310
0000000000000000000000000000000000000000000000000000000000000000000000000000000000000000000000000000000000000000000000000000000000000000000000000000000000000000000000000000000000000000000000000000000000000000000000000000000000000000000000BEBEBEBEBEBEBEBE
310
BEBEBEBEBEBEBEBEBEBEBEBEBE0000002800BE0000000000BEBE0000BE282800000000BEBEBE000000BEBE000000000000000000000000B600B60000000000000000000000000000000000B60000BEB6BE00BE2800000000000000000000000000000000280000000000000000000000000000000000000000000000000000
310
00000000000000000000000000000000000000000000000000000000000000000000000000000000000000000000000000000000000000000000000000000000000000000000000000000000000000000000000000000000000000000000000000000000000000000000000000000000000000000000000000BEBEBEBEBEBE
310
BEBEBEBEBEBEBEBEBEBEBEBEBEBEBE00000028BE0000000000000000BEBEBE28BE0000BEBEBEBEBEBE00000000BEBE00000000000000000000B600B60000000000000000000000000000000000B60000BEB6BE00BE002828000000000000000000000000000028000000000000000000000000000000000000000000000000
310
000000000000000000000000000000000000000000000000000000000000000000000000000000000000000000000000000000000000000000000000000000000000000000000000000000000000000000000000000000000000000000000000000000000000000000000000000000000000000000000000000000BEBEBEBE
310
BEBEBEBEBEBEBEBEBEBEBEBEBEBEBEBEBE00BEBE2800000000000000000000BEBEBEBEBEBEBE00BEBEBE00BE00000000BE00000000000000000000B600B60000000000000000000000000000000000B60000BEB6BE00BE000028BEBE2800000000000000000000002800000000000000000000000000000000000000000000
310
00000000000000000000000000000000000000000000000000000000000000000000000000000000000000000000000000000000000000000000000000000000000000000000000000000000000000000000000000000000000000000000000000000000000000000000000000000000000000000000000000000000000000
310
00000000000000000000000000000000000000000000280000000000000000000000BE28BEBE00000000BEBEBEBEBEBE0000BE00000000000000000000B600B60000000000000000000000000000000000B60000BEB6BE00BE000000BEBE282828000000000000000000280000000000000000000000000000000000000000
310
00000000000000000000000000000000000000000000000000000000000000000000000000000000000000000000000000000000000000000000000000000000000000000000000000000000000000000000000000000000000000000000000000000000000000000000000000000000000000000000000000000000000000
310
000000000000000000000000000000000000000000000000280000000000000000000000BEBEBE0000000000BE000000BEBEBEBEBEBE0000000000BEBEBEBEBEBEBEBEBEBEBEBEBEBEBEBE0000000000000000B60000BEB6BE00BE000000BEBE000028BE000000000000000028000000000000000000000000000000000000
310
00000000000000000000000000000000000000000000000000000000000000000000000000000000000000000000000000000000000000000000000000000000000000000000000000000000000000000000000000000000000000000000000000000000000000000000000000000000000000000000000000000000000000
310
000000000000000000000000000000000000000000000000000028000000000000000000BEBE00BEBE00000000000000000000BEBEBEBEBE0000000000BEBEBEBEBEBEBEBEBEBEBEBEBEBEBEBE0000000000000000B60000BEB6BE00BE000000BEBE000000BE28000000000000002800000000000000000000000000000000
310
00000000000000000000000000000000000000000000000000000000000000000000000000000000000000000000000000000000000000000000000000000000000000000000000000000000000000000000000000000000000000000000000000000000000000000000000000000000000000000000000000000000000000
310
00000000000000000000000000000000000000000000000000000000280000000000000000BE000000BEBE00000000000000000000BEBEBE0000BE00000000BEBEBEBEBEBEBEBEBEBEBEBEBEBEBEBE0000000000000000B60000BEB6BE00BE000000BEBE000000BEB600000000000000280000000000000000000000000000
310
00000000000000000000000000000000000000000000000000000000000000000000000000000000000000000000000000000000000000000000000000000000000000000000000000000000000000000000000000000000000000000000000000000000000000000000000000000000000000000000000000000000000000
310
0000000000000000000000000000000000000000000000000000000000002800000000000028B600BEBE00BEBE00000000000000000000BE0000000000BE000000BEBEBEBEBEBEBEBEBEBEBEBEBEBEBEBEBE00000000000000B60000BEB6BE00BE000000BEBE000000BEB628B6000000000028000000000000000000000000
310
00000000000000000000000000000000000000000000000000000000000000000000000000000000000000000000000000000000000000000000000000000000000000000000000000000000000000000000000000000000000000000000000000000000000000000000000000000000000000000000000000000000000000
310
00000000000000000000000000000000000000000000000000000000000000002800000000002800B6000000BEBE0000000000000000000000000000000000BE000000BEBEBEBEBEBEBEBEBEBEBEBEBEBEBEBEBE00000000000000B60000BEB6BE00BE000000BEBE000000BEB600B628000000002800000000000000000000
310
00000000000000000000000000000000000000000000000000000000000000000000000000000000000000000000000000000000000000000000000000000000000000000000000000000000000000000000000000000000000000000000000000000000000000000000000000000000000000000000000000000000000000
310
000000000000000000000000000000000000000000000000000000000000000000002800000000280000B60000000000BE0000000000000000000000000000000000BEBEBEBEBEBEBEBEBEBEBEBEBEBEBEBEBEBEBEBE00000000000000B60000BEB6BE00BE000000BEBE000000BEB600B62828000000280000000000000000
310
00000000000000000000000000000000000000000000000000000000000000000000000000000000000000000000000000000000000000000000000000000000000000000000000000000000000000000000000000000000000000000000000000000000000000000000000000000000000000000000000000000000000000
310
0000000000000000000000000000000000000000000000000000000000000000000000002800000028000000B60000000000BE000000000000000000000000000000000000000000000000B600B60000000000000000000000000000000000B60000BEB6BE00BE000000BEBE000000BEB600B6002828000028000000000000
310
00000000000000000000000000000000000000000000000000000000000000000000000000000000000000000000000000000000000000000000000000000000000000000000000000000000000000000000000000000000000000000000000000000000000000000000000000000000000000000000000000000000000000
310
00000000000000000000000000000000000000000000000000000000000000000000000000002800002800000000B6000000000000BE0000000000000000000000000000000000000000000000B600B60000000000000000000000000000000000B60000BEB6BE00BE000000BEBE000000BEB600B600002800002800000000
310
00000000000000000000000000000000000000000000000000000000000000000000000000000000000000000000000000000000000000000000000000000000000000000000000000000000000000000000000000000000000000000000000000000000000000000000000000000000000000000000000000000000000000
310
000000000000000000000000000000000000000000000000000000000000000000000000000000002800002800000000B6000000000000BE00000000BEBEBEBEBEBEBEBEBEBEBEBEBEBEBEBE000000B600B60000000000000000000000000000000000B60000BEB6BE00BE000000BEBE000000BEB600B60000282800280000
310
00000000000000000000000000000000000000000000000000000000000000000000000000000000000000000000000000000000000000000000000000000000000000000000000000000000000000000000000000000000000000000000000000000000000000000000000000000000000000000000000000000000000000
310
0000000000000000000000000000000000000000000000000000000000000000000000000000000000002800280000000000B600000000000000BE000000BEBEBEBEBEBEBEBEBEBEBEBEBEBEBEBE000000B600B60000000000000000000000000000000000B60000BEB6BE00BE000000BEBE000000BEB600B6000000280028
310
00000000000000000000000000000000000000000000000000000000000000000000000000000000000000000000000000000000000000000000000000000000000000000000000000000000000000000000000000000000000000000000000000000000000000000000000000000000000000000000000000000000000000
310
00000000000000000000000000000000000000000000000000000000000000000000000000000000000000002800280000000000B600000000000000BE000000BEBEBEBEBEBEBEBEBEBEBEBEBEBEBEBE000000B600B60000000000000000000000000000000000B60000BEB6BE00BE000000BEBE000000BEB600B600000028
310
28280000000000000000000000000000000000000000000000000000000000000000000000000000000000000000000000000000000000000000000000000000000000000000000000000000000000000000000000000000000000000000000000000000000000000000000000000000000000000000000000000000000000
310
000000000000000000000000000000000000000000000000000000000000000000000000000000000000000000002828000000000000B600000000000000BE000000BEBEBEBEBEBEBEBEBEBEBEBEBEBEBE00000000B600B60000000000000000000000000000000000B60000BEB6BE00BE000000BEBE000000BEB600B60000
310
00002828000000000000000000000000000000000000000000000000000000000000000000000000000000000000000000000000000000000000000000000000000000000000000000000000000000000000000000000000000000000000000000000000000000000000000000000000000000000000000000000000000000
310
0000000000000000000000000000000000000000000000000000000000000000000000000000000000000000000000002828000000000000B60000000000000000BE0000BEBEBEBEBEBEBEBEBEBEBEBEBEBEBE00000000B600B60000000000000000000000000000000000B60000BEB6BE00BE000000BEBE000000BEB600B6
310
00000000282800000000000000000000000000000000000000000000000000000000000000000000000000000000000000000000000000000000000000000000000000000000000000000000000000000000000000000000000000000000000000000000000000000000000000000000000000000000000000000000000000
310
00000000000000000000000000000000000000000000000000000000000000000000000000000000000000000000000000002800000000000000B60000000000000000BEBE00BEBEBEBEBEBEBEBEBEBEBEBEBEBEBE00000000B600B60000000000000000000000000000000000B60000BEB6BE00BE000000BEBE000000BEB6
310
00B60000000028280000000000000000000000000000000000000000000000000000000000000000000000000000000000000000000000000000000000000000000000000000000000000000000000000000000000000000000000000000000000000000000000000000000000000000000000000000000000000000000000
310
000000000000000000000000000000000000000000000000000000000000000000000000000000000000000000000000000000002800000000000000B6000000000000000000000000000000000000000000000000000000000000B600B60000000000000000000000000000000000B60000BEB6BE00BE000000BEBE000000
310
BEB600B6000000000028000000000000000000000000000000000000000000000000000000000000000000000000000000000000000000000000000000000000000000000000000000000000000000000000000000000000000000000000000000000000000000000000000000000000000000000000000000000000000000
310
0000000000000000000000000000000000000000000000000000000000000000000000000000000000000000000000000000000000002800000000000000B6000000000000000000000000000000000000000000000000000000000000B600B60000000000000000000000000000000000B60000BEB6BE00BE000000BEBE00
310
0000BEB600B600000000002800000000000000000000000000000000000000000000000000000000000000000000000000000000000000000000000000000000000000000000000000000000000000000000000000000000000000000000000000000000000000000000000000000000000000000000000000000000000000
310
00000000000000000000000000000000000000000000000000000000000000000000000000000000000000000000000000000000000000002800000000000000B6000000000000000000000000000000000000000000000000000000000000B600B60000000000000000000000000000000000B60000BEB6BE00BE000000BE
310
BE000000BEB600B60000000000280000000000000000000000000000000000000000000000000000000000000000000000000000000000000000000000000000000000000000000000000000000000000000000000000000000000000000000000000000000000000000000000000000000000000000000000000000000000
310
000000000000000000000000000000000000000000000000000000000000000000000000000000000000000000000000000000000000000000002800000000000000B6000000000000000000000000000000000000000000000000000000000000B600B60000000000000000000000000000000000B60000BEB6BE00BE0000
310
00BEBE000000BEB600B6000000002800000000000000000000000000000000000000000000000000000000000000000000000000000000000000000000000000000000000000000000000000000000000000000000000000000000000000000000000000000000000000000000000000000000000000000000000000000000
310
0000000000000000000000000000000000000000000000000000000000000000000000000000000000000000000000000000000000000000000000002800000000000000B6000000000000000000000000000000000000000000000000000000000000B600B60000000000000000000000000000000000B60000BEB6BE00BE
310
000000BEBE000000BEB600B600000000280000000000000000000000000000000000000000000000000000000000000000000000000000000000000000000000000000000000000000000000000000000000000000000000000000000000000000000000000000000000000000000000000000000000000000000000000000
310
00000000000000000000000000000000000000000000000000000000000000000000000000000000000000000000000000000000000000000000000000002800000000000000B6000000000000000000000000000000000000000000000000000000000000B600B60000000000000000000000000000000000B60000BEB6BE
310
00BE000000BEBE000000BEB600B60000000028000000000000000000000000000000000000000000000000000000000000000000000000000000000000000000000000000000000000000000000000000000000000000000000000000000000000000000000000000000000000000000000000000000000000000000000000
310
000000000000000000000000000000000000000000000000000000000000000000000000000000000000000000000000000000000000000000000000000000002828000000000000B6000000000000000000000000000000000000000000000000000000000000B600B60000000000000000000000000000000000B60000BE
310
B6BE00BE000000BEBE000000BEB600B6000000002800000000000000000000000000000000000000000000000000000000000000000000000000000000000000000000000000000000000000000000000000000000000000000000000000000000000000000000000000000000000000000000000000000000000000000000
310
0000000000000000000000000000000000000000000000000000000000000000000000000000000000000000000000000000000000000000000000000000000000000028000000000000B6000000000000000000000000000000000000000000000000000000000000B600B600000000000000000000000000000000BEB600
310
00BEB6BE00BE000000BEBE000000BEB600B600000028000000000000000000000000000000000000000000000000000000000000000000000000000000000000000000000000000000000000000000000000000000000000000000000000000000000000000000000000000000000000000000000000000000000000000000
310
00000000000000000000000000000000000000000000000000000000000000000000000000000000000000000000000000000000000000000000000000000000000000000028000000000000B6000000000000000000000000000000000000000000000000000000000000B600B6000000000000000000000000000000BEBE
310
B60000BEB6BE00BE000000BEBE000000BEB600B60000002800000000000000000000000000000000000000000000000000000000000000000000000000000000000000000000000000000000000000000000000000000000000000000000000000000000000000000000000000000000000000000000000000000000000000
310
000000000000000000000000000000000000000000000000000000000000000000000000000000000000000000000000000000000000000000000000000000000000000000000000280000000000B60000000000000000000000000000000000000000000000000000000000B6B600B60000000000000000000000000000BE
310
00BEB60000BEB6BE00BE000000BEBE000000BEB600B6000028000000000000000000000000000000000000000000000000000000000000000000000000000000000000000000000000000000000000000000000000000000000000000000000000000000000000000000000000000000000000000000000000000000000000
310
0000000000000000000000000000000000000000000000000000000000000000000000000000000000000000000000000000000000000000000000000000000000000000000000000000280000000000B600000000000000000000000000000000000000000000000000000000B6B600B6B600000000000000000000000000
310
00BE00BEB60000BEB6BE00BE000000BEBE000000BEB600B600002800000000000000000000000000000000000000000000000000000000000000000000000000000000000000000000000000000000000000000000000000000000000000000000000000000000000000000000000000000000000000000000000000000000
310
00000000000000000000000000000000000000000000000000000000000000000000000000000000000000000000000000000000000000000000000000000000000000000000000000000000002800000000B60000000000000000000000000000000000000000000000000000B6B60000B6B6000000000000000000000000
310
000000BE00BEBEBE00BEB6BE00BE000000BEBE000000BEB600B60028000000000000000000000000000000000000000000000000000000000000000000000000000000000000000000000000000000000000000000000000000000000000000000000000000000000000000000000000000000000000000000000000000000
310
000000000000000000000000000000000000000000000000000000000000000000000000000000000000000000000000000000000000000000000000000000000000000000000000000000000000000028000000B600000000000000000000000000000000000000000000000000B6B600B6B6B60000000000000000000000
310
0000000000BE00BEB600BEBEB6BE00BE000000BEBE000000BEB600B6280000000000000000000000000000000000000000000000000000000000000000000000000000000000000000000000000000000000000000000000000000000000000000000000000000000000000000000000000000000000000000000000000000
310
0000000000000000000000000000000000000000000000000000000000000000000000000000000000000000000000000000000000000000000000000000000000000000000000000000000000000000000000280000B60000000000000000000000000000000000000000000000B6B60000B6B60000000000000000000000
310
00000000000000BEBE00B60000BEB6BE00BE000000BEBE000000BEB628B600000000000000000000000000000000000000000000000000000000000000000000000000000000000000000000000000000000000000000000000000000000000000000000000000000000000000000000000000000000000000000000000000
310
00000000000000000000000000000000000000000000000000000000000000000000000000000000000000000000000000000000000000000000000000000000000000000000000000000000000000000000000000280000B600000000000000000000000000000000000000000000B60000B6B60000000000000000000000
310
000000000000000000BE0000B60000BEB6BE00BE000000BEBEBE0000BEB628B60000000000000000000000000000000000000000000000000000000000000000000000000000000000000000000000000000000000000000000000000000000000000000000000000000000000000000000000000000000000000000000000
310
000000000000000000000000000000000000000000000000000000000000000000000000000000000000000000000000000000000000000000000000000000000000000000000000000000000000000000000000000000002800B600000000000000000000000000000000000000B6B6B60000B60000000000000000000000
310
000000000000000000000000BEBEB60000BEB6BE00BE0000000000BEBEBEBEB600B6000000000000000000000000000000000000000000000000000000000000000000000000000000000000000000000000000000000000000000000000000000000000000000000000000000000000000000000000000000000000000000
310
0000000000000000000000000000000000000000000000000000000000000000000000000000000000000000000000000000000000000000000000000000000000000000000000000000000000000000000000000000000000000028B6000000000000000000000000000000000000B6B600B6B6B600000000000000000000
310
00000000000000000000000000000000BEBE00BEB6BE00BE00000000000028BEBEB600B600000000000000000000000000000000000000000000000000000000000000000000000000000000000000000000000000000000000000000000000000000000000000000000000000000000000000000000000000000000000000
310
00000000000000000000000000000000000000000000000000000000000000000000000000000000000000000000000000000000000000000000000000000000000000000000000000000000000000000000000000000000000000000000B628000000000000000000000000000000B6B60000B6B600000000000000000000
310
000000000000000000000000000000000000B600BEBEB6BE00BE0000000000BEBE2800B600B60000000000000000000000000000000000000000000000000000000000000000000000000000000000000000000000000000000000000000000000000000000000000000000000000000000000000000000000000000000000
310
000000000000000000000000000000000000000000000000000000000000000000000000000000000000000000000000000000000000000000000000000000000000000000000000000000000000000000000000000000000000000000000000B6002828000000000000000000000000B6000000B600000000000000000000
310
0000000000000000000000000000000000000000B60000BEBEBE00BE000000BEBEBE000000B600B6000000000000000000000000000000000000000000000000000000000000000000000000000000000000000000000000000000000000000000000000000000000000000000000000000000000000000000000000000000
310
0000000000000000000000000000000000000000000000000000000000000000000000000000000000000000000000000000000000000000000000000000000000000000000000000000000000000000000000000000000000000000000000000000B6000000282800000000000000B6B6B6000000B6B60000000000000000
310
00000000000000000000000000000000000000000000B60000BEBEBEBEBE00BEBE2800BEBEBE00B600B600000000000000000000000000000000000000000000000000000000000000000000000000000000000000000000000000000000000000000000000000000000000000000000000000000000000000000000000000
310
00000000000000000000000000000000000000000000000000000000000000000000000000000000000000000000000000000000000000000000000000000000000000000000000000000000000000000000000000000000000000000000000000000000B600000000282828000000B6B6000000B6B6B600B6000000000000
310
000000000000000000000000000000000000000000000000B6000000B6BEBEBEBE280000000000BEBEB600B60000000000000000000000000000000000000000000000000000000000000000000000000000000000000000000000000000000000000000000000000000000000000000000000000000000000000000000000
310
000000000000000000000000000000000000000000000000000000000000000000000000000000000000000000000000000000000000000000000000000000000000000000000000000000000000000000000000000000000000000000000000000000000000B6000000000000282828B6B60000B6B6000000B600B6B6B600
310
0000000000000000000000000000000000000000000000000000B6000000B60028BE000000000000000000B6BEB6000000000000000000000000000000000000000000000000000000000000000000000000000000000000000000000000000000000000000000000000000000000000000000000000000000000000000000
310
0000000000000000000000000000000000000000000000000000000000000000000000000000000000000000000000000000000000000000000000000000000000000000000000000000000000000000000000000000000000000000000000000000000000000000B600000000000000B6B62828B6B6000000000000B6B6B6
310
B6B60000000000000000000000000000000000000000000000000000B6002828B6280000000000000000000000B600B6BE000000000000000000000000000000000000000000000000000000000000000000000000000000000000000000000000000000000000000000000000000000000000000000000000000000000000
310
00000000000000000000000000000000000000000000000000000000000000000000000000000000000000000000000000000000000000000000000000000000000000000000000000000000000000000000000000000000000000000000000000000000000000000000BE000000000000B6B600B6B6002828282800000000
310
00B60000B6B6000000000000000000000000000000000000000000002828B6280000B6000000000000000000000000B600B6BEBE000000000000000000000000000000000000000000000000000000000000000000000000000000000000000000000000000000000000000000000000000000000000000000000000000000
310
0000000000000000000000000000000000000000000000000000000000000000000000000000000000000000000000000000000000000000000000000000000000000000000000000000000000000000000000000000000000000000000000000000000000000000000000BEBE000000B6B6B60000B6B60000000000002828
310
28282800B6B6B600B60000000000000000000000000000000000282828280000B6000000B6000000000000000000000000B600B6000000000000000000000000000000000000000000000000000000000000000000000000000000000000000000000000000000000000000000000000000000000000000000000000000000
310
00000000000000000000000000000000000000000000000000000000000000000000000000000000000000000000000000000000000000000000000000000000000000000000000000000000000000000000000000000000000000000000000000000000000000000000000000BEB6000000B60000B6B60000000000000000
310
000000000028282828B6B6B6B6B60000000000282828282828282828000000000000B6000000B6000000000000000000000000B600B600000000000000000000000000000000000000000000000000000000000000000000000000000000000000000000000000000000000000000000000000000000000000000000000000
310
0000000000000000000000000000000000000000000000000000000000000000000000000000000000000000000000000000000000000000000000000000000000000000000000000000000000000000000000000000000000000000000000000000000000000000000000000000BE00B6B6B6B60000B60000000000000000
310
00000000000000000000002828B6B6B62828282828282828280000000000000000000000B6000000B6000000000000000000000000B600B60000000000000000000000000000000000000000000000000000000000000000000000000000000000000000000000000000000000000000000000000000000000000000000000
310
00000000000000000000000000000000000000000000000000000000000000000000000000000000000000000000000000000000000000000000000000000000000000000000000000000000000000000000000000000000000000000000000000000000000000000000000000000000BE00B6B600B6B6B600000000000000
310
0000000000000000000000000000000000B6B6B6B60000000000000000000000000000000000B6000000B6000000000000000000000000B600B6000000000000000000000000000000000000000000000000000000000000000000000000000000000000000000000000000000000000000000000000000000000000000000
310
0000000000000000000000000000000000000000000000000000000000000000000000000000000000000000000000000000000000000000000000000000000000000000000000000000000000000000000000000000000000000000000000000000000000000000000000000000000000BE000000B6B6B600000000000000
310
0000000000000000000000000000000000000000B6B600B6B6000000000000000000000000000000B6000000B6000000000000000000000000B600B600000000000000000000000000000000000000000000000000000000000000000000000000000000000000000000000000000000000000000000000000000000000000
310
000000000000000000000000000000000000000000000000000000000000000000000000000000000000000000000000000000000000000000000000000000000000000000000000000000000000000000000000000000000000000000000000000000000000000000000000000000000000BE000000000000000000000000
310
000000000000000000000000000000000000000000000000B6B6B6B60000000000000000000000000000B6000000B6000000000000000000000000B600B60000000000000000000000000000000000000000000000000000000000000000000000000000000000000000000000000000000000000000000000000000000000
310
0000000000000000000000000000000000000000000000000000000000000000000000000000000000000000000000000000000000000000000000000000000000000000000000000000000000000000000000000000000000000000000000000000000000000000000000000000000000000000BE00000000000000000000
310
000000000000000000000000000000000000000000000000000000B6B600B6B6000000000000000000000000B6000000B6000000000000000000000000B600B6000000000000000000000000000000000000000000000000000000000000000000000000000000000000000000000000000000000000000000000000000000
310
0000000000000000000000000000000000000000000000000000000000000000000000000000000000000000000000000000000000000000000000000000000000000000000000000000000000000000000000BEBEBEBEBEBEBEBEBEBEBEBEBEBEBEBEBEBEBEBEBEBEBEBEBEBEBEBE000000000000BE000000000000000000
310
00000000000000000000000000000000000000000000000000000000000000B6B6B6B60000000000000000000000B6000000B600000000000000000000B6B600B6B600000000000000000000000000000000000000000000000000000000000000000000000000000000000000000000000000000000000000000000000000
310
00000000000000000000000000000000000000000000000000000000000000000000000000000000000000000000000000000000000000000000000000000000000000000000000000000000000000000000000000BEBEBEBEBEBEBEBEBEBEBEBEBEBEBEBEBEBEBEBEBEBEBEBEBEBEBEBE0000000000BE0000000000000000
310
000000000000000000000000000000000000000000000000000000000000000000B600B600B6B6B60000000000000000B6000000B60000000000000000B6B60000B6B6000000000000000000000000000000000000000000000000000000000000000000000000000000000000000000000000000000000000000000000000
310
000000000000000000000000000000000000000000000000000000000000000000000000000000000000000000000000000000000000000000000000000000000000000000000000000000000000000000000000000000BEBEBEBEBEBEBEBEBEBEBEBEBEBEBEBEBEBEBEBEBEBEBEBEBEBEBEBE00000000BE00000000000000
310
0000000000000000000000000000000000000000000000000000000000000000000000B60000B6B6B6B6B600000000000000B6000000B6000000000000B6B6B600B6B6B60000000000000000000000000000000000000000000000000000000000000000000000000000000000000000000000000000000000000000000000
310
00000000000000000000000000000000000000000000000000000000000000000000000000000000000000000000000000000000000000000000000000000000000000000000000000000000000000000000000000000000BEBEBEBEBEBEBEBEBEBEBEBEBEBEBEBEBEBEBEBEBEBEBEBEBEBEBEBEBE00000000BE0000000000
310
00000000000000000000000000000000000000000000000000000000000000000000000000B600000000B6B6B6B6B60000000000B6000000B600000000B6B60000B6B6B60000000000000000000000000000000000000000000000000000000000000000000000000000000000000000000000000000000000000000000000
310
000000000000000000000000000000000000000000000000000000000000000000000000000000000000000000000000000000000000000000000000000000000000000000000000000000000000000000000000000000000000BEBEBEBEBEBEBEBEBEBEBEBEBEBEBEBEBEBEBEBEBEBEBEBEBEBEBEBEBE00BEBEBE00000000
310
000000000000000000000000000000000000000000000000000000000000000000000000000000B6000000000000B6B600B600000000B6000000B6000000B6B600B6B6000000000000000000000000000000000000000000000000000000000000000000000000000000000000000000000000000000000000000000000000
310
0000000000000000000000000000000000000000000000000000000000000000000000000000000000000000000000000000000000000000000000000000000000000000000000000000000000000000000000000000000000000000BEBEBEBEBEBEBEBEBEBEBEBEBEBEBEBEBEBEBEBEBEBEBEBEBEBEBEBEBE000000000000
310
0000000000000000000000000000000000000000000000000000000000000000000000000000000000B60000000000000000B6B6B6B6B600B6000000B600B6B60000B6B60000000000000000000000000000000000000000000000000000000000000000000000000000000000000000000000000000000000000000000000
310
00000000000000000000000000000000000000000000000000000000000000000000000000000000000000000000000000000000000000000000000000000000000000000000000000000000000000000000000000000000000000000000000000000000000000000000000000000000000000000000000000000000000000
310
00000000000000000000000000000000000000000000000000000000000000000000000000000000000000B600000000000000000000B6B600B6B6000000B6B6B600B6B60000000000000000000000000000000000000000000000000000000000000000000000000000000000000000000000000000000000000000000000
310
00000000000000000000000000000000000000000000000000000000000000000000000000000000000000000000000000000000000000000000000000000000000000000000000000000000000000000000000000000000000000000000000000000000000000000000000000000000000000000000000000000000000000
310
000000000000000000000000000000000000000000000000000000000000000000000000000000000000000000B6000000000000000000000000B6B6B6B6B6B6B60000B6B600000000000000000000000000000000000000000000000000000000000000000000000000000000000000000000000000000000000000000000
310
00000000000000000000000000000000000000000000000000000000000000000000000000000000000000000000000000000000000000000000000000000000000000000000000000000000000000000000000000000000000000000000000000000000000000000000000000000000000000000000000000000000000000
310
0000000000000000000000000000000000000000000000000000000000000000000000000000000000000000000000B6000000000000000000000000B6B60000000000B6B600000000000000000000000000000000000000000000000000000000000000000000000000000000000000000000000000000000000000000000
310
00000000000000000000000000000000000000000000000000000000000000000000000000000000000000000000000000000000000000000000000000000000000000000000000000000000000000000000000000000000000000000000000000000000000000000000000000000000000000000000000000000000000000
310
00000000000000000000000000000000000000000000000000000000000000000000000000000000000000000000000000B6000000000000000000000000B6B600000000B600000000000000000000000000000000000000000000000000000000000000000000000000000000000000000000000000000000000000000000
310
00000000000000000000000000000000000000000000000000000000000000000000000000000000000000000000000000000000000000000000000000000000000000000000000000000000000000000000000000000000000000000000000000000000000000000000000000000000000000000000000000000000000000
310
000000000000000000000000000000000000000000000000000000000000000000000000000000000000000000000000000000B60000000000000000000000B6B6B600B6B6B6000000000000000000000000000000000000000000000000000000000000000000000000000000000000000000000000000000000000000000
310
00000000000000000000000000000000000000000000000000000000000000000000000000000000000000000000000000000000000000000000000000000000000000000000000000000000000000000000000000000000000000000000000000000000000000000000000000000000000000000000000000000000000000
310
0000000000000000000000000000000000000000000000000000000000000000000000000000000000000000000000000000000000B600000000000000000000B6B600B6B6B6000000000000000000000000000000000000000000000000000000000000000000000000000000000000000000000000000000000000000000
310
00000000000000000000000000000000000000000000000000000000000000000000000000000000000000000000000000000000000000000000000000000000000000000000000000000000000000000000000000000000000000000000000000000000000000000000000000000000000000000000000000000000000000
310
00000000000000000000000000000000000000000000000000000000000000000000000000000000000000000000000000000000000000B60000000000000000B6B60000B6B6000000000000000000000000000000000000000000000000000000000000000000000000000000000000000000000000000000000000000000
310
00000000000000000000000000000000000000000000000000000000000000000000000000000000000000000000000000000000000000000000000000000000000000000000000000000000000000000000000000000000000000000000000000000000000000000000000000000000000000000000000000000000000000
310
000000000000000000000000000000000000000000000000000000000000000000000000000000000000000000000000000000000000000000B600000000000000B60000B6B6000000000000000000000000000000000000000000000000000000000000000000000000000000000000000000000000000000000000000000
310
00000000000000000000000000000000000000000000000000000000000000000000000000000000000000000000000000000000000000000000000000000000000000000000000000000000000000000000000000000000000000000000000000000000000000000000000000000000000000000000000000000000000000
310
0000000000000000000000000000000000000000000000000000000000000000000000000000000000000000000000000000000000000000000000B600000000B6B6B60000B6000000000000000000000000000000000000000000000000000000000000000000000000000000000000000000000000000000000000000000
310
00000000000000000000000000000000000000000000000000000000000000000000000000000000000000000000000000000000000000000000000000000000000000000000000000000000000000000000000000000000000000000000000000000000000000000000000000000000000000000000000000000000000000
310
00000000000000000000000000000000000000000000000000000000000000000000000000000000000000000000000000000000000000000000000000B600000000B600B6B6B60000000000000000000000000000000000000000000000000000000000000000000000000000000000000000000000000000000000000000
310
00000000000000000000000000000000000000000000000000000000000000000000000000000000000000000000000000000000000000000000000000000000000000000000000000000000000000000000000000000000000000000000000000000000000000000000000000000000000000000000000000000000000000
310
000000000000000000000000000000000000000000000000000000000000000000000000000000000000000000000000000000000000000000000000000000B600B6B6B600B6B60000000000000000000000000000000000000000000000000000000000000000000000000000000000000000000000000000000000000000
310
00000000000000000000000000000000000000000000000000000000000000000000000000000000000000000000000000000000000000000000000000000000000000000000000000000000000000000000000000000000000000000000000000000000000000000000000000000000000000000000000000000000000000
310
0000000000000000000000000000000000000000000000000000000000000000000000000000000000000000000000000000000000000000000000000000000000B6B60000B6B60000000000000000000000000000000000000000000000000000000000000000000000000000000000000000000000000000000000000000
310
00000000000000000000000000000000000000000000000000000000000000000000000000000000000000000000000000000000000000000000000000000000000000000000000000000000000000000000000000000000000000000000000000000000000000000000000000000000000000000000000000000000000000
310
0000000000000000000000000000000000000000000000000000000000000000000000000000000000000000000000000000000000000000000000000000000000000000B6B6B6B600000000000000000000000000000000000000000000000000000000000000000000000000000000000000000000000000000000000000
310
00000000000000000000000000000000000000000000000000000000000000000000000000000000000000000000000000000000000000000000000000000000000000000000000000000000000000000000000000000000000000000000000000000000000000000000000000000000000000000000000000000000000000
310
00000000000000000000000000000000000000000000000000000000000000000000000000000000000000000000000000000000000000000000000000000000000000000000000000000000000000000000000000000000000000000000000000000000000000000000000000000000000000000000000000000000000000
310
00000000000000000000000000000000000000000000000000000000000000000000000000000000000000000000000000000000000000000000000000000000000000000000000000000000000000000000000000000000000000000000000000000000000000000000000000000000000000000000000000000000000000
310
00000000000000000000000000000000000000000000000000000000000000000000000000000000000000000000000000000000000000000000000000000000000000000000000000000000000000000000000000000000000000000000000000000000000000000000000000000000000000000000000000000000000000
310
00000000000000000000000000000000000000000000000000000000000000000000000000000000000000000000000000000000000000000000000000000000000000000000000000000000000000000000000000000000000000000000000000000000000000000000000000000000000000000000000000000000000000
310
00000000000000000000000000000000000000000000000000000000000000000000000000000000000000000000000000000000000000000000000000000000000000000000000000000000000000000000000000000000000000000000000000000000000000000000000000000000000000000000000000000000000000
310
00000000000000000000000000000000000000000000000000000000000000000000000000000000000000000000000000000000000000000000000000000000000000000000000000000000000000000000000000000000000000000000000000000000000000000000000000000000000000000000000000000000000000
310
00000000000000000000000000000000000000000000000000000000000000000000000000000000000000000000000000000000000000000000000000000000000000000000000000000000000000000000000000000000000000000000000000000000000000000000000000000000000000000000000000000000000000
310
00000000000000000000000000000000000000000000000000000000000000000000000000000000000000000000000000000000000000000000000000000000000000000000000000000000000000000000000000000000000000000000000000000000000000000000000000000000000000000000000000000000000000
310
00000000000000000000000000000000000000000000000000000000000000000000000000000000000000000000000000000000000000000000000000000000000000000000000000000000000000000000000000000000000000000000000000000000000000000000000000000000000000000000000000000000000000
310
00000000000000000000000000000000000000000000000000000000000000000000000000000000000000000000000000000000000000000000000000000000000000000000000000000000000000000000000000000000000000000000000000000000000000000000000000000000000000000000000000000000000000
310
00000000000000000000000000000000000000000000000000000000000000000000000000000000000000000000000000000000000000000000000000000000000000000000000000000000000000000000000000000000000000000000000000000000000000000000000000000000000000000000000000000000000000
310
00000000000000000000000000000000000000000000000000000000000000000000000000000000000000000000000000000000000000000000000000000000000000000000000000000000000000000000000000000000000000000000000000000000000000000000000000000000000000000000000000000000000000
310
00000000000000000000000000000000000000000000000000000000000000000000000000000000000000000000000000000000000000000000000000000000000000000000000000000000000000000000000000000000000000000000000000000000000000000000000000000000000000000000000000000000000000
310
00000000000000000000000000000000000000000000000000000000000000000000000000000000000000000000000000000000000000000000000000000000000000000000000000000000000000000000000000000000000000000000000000000000000000000000000000000000000000000000000000000000000000
310
00000000000000000000000000000000000000000000000000000000000000000000000000000000000000000000000000000000000000000000000000000000000000000000000000000000000000000000000000000000000000000000000000000000000000000000000000000000000000000000000000000000000000
310
00000000000000000000000000000000000000000000000000000000000000000000000000000000000000000000000000000000000000000000000000000000000000000000000000000000000000000000000000000000000000000000000000000000000000000000000000000000000000000000000000000000000000
310
00000000000000000000000000000000000000000000000000000000000000000000000000000000000000000000000000000000000000000000000000000000000000000000000000000000000000000000000000000000000000000000000000000000000000000000000000000000000000000000000000000000000000
310
00000000000000000000000000000000000000000000000000000000000000000000000000000000000000000000000000000000000000000000000000000000000000000000000000000000000000000000000000000000000000000000000000000000000000000000000000000000000000000000000000000000000000
310
00000000000000000000000000000000000000000000000000000000000000000000000000000000000000000000000000000000000000000000000000000000000000000000000000000000000000000000000000000000000000000000000000000000000000000000000000000000000000000000000000000000000000
310
00000000000000000000000000000000000000000000000000000000000000000000000000000000000000000000000000000000000000000000000000000000000000000000000000000000000000000000000000000000000000000000000000000000000000000000000000000000000000000000000000000000000000
310
00000000000000000000000000000000000000000000000000000000000000000000000000000000000000000000000000000000000000000000000000000000000000000000000000000000000000000000000000000000000000000000000000000000000000000000000000000000000000000000000000000000000000
310
00000000000000000000000000000000000000000000000000000000000000000000000000000000000000000000000000000000000000000000000000000000000000000000000000000000000000000000000000000000000000000000000000000000000000000000000000000000000000000000000000000000000000
310
00000000000000000000000000000000000000000000000000000000000000000000000000000000000000000000000000000000000000000000000000000000000000000000000000000000000000000000000000000000000000000000000000000000000000000000000000000000000000000000000000000000000000
310
00000000000000000000000000000000000000000000000000000000000000000000000000000000000000000000000000000000000000000000000000000000000000000000000000000000000000000000000000000000000000000000000000000000000000000000000000000000000000000000000000000000000000
310
00000000000000000000000000000000000000000000000000000000000000000000000000000000000000000000000000000000000000000000000000000000000000000000000000000000000000000000000000000000000000000000000000000000000000000000000000000000000000000000000000000000000000
310
00000000000000000000000000000000000000000000000000000000000000000000000000000000000000000000000000000000000000000000000000000000000000000000000000000000000000000000000000000000000000000000000000000000000000000000000000000000000000000000000000000000000000
310
00000000000000000000000000000000000000000000000000000000000000000000000000000000000000000000000000000000000000000000000000000000000000000000000000000000000000000000000000000000000000000000000000000000000000000000000000000000000000000000000000000000000000
310
00000000000000000000000000000000000000000000000000000000000000000000000000000000000000000000000000000000000000000000000000000000000000000000000000000000000000000000000000000000000000000000000000000000000000000000000000000000000000000000000000000000000000
310
00000000000000000000000000000000000000000000000000000000000000000000000000000000000000000000000000000000000000000000000000000000000000000000000000000000000000000000000000000000000000000000000000000000000000000000000000000000000000000000000000000000000000
310
00000000000000000000000000000000000000000000000000000000000000000000000000000000000000000000000000000000000000000000000000000000000000000000000000000000000000000000000000000000000000000000000000000000000000000000000000000000000000000000000000000000000000
310
00000000000000000000000000000000000000000000000000000000000000000000000000000000000000000000000000000000000000000000000000000000000000000000000000000000000000000000000000000000000000000000000000000000000000000000000000000000000000000000000000000000000000
310
00000000000000000000000000000000000000000000000000000000000000000000000000000000000000000000000000000000000000000000000000000000000000000000000000000000000000000000000000000000000000000000000000000000000000000000000000000000000000000000000000000000000000
310
00000000000000000000000000000000000000000000000000000000000000000000000000000000000000000000000000000000000000000000000000000000000000000000000000000000000000000000000000000000000000000000000000000000000000000000000000000000000000000000000000000000000000
310
00000000000000000000000000000000000000000000000000000000000000000000000000000000000000000000000000000000000000000000000000000000000000000000000000000000000000000000000000000000000000000000000000000000000000000000000000000000000000000000000000000000000000
310
00000000000000000000000000000000000000000000000000000000000000000000000000000000000000000000000000000000000000000000000000000000000000000000000000000000000000000000000000000000000000000000000000000000000000000000000000000000000000000000000000000000000000
310
00000000000000000000000000000000000000000000000000000000000000000000000000000000000000000000000000000000000000000000000000000000000000000000000000000000000000000000000000000000000000000000000000000000000000000000000000000000000000000000000000000000000000
310
00000000000000000000000000000000000000000000000000000000000000000000000000000000000000000000000000000000000000000000000000000000000000000000000000000000000000000000000000000000000000000000000000000000000000000000000000000000000000000000000000000000000000
310
00000000000000000000000000000000000000000000000000000000000000000000000000000000000000000000000000000000000000000000000000000000000000000000000000000000000000000000000000000000000000000000000000000000000000000000000000000000000000000000000000000000000000
310
00000000000000000000000000000000000000000000000000000000000000000000000000000000000000000000000000000000000000000000000000000000000000000000000000000000000000000000000000000000000000000000000000000000000000000000000000000000000000000000000000000000000000
310
00000000000000000000000000000000000000000000000000000000000000000000000000000000000000000000000000000000000000000000000000000000000000000000000000000000000000000000000000000000000000000000000000000000000000000000000000000000000000000000000000000000000000
310
00000000000000000000000000000000000000000000000000000000000000000000000000000000000000000000000000000000000000000000000000000000000000000000000000000000000000000000000000000000000000000000000000000000000000000000000000000000000000000000000000000000000000
310
00000000000000000000000000000000000000000000000000000000000000000000000000000000000000000000000000000000000000000000000000000000000000000000000000000000000000000000000000000000000000000000000000000000000000000000000000000000000000000000000000000000000000
310
00000000000000000000000000000000000000000000000000000000000000000000000000000000000000000000000000000000000000000000000000000000000000000000000000000000000000000000000000000000000000000000000000000000000000000000000000000000000000000000000000000000000000
310
00000000000000000000000000000000000000000000000000000000000000000000000000000000000000000000000000000000000000000000000000000000000000000000000000000000000000000000000000000000000000000000000000000000000000000000000000000000000000000000000000000000000000
310
00000000000000000000000000000000000000000000000000000000000000000000000000000000000000000000000000000000000000000000000000000000000000000000000000000000000000000000000000000000000000000000000000000000000000000000000000000000000000000000000000000000000000
310
00000000000000000000000000000000000000000000000000000000000000000000000000000000000000000000000000000000000000000000000000000000000000000000000000000000000000000000000000000000000000000000000000000000000000000000000000000000000000000000000000000000000000
310
00000000000000000000000000000000000000000000000000000000000000000000000000000000000000000000000000000000000000000000000000000000000000000000000000000000000000000000000000000000000000000000000000000000000000000000000000000000000000000000000000000000000000
310
00000000000000000000000000000000000000000000000000000000000000000000000000000000000000000000000000000000000000000000000000000000000000000000000000000000000000000000000000000000000000000000000000000000000000000000000000000000000000000000000000000000000000
310
00000000000000000000000000000000000000000000000000000000000000000000000000000000000000000000000000000000000000000000000000000000000000000000000000000000000000000000000000000000000000000000000000000000000000000000000000000000000000000000000000000000000000
310
00000000000000000000000000000000000000000000000000000000000000000000000000000000000000000000000000000000000000000000000000000000000000000000000000000000000000000000000000000000000000000000000000000000000000000000000000000000000000000000000000000000000000
310
00000000000000000000000000000000000000000000000000000000000000000000000000000000000000000000000000000000000000000000000000000000000000000000000000000000000000000000000000000000000000000000000000000000000000000000000000000000000000000000000000000000000000
310
00000000000000000000000000000000000000000000000000000000000000000000000000000000000000000000000000000000000000000000000000000000000000000000000000000000000000000000000000000000000000000000000000000000000000000000000000000000000000000000000000000000000000
310
00000000000000000000000000000000000000000000000000000000000000000000000000000000000000000000000000000000000000000000000000000000000000000000000000000000000000000000000000000000000000000000000000000000000000000000000000000000000000000000000000000000000000
310
00000000000000000000000000000000000000000000000000000000000000000000000000000000000000000000000000000000000000000000000000000000000000000000000000000000000000000000000000000000000000000000000000000000000000000000000000000000000000000000000000000000000000
310
00000000000000000000000000000000000000000000000000000000000000000000000000000000000000000000000000000000000000000000000000000000000000000000000000000000000000000000000000000000000000000000000000000000000000000000000000000000000000000000000000000000000000
310
00000000000000000000000000000000000000000000000000000000000000000000000000000000000000000000000000000000000000000000000000000000000000000000000000000000000000000000000000000000000000000000000000000000000000000000000000000000000000000000000000000000000000
310
00000000000000000000000000000000000000000000000000000000000000000000000000000000000000000000000000000000000000000000000000000000000000000000000000000000000000000000000000000000000000000000000000000000000000000000000000000000000000000000000000000000000000
310
00000000000000000000000000000000000000000000000000000000000000000000000000000000000000000000000000000000000000000000000000000000000000000000000000000000000000000000000000000000000000000000000000000000000000000000000000000000000000000000000000000000000000
310
00000000000000000000000000000000000000000000000000000000000000000000000000000000000000000000000000000000000000000000000000000000000000000000000000000000000000000000000000000000000000000000000000000000000000000000000000000000000000000000000000000000000000
310
00000000000000000000000000000000000000000000000000000000000000000000000000000000000000000000000000000000000000000000000000000000000000000000000000000000000000000000000000000000000000000000000000000000000000000000000000000000000000000000000000000000000000
310
00000000000000000000000000000000000000000000000000000000000000000000000000000000000000000000000000000000000000000000000000000000000000000000000000000000000000000000000000000000000000000000000000000000000000000000000000000000000000000000000000000000000000
310
00000000000000000000000000000000000000000000000000000000000000000000000000000000000000000000000000000000000000000000000000000000000000000000000000000000000000000000000000000000000000000000000000000000000000000000000000000000000000000000000000000000000000
310
00000000000000000000000000000000000000000000000000000000000000000000000000000000000000000000000000000000000000000000000000000000000000000000000000000000000000000000000000000000000000000000000000000000000000000000000000000000000000000000000000000000000000
310
00000000000000000000000000000000000000000000000000000000000000000000000000000000000000000000000000000000000000000000000000000000000000000000000000000000000000000000000000000000000000000000000000000000000000000000000000000000000000000000000000000000000000
310
00000000000000000000000000000000000000000000000000000000000000000000000000000000000000000000000000000000000000000000000000000000000000000000000000000000000000000000000000000000000000000000000000000000000000000000000000000000000000000000000000000000000000
310
00000000000000000000000000000000000000000000000000000000000000000000000000000000000000000000000000000000000000000000000000000000000000000000000000000000000000000000000000000000000000000000000000000000000000000000000000000000000000000000000000000000000000
310
00000000000000000000000000000000000000000000000000000000000000000000000000000000000000000000000000000000000000000000000000000000000000000000000000000000000000000000000000000000000000000000000000000000000000000000000000000000000000000000000000000000000000
310
00000000000000000000000000000000000000000000000000000000000000000000000000000000000000000000000000000000000000000000000000000000000000000000000000000000000000000000000000000000000000000000000000000000000000000000000000000000000000000000000000000000000000
310
00000000000000000000000000000000000000000000000000000000000000000000000000000000000000000000000000000000000000000000000000000000000000000000000000000000000000000000000000000000000000000000000000000000000000000000000000000000000000000000000000000000000000
310
00000000000000000000000000000000000000000000000000000000000000000000000000000000000000000000000000000000000000000000000000000000000000000000000000000000000000000000000000000000000000000000000000000000000000000000000000000000000000000000000000000000000000
310
00000000000000000000
  0
XRECORD
  5
37078
102
{ACAD_REACTORS
330
37077
102
}
330
37077
100
AcDbXrecord
280
     1
102
MATERIAL
148
0.0
149
0.0
149
0.0
 93
        0
 94
      127
282
     0
 72
     1
 77
     1
171
     1
175
     1
179
     1
273
     0
  0
XRECORD
  5
37076
102
{ACAD_REACTORS
330
37075
102
}
330
37075
100
AcDbXrecord
280
     1
102
MATERIAL
148
0.0
149
0.0
149
0.0
 93
        0
 94
      127
282
     0
 72
     1
 77
     1
171
     1
175
     1
179
     1
273
     0
  0
XRECORD
  5
3707A
102
{ACAD_REACTORS
330
37079
102
}
330
37079
100
AcDbXrecord
280
     1
102
MATERIAL
148
0.0
149
0.0
149
0.0
 93
        0
 94
      127
282
     0
 72
     1
 77
     1
171
     1
175
     1
179
     1
273
     0
  0
XRECORD
  5
370E3
102
{ACAD_REACTORS
330
370E2
102
}
330
370E2
100
AcDbXrecord
280
     1
102
SHADEPLOT
 70
     0
102
SHADEPLOTRESLEVEL
 70
     2
102
SHADEPLOTCUSTOMDPI
 70
   300
  0
XRECORD
  5
370E7
102
{ACAD_REACTORS
330
370E6
102
}
330
370E6
100
AcDbXrecord
280
     1
102
SHADEPLOT
 70
     0
102
SHADEPLOTRESLEVEL
 70
     2
102
SHADEPLOTCUSTOMDPI
 70
   300
  0
XRECORD
  5
370F1
102
{ACAD_REACTORS
330
370F0
102
}
330
370F0
100
AcDbXrecord
280
     1
102
SHADEPLOT
 70
     0
102
SHADEPLOTRESLEVEL
 70
     2
102
SHADEPLOTCUSTOMDPI
 70
   300
  0
XRECORD
  5
370E5
102
{ACAD_REACTORS
330
370E4
102
}
330
370E4
100
AcDbXrecord
280
     1
102
SHADEPLOT
 70
     0
102
SHADEPLOTRESLEVEL
 70
     2
102
SHADEPLOTCUSTOMDPI
 70
   300
  0
CELLSTYLEMAP
  5
370C0
102
{ACAD_REACTORS
330
35908
102
}
330
35908
100
AcDbCellStyleMap
 90
        3
300
CELLSTYLE
  1
TABLEFORMAT_BEGIN
 90
        5
170
     1
 91
        0
 92
    32768
 62
   257
 93
        1
300
CONTENTFORMAT
  1
CONTENTFORMAT_BEGIN
 90
        0
 91
        0
 92
        4
 93
        0
300

 40
0.0
140
1.0
 94
        5
 62
     0
340
13
144
0.25
309
CONTENTFORMAT_END
171
     1
301
MARGIN
  1
CELLMARGIN_BEGIN
 40
0.06
 40
0.06
 40
0.06
 40
0.06
 40
0.18
 40
0.18
309
CELLMARGIN_END
 94
        6
 95
        1
302
GRIDFORMAT
  1
GRIDFORMAT_BEGIN
 90
        0
 91
        1
 62
     0
 92
       -2
340
0
 93
        0
 40
0.045
309
GRIDFORMAT_END
 95
        2
302
GRIDFORMAT
  1
GRIDFORMAT_BEGIN
 90
        0
 91
        1
 62
     0
 92
       -2
340
0
 93
        0
 40
0.045
309
GRIDFORMAT_END
 95
        4
302
GRIDFORMAT
  1
GRIDFORMAT_BEGIN
 90
        0
 91
        1
 62
     0
 92
       -2
340
0
 93
        0
 40
0.045
309
GRIDFORMAT_END
 95
        8
302
GRIDFORMAT
  1
GRIDFORMAT_BEGIN
 90
        0
 91
        1
 62
     0
 92
       -2
340
0
 93
        0
 40
0.045
309
GRIDFORMAT_END
 95
       16
302
GRIDFORMAT
  1
GRIDFORMAT_BEGIN
 90
        0
 91
        1
 62
     0
 92
       -2
340
0
 93
        0
 40
0.045
309
GRIDFORMAT_END
 95
       32
302
GRIDFORMAT
  1
GRIDFORMAT_BEGIN
 90
        0
 91
        1
 62
     0
 92
       -2
340
0
 93
        0
 40
0.045
309
GRIDFORMAT_END
309
TABLEFORMAT_END
  1
CELLSTYLE_BEGIN
 90
        1
 91
        1
300
_TITLE
309
CELLSTYLE_END
300
CELLSTYLE
  1
TABLEFORMAT_BEGIN
 90
        5
170
     1
 91
        0
 92
        0
 62
   257
 93
        1
300
CONTENTFORMAT
  1
CONTENTFORMAT_BEGIN
 90
        0
 91
        0
 92
        4
 93
        0
300

 40
0.0
140
1.0
 94
        5
 62
     0
340
13
144
0.18
309
CONTENTFORMAT_END
171
     1
301
MARGIN
  1
CELLMARGIN_BEGIN
 40
0.06
 40
0.06
 40
0.06
 40
0.06
 40
0.18
 40
0.18
309
CELLMARGIN_END
 94
        6
 95
        1
302
GRIDFORMAT
  1
GRIDFORMAT_BEGIN
 90
        0
 91
        1
 62
     0
 92
       -2
340
0
 93
        0
 40
0.045
309
GRIDFORMAT_END
 95
        2
302
GRIDFORMAT
  1
GRIDFORMAT_BEGIN
 90
        0
 91
        1
 62
     0
 92
       -2
340
0
 93
        0
 40
0.045
309
GRIDFORMAT_END
 95
        4
302
GRIDFORMAT
  1
GRIDFORMAT_BEGIN
 90
        0
 91
        1
 62
     0
 92
       -2
340
0
 93
        0
 40
0.045
309
GRIDFORMAT_END
 95
        8
302
GRIDFORMAT
  1
GRIDFORMAT_BEGIN
 90
        0
 91
        1
 62
     0
 92
       -2
340
0
 93
        0
 40
0.045
309
GRIDFORMAT_END
 95
       16
302
GRIDFORMAT
  1
GRIDFORMAT_BEGIN
 90
        0
 91
        1
 62
     0
 92
       -2
340
0
 93
        0
 40
0.045
309
GRIDFORMAT_END
 95
       32
302
GRIDFORMAT
  1
GRIDFORMAT_BEGIN
 90
        0
 91
        1
 62
     0
 92
       -2
340
0
 93
        0
 40
0.045
309
GRIDFORMAT_END
309
TABLEFORMAT_END
  1
CELLSTYLE_BEGIN
 90
        2
 91
        1
300
_HEADER
309
CELLSTYLE_END
300
CELLSTYLE
  1
TABLEFORMAT_BEGIN
 90
        5
170
     1
 91
        0
 92
        0
 62
   257
 93
        1
300
CONTENTFORMAT
  1
CONTENTFORMAT_BEGIN
 90
        0
 91
        0
 92
        4
 93
        0
300

 40
0.0
140
1.0
 94
        2
 62
     0
340
13
144
0.18
309
CONTENTFORMAT_END
171
     1
301
MARGIN
  1
CELLMARGIN_BEGIN
 40
0.06
 40
0.06
 40
0.06
 40
0.06
 40
0.18
 40
0.18
309
CELLMARGIN_END
 94
        6
 95
        1
302
GRIDFORMAT
  1
GRIDFORMAT_BEGIN
 90
        0
 91
        1
 62
     0
 92
       -2
340
0
 93
        0
 40
0.045
309
GRIDFORMAT_END
 95
        2
302
GRIDFORMAT
  1
GRIDFORMAT_BEGIN
 90
        0
 91
        1
 62
     0
 92
       -2
340
0
 93
        0
 40
0.045
309
GRIDFORMAT_END
 95
        4
302
GRIDFORMAT
  1
GRIDFORMAT_BEGIN
 90
        0
 91
        1
 62
     0
 92
       -2
340
0
 93
        0
 40
0.045
309
GRIDFORMAT_END
 95
        8
302
GRIDFORMAT
  1
GRIDFORMAT_BEGIN
 90
        0
 91
        1
 62
     0
 92
       -2
340
0
 93
        0
 40
0.045
309
GRIDFORMAT_END
 95
       16
302
GRIDFORMAT
  1
GRIDFORMAT_BEGIN
 90
        0
 91
        1
 62
     0
 92
       -2
340
0
 93
        0
 40
0.045
309
GRIDFORMAT_END
 95
       32
302
GRIDFORMAT
  1
GRIDFORMAT_BEGIN
 90
        0
 91
        1
 62
     0
 92
       -2
340
0
 93
        0
 40
0.045
309
GRIDFORMAT_END
309
TABLEFORMAT_END
  1
CELLSTYLE_BEGIN
 90
        3
 91
        2
300
_DATA
309
CELLSTYLE_END
  0
XRECORD
  5
370C9
102
{ACAD_REACTORS
330
35908
102
}
330
35908
100
AcDbXrecord
280
     1
102
ACAD_ROUNDTRIP_PRE2007_TABLESTYLE
 90
        4
 91
        0
  1

 92
        4
 93
        0
  2

 94
        4
 95
        0
  3

  0
XRECORD
  5
370D5
102
{ACAD_REACTORS
330
370D4
102
}
330
370D4
100
AcDbXrecord
280
     1
102
RTVSPropertyOp0
 70
     1
102
RTVSPropertyOp1
 70
     1
102
RTVSPropertyOp2
 70
     1
102
RTVSPropertyOp3
 70
     1
102
RTVSPropertyOp4
 70
     1
102
RTVSPropertyOp5
 70
     1
102
RTVSPropertyOp6
 70
     1
102
RTVSPropertyOp7
 70
     1
102
RTVSPropertyOp8
 70
     1
102
RTVSPropertyOp9
 70
     1
102
RTVSPropertyOp10
 70
     1
102
RTVSPropertyOp11
 70
     1
102
RTVSPropertyOp12
 70
     1
102
RTVSPropertyOp13
 70
     1
102
RTVSPropertyOp14
 70
     1
102
RTVSPropertyOp15
 70
     1
102
RTVSPropertyOp16
 70
     1
102
RTVSPropertyOp17
 70
     1
102
RTVSPropertyOp18
 70
     1
102
RTVSPropertyOp19
 70
     1
102
RTVSPropertyOp20
 70
     1
102
RTVSPropertyOp21
 70
     1
102
RTVSPropertyOp22
 70
     1
102
RTVSPropertyOp23
 70
     1
102
RTVSPropertyOp24
 70
     1
102
RTVSPropertyOp25
 70
     1
102
RTVSPropertyOp26
 70
     1
102
RTVSPropertyOp27
 70
     1
102
RTVSPropertyOp28
 70
     1
102
RTVSPropertyOp29
 70
     1
102
RTVSPropertyOp30
 70
     1
102
RTVSPropertyOp31
 70
     1
102
RTVSPropertyOp32
 70
     1
  0
XRECORD
  5
370E9
102
{ACAD_REACTORS
330
370E8
102
}
330
370E8
100
AcDbXrecord
280
     1
102
RTVSPropertyOp0
 70
     1
102
RTVSPropertyOp1
 70
     1
102
RTVSPropertyOp2
 70
     1
102
RTVSPropertyOp3
 70
     1
102
RTVSPropertyOp4
 70
     1
102
RTVSPropertyOp5
 70
     1
102
RTVSPropertyOp6
 70
     1
102
RTVSPropertyOp7
 70
     1
102
RTVSPropertyOp8
 70
     1
102
RTVSPropertyOp9
 70
     1
102
RTVSPropertyOp10
 70
     1
102
RTVSPropertyOp11
 70
     1
102
RTVSPropertyOp12
 70
     1
102
RTVSPropertyOp13
 70
     1
102
RTVSPropertyOp14
 70
     1
102
RTVSPropertyOp15
 70
     1
102
RTVSPropertyOp16
 70
     1
102
RTVSPropertyOp17
 70
     1
102
RTVSPropertyOp18
 70
     1
102
RTVSPropertyOp19
 70
     1
102
RTVSPropertyOp20
 70
     1
102
RTVSPropertyOp21
 70
     1
102
RTVSPropertyOp22
 70
     1
102
RTVSPropertyOp23
 70
     1
102
RTVSPropertyOp24
 70
     1
102
RTVSPropertyOp25
 70
     1
102
RTVSPropertyOp26
 70
     1
102
RTVSPropertyOp27
 70
     1
102
RTVSPropertyOp28
 70
     1
102
RTVSPropertyOp29
 70
     1
102
RTVSPropertyOp30
 70
     1
102
RTVSPropertyOp31
 70
     1
102
RTVSPropertyOp32
 70
     1
  0
XRECORD
  5
370EB
102
{ACAD_REACTORS
330
370EA
102
}
330
370EA
100
AcDbXrecord
280
     1
102
RTVSPropertyOp0
 70
     1
102
RTVSPropertyOp1
 70
     1
102
RTVSPropertyOp2
 70
     1
102
RTVSPropertyOp3
 70
     1
102
RTVSPropertyOp4
 70
     1
102
RTVSPropertyOp5
 70
     1
102
RTVSPropertyOp6
 70
     1
102
RTVSPropertyOp7
 70
     1
102
RTVSPropertyOp8
 70
     1
102
RTVSPropertyOp9
 70
     1
102
RTVSPropertyOp10
 70
     1
102
RTVSPropertyOp11
 70
     1
102
RTVSPropertyOp12
 70
     1
102
RTVSPropertyOp13
 70
     1
102
RTVSPropertyOp14
 70
     1
102
RTVSPropertyOp15
 70
     1
102
RTVSPropertyOp16
 70
     1
102
RTVSPropertyOp17
 70
     1
102
RTVSPropertyOp18
 70
     1
102
RTVSPropertyOp19
 70
     1
102
RTVSPropertyOp20
 70
     1
102
RTVSPropertyOp21
 70
     1
102
RTVSPropertyOp22
 70
     1
102
RTVSPropertyOp23
 70
     1
102
RTVSPropertyOp24
 70
     1
102
RTVSPropertyOp25
 70
     1
102
RTVSPropertyOp26
 70
     1
102
RTVSPropertyOp27
 70
     1
102
RTVSPropertyOp28
 70
     1
102
RTVSPropertyOp29
 70
     1
102
RTVSPropertyOp30
 70
     1
102
RTVSPropertyOp31
 70
     1
102
RTVSPropertyOp32
 70
     1
  0
XRECORD
  5
370D3
102
{ACAD_REACTORS
330
370D2
102
}
330
370D2
100
AcDbXrecord
280
     1
102
RTVSPropertyOp0
 70
     1
102
RTVSPropertyOp1
 70
     1
102
RTVSPropertyOp2
 70
     1
102
RTVSPropertyOp3
 70
     1
102
RTVSPropertyOp4
 70
     1
102
RTVSPropertyOp5
 70
     1
102
RTVSPropertyOp6
 70
     1
102
RTVSPropertyOp7
 70
     1
102
RTVSPropertyOp8
 70
     1
102
RTVSPropertyOp9
 70
     1
102
RTVSPropertyOp10
 70
     1
102
RTVSPropertyOp11
 70
     1
102
RTVSPropertyOp12
 70
     1
102
RTVSPropertyOp13
 70
     1
102
RTVSPropertyOp14
 70
     1
102
RTVSPropertyOp15
 70
     1
102
RTVSPropertyOp16
 70
     1
102
RTVSPropertyOp17
 70
     1
102
RTVSPropertyOp18
 70
     1
102
RTVSPropertyOp19
 70
     1
102
RTVSPropertyOp20
 70
     1
102
RTVSPropertyOp21
 70
     1
102
RTVSPropertyOp22
 70
     1
102
RTVSPropertyOp23
 70
     1
102
RTVSPropertyOp24
 70
     1
102
RTVSPropertyOp25
 70
     1
102
RTVSPropertyOp26
 70
     1
102
RTVSPropertyOp27
 70
     1
102
RTVSPropertyOp28
 70
     1
102
RTVSPropertyOp29
 70
     1
102
RTVSPropertyOp30
 70
     1
102
RTVSPropertyOp31
 70
     1
102
RTVSPropertyOp32
 70
     1
  0
XRECORD
  5
370D9
102
{ACAD_REACTORS
330
370D8
102
}
330
370D8
100
AcDbXrecord
280
     1
102
RTVSPropertyOp0
 70
     1
102
RTVSPropertyOp1
 70
     1
102
RTVSPropertyOp2
 70
     1
102
RTVSPropertyOp3
 70
     1
102
RTVSPropertyOp4
 70
     1
102
RTVSPropertyOp5
 70
     1
102
RTVSPropertyOp6
 70
     1
102
RTVSPropertyOp7
 70
     1
102
RTVSPropertyOp8
 70
     1
102
RTVSPropertyOp9
 70
     1
102
RTVSPropertyOp10
 70
     1
102
RTVSPropertyOp11
 70
     1
102
RTVSPropertyOp12
 70
     1
102
RTVSPropertyOp13
 70
     1
102
RTVSPropertyOp14
 70
     1
102
RTVSPropertyOp15
 70
     1
102
RTVSPropertyOp16
 70
     1
102
RTVSPropertyOp17
 70
     1
102
RTVSPropertyOp18
 70
     1
102
RTVSPropertyOp19
 70
     1
102
RTVSPropertyOp20
 70
     1
102
RTVSPropertyOp21
 70
     1
102
RTVSPropertyOp22
 70
     1
102
RTVSPropertyOp23
 70
     1
102
RTVSPropertyOp24
 70
     1
102
RTVSPropertyOp25
 70
     1
102
RTVSPropertyOp26
 70
     1
102
RTVSPropertyOp27
 70
     1
102
RTVSPropertyOp28
 70
     1
102
RTVSPropertyOp29
 70
     1
102
RTVSPropertyOp30
 70
     1
102
RTVSPropertyOp31
 70
     1
102
RTVSPropertyOp32
 70
     1
  0
XRECORD
  5
370E1
102
{ACAD_REACTORS
330
370E0
102
}
330
370E0
100
AcDbXrecord
280
     1
102
RTVSPropertyOp0
 70
     1
102
RTVSPropertyOp1
 70
     1
102
RTVSPropertyOp2
 70
     1
102
RTVSPropertyOp3
 70
     1
102
RTVSPropertyOp4
 70
     1
102
RTVSPropertyOp5
 70
     1
102
RTVSPropertyOp6
 70
     1
102
RTVSPropertyOp7
 70
     1
102
RTVSPropertyOp8
 70
     1
102
RTVSPropertyOp9
 70
     1
102
RTVSPropertyOp10
 70
     1
102
RTVSPropertyOp11
 70
     1
102
RTVSPropertyOp12
 70
     1
102
RTVSPropertyOp13
 70
     1
102
RTVSPropertyOp14
 70
     1
102
RTVSPropertyOp15
 70
     1
102
RTVSPropertyOp16
 70
     1
102
RTVSPropertyOp17
 70
     1
102
RTVSPropertyOp18
 70
     1
102
RTVSPropertyOp19
 70
     1
102
RTVSPropertyOp20
 70
     1
102
RTVSPropertyOp21
 70
     1
102
RTVSPropertyOp22
 70
     1
102
RTVSPropertyOp23
 70
     1
102
RTVSPropertyOp24
 70
     1
102
RTVSPropertyOp25
 70
     1
102
RTVSPropertyOp26
 70
     1
102
RTVSPropertyOp27
 70
     1
102
RTVSPropertyOp28
 70
     1
102
RTVSPropertyOp29
 70
     1
102
RTVSPropertyOp30
 70
     1
102
RTVSPropertyOp31
 70
     1
102
RTVSPropertyOp32
 70
     1
  0
XRECORD
  5
370ED
102
{ACAD_REACTORS
330
370EC
102
}
330
370EC
100
AcDbXrecord
280
     1
102
RTVSPropertyOp0
 70
     1
102
RTVSPropertyOp1
 70
     1
102
RTVSPropertyOp2
 70
     1
102
RTVSPropertyOp3
 70
     1
102
RTVSPropertyOp4
 70
     1
102
RTVSPropertyOp5
 70
     1
102
RTVSPropertyOp6
 70
     1
102
RTVSPropertyOp7
 70
     1
102
RTVSPropertyOp8
 70
     1
102
RTVSPropertyOp9
 70
     1
102
RTVSPropertyOp10
 70
     1
102
RTVSPropertyOp11
 70
     1
102
RTVSPropertyOp12
 70
     1
102
RTVSPropertyOp13
 70
     1
102
RTVSPropertyOp14
 70
     1
102
RTVSPropertyOp15
 70
     1
102
RTVSPropertyOp16
 70
     1
102
RTVSPropertyOp17
 70
     1
102
RTVSPropertyOp18
 70
     1
102
RTVSPropertyOp19
 70
     1
102
RTVSPropertyOp20
 70
     1
102
RTVSPropertyOp21
 70
     1
102
RTVSPropertyOp22
 70
     1
102
RTVSPropertyOp23
 70
     1
102
RTVSPropertyOp24
 70
     1
102
RTVSPropertyOp25
 70
     1
102
RTVSPropertyOp26
 70
     1
102
RTVSPropertyOp27
 70
     1
102
RTVSPropertyOp28
 70
     1
102
RTVSPropertyOp29
 70
     1
102
RTVSPropertyOp30
 70
     1
102
RTVSPropertyOp31
 70
     1
102
RTVSPropertyOp32
 70
     1
  0
XRECORD
  5
370D7
102
{ACAD_REACTORS
330
370D6
102
}
330
370D6
100
AcDbXrecord
280
     1
102
RTVSPropertyOp0
 70
     1
102
RTVSPropertyOp1
 70
     1
102
RTVSPropertyOp2
 70
     1
102
RTVSPropertyOp3
 70
     1
102
RTVSPropertyOp4
 70
     1
102
RTVSPropertyOp5
 70
     1
102
RTVSPropertyOp6
 70
     1
102
RTVSPropertyOp7
 70
     1
102
RTVSPropertyOp8
 70
     1
102
RTVSPropertyOp9
 70
     1
102
RTVSPropertyOp10
 70
     1
102
RTVSPropertyOp11
 70
     1
102
RTVSPropertyOp12
 70
     1
102
RTVSPropertyOp13
 70
     1
102
RTVSPropertyOp14
 70
     1
102
RTVSPropertyOp15
 70
     1
102
RTVSPropertyOp16
 70
     1
102
RTVSPropertyOp17
 70
     1
102
RTVSPropertyOp18
 70
     1
102
RTVSPropertyOp19
 70
     1
102
RTVSPropertyOp20
 70
     1
102
RTVSPropertyOp21
 70
     1
102
RTVSPropertyOp22
 70
     1
102
RTVSPropertyOp23
 70
     1
102
RTVSPropertyOp24
 70
     1
102
RTVSPropertyOp25
 70
     1
102
RTVSPropertyOp26
 70
     1
102
RTVSPropertyOp27
 70
     1
102
RTVSPropertyOp28
 70
     1
102
RTVSPropertyOp29
 70
     1
102
RTVSPropertyOp30
 70
     1
102
RTVSPropertyOp31
 70
     1
102
RTVSPropertyOp32
 70
     1
  0
XRECORD
  5
370F7
102
{ACAD_REACTORS
330
370F6
102
}
330
370F6
100
AcDbXrecord
280
     1
102
RTVSPropertyOp0
 70
     0
102
RTVSPropertyOp1
 70
     0
102
RTVSPropertyOp2
 70
     0
102
RTVSPropertyOp3
 70
     0
102
RTVSPropertyOp4
 70
     0
102
RTVSPropertyOp5
 70
     0
102
RTVSPropertyOp6
 70
     0
102
RTVSPropertyOp7
 70
     0
102
RTVSPropertyOp8
 70
     0
102
RTVSPropertyOp9
 70
     0
102
RTVSPropertyOp10
 70
     0
102
RTVSPropertyOp11
 70
     0
102
RTVSPropertyOp12
 70
     0
102
RTVSPropertyOp13
 70
     0
102
RTVSPropertyOp14
 70
     2
102
RTVSPropertyOp15
 70
     0
102
RTVSPropertyOp16
 70
     0
102
RTVSPropertyOp17
 70
     0
102
RTVSPropertyOp18
 70
     0
102
RTVSPropertyOp19
 70
     0
102
RTVSPropertyOp20
 70
     0
102
RTVSPropertyOp21
 70
     0
102
RTVSPropertyOp22
 70
     0
102
RTVSPropertyOp23
 70
     0
102
RTVSPropertyOp24
 70
     0
102
RTVSPropertyOp25
 70
     0
102
RTVSPropertyOp26
 70
     0
102
RTVSPropertyOp27
 70
     0
102
RTVSPropertyOp28
 70
     1
102
RTVSPropertyOp29
 70
     1
102
RTVSPropertyOp30
 70
     1
102
RTVSPropertyOp31
 70
     1
102
RTVSPropertyOp32
 70
     1
  0
XRECORD
  5
370DF
102
{ACAD_REACTORS
330
370DE
102
}
330
370DE
100
AcDbXrecord
280
     1
102
RTVSPropertyOp0
 70
     1
102
RTVSPropertyOp1
 70
     1
102
RTVSPropertyOp2
 70
     1
102
RTVSPropertyOp3
 70
     1
102
RTVSPropertyOp4
 70
     1
102
RTVSPropertyOp5
 70
     1
102
RTVSPropertyOp6
 70
     1
102
RTVSPropertyOp7
 70
     1
102
RTVSPropertyOp8
 70
     1
102
RTVSPropertyOp9
 70
     1
102
RTVSPropertyOp10
 70
     1
102
RTVSPropertyOp11
 70
     1
102
RTVSPropertyOp12
 70
     1
102
RTVSPropertyOp13
 70
     1
102
RTVSPropertyOp14
 70
     1
102
RTVSPropertyOp15
 70
     1
102
RTVSPropertyOp16
 70
     1
102
RTVSPropertyOp17
 70
     1
102
RTVSPropertyOp18
 70
     1
102
RTVSPropertyOp19
 70
     1
102
RTVSPropertyOp20
 70
     1
102
RTVSPropertyOp21
 70
     1
102
RTVSPropertyOp22
 70
     1
102
RTVSPropertyOp23
 70
     1
102
RTVSPropertyOp24
 70
     1
102
RTVSPropertyOp25
 70
     1
102
RTVSPropertyOp26
 70
     1
102
RTVSPropertyOp27
 70
     1
102
RTVSPropertyOp28
 70
     1
102
RTVSPropertyOp29
 70
     1
102
RTVSPropertyOp30
 70
     1
102
RTVSPropertyOp31
 70
     1
102
RTVSPropertyOp32
 70
     1
  0
XRECORD
  5
370CB
102
{ACAD_REACTORS
330
370CA
102
}
330
370CA
100
AcDbXrecord
280
     1
102
RTVSPropertyOp0
 70
     1
102
RTVSPropertyOp1
 70
     1
102
RTVSPropertyOp2
 70
     1
102
RTVSPropertyOp3
 70
     1
102
RTVSPropertyOp4
 70
     1
102
RTVSPropertyOp5
 70
     1
102
RTVSPropertyOp6
 70
     1
102
RTVSPropertyOp7
 70
     1
102
RTVSPropertyOp8
 70
     1
102
RTVSPropertyOp9
 70
     1
102
RTVSPropertyOp10
 70
     1
102
RTVSPropertyOp11
 70
     1
102
RTVSPropertyOp12
 70
     1
102
RTVSPropertyOp13
 70
     1
102
RTVSPropertyOp14
 70
     1
102
RTVSPropertyOp15
 70
     1
102
RTVSPropertyOp16
 70
     1
102
RTVSPropertyOp17
 70
     1
102
RTVSPropertyOp18
 70
     1
102
RTVSPropertyOp19
 70
     1
102
RTVSPropertyOp20
 70
     1
102
RTVSPropertyOp21
 70
     1
102
RTVSPropertyOp22
 70
     1
102
RTVSPropertyOp23
 70
     1
102
RTVSPropertyOp24
 70
     1
102
RTVSPropertyOp25
 70
     1
102
RTVSPropertyOp26
 70
     1
102
RTVSPropertyOp27
 70
     1
102
RTVSPropertyOp28
 70
     1
102
RTVSPropertyOp29
 70
     1
102
RTVSPropertyOp30
 70
     1
102
RTVSPropertyOp31
 70
     1
102
RTVSPropertyOp32
 70
     1
  0
XRECORD
  5
370CD
102
{ACAD_REACTORS
330
370CC
102
}
330
370CC
100
AcDbXrecord
280
     1
102
RTVSPropertyOp0
 70
     1
102
RTVSPropertyOp1
 70
     1
102
RTVSPropertyOp2
 70
     1
102
RTVSPropertyOp3
 70
     1
102
RTVSPropertyOp4
 70
     1
102
RTVSPropertyOp5
 70
     1
102
RTVSPropertyOp6
 70
     1
102
RTVSPropertyOp7
 70
     1
102
RTVSPropertyOp8
 70
     1
102
RTVSPropertyOp9
 70
     1
102
RTVSPropertyOp10
 70
     1
102
RTVSPropertyOp11
 70
     1
102
RTVSPropertyOp12
 70
     1
102
RTVSPropertyOp13
 70
     1
102
RTVSPropertyOp14
 70
     1
102
RTVSPropertyOp15
 70
     1
102
RTVSPropertyOp16
 70
     1
102
RTVSPropertyOp17
 70
     1
102
RTVSPropertyOp18
 70
     1
102
RTVSPropertyOp19
 70
     1
102
RTVSPropertyOp20
 70
     1
102
RTVSPropertyOp21
 70
     1
102
RTVSPropertyOp22
 70
     1
102
RTVSPropertyOp23
 70
     1
102
RTVSPropertyOp24
 70
     1
102
RTVSPropertyOp25
 70
     1
102
RTVSPropertyOp26
 70
     1
102
RTVSPropertyOp27
 70
     1
102
RTVSPropertyOp28
 70
     1
102
RTVSPropertyOp29
 70
     1
102
RTVSPropertyOp30
 70
     1
102
RTVSPropertyOp31
 70
     1
102
RTVSPropertyOp32
 70
     1
  0
XRECORD
  5
370CF
102
{ACAD_REACTORS
330
370CE
102
}
330
370CE
100
AcDbXrecord
280
     1
102
RTVSPropertyOp0
 70
     1
102
RTVSPropertyOp1
 70
     1
102
RTVSPropertyOp2
 70
     1
102
RTVSPropertyOp3
 70
     1
102
RTVSPropertyOp4
 70
     1
102
RTVSPropertyOp5
 70
     1
102
RTVSPropertyOp6
 70
     1
102
RTVSPropertyOp7
 70
     1
102
RTVSPropertyOp8
 70
     1
102
RTVSPropertyOp9
 70
     1
102
RTVSPropertyOp10
 70
     1
102
RTVSPropertyOp11
 70
     1
102
RTVSPropertyOp12
 70
     1
102
RTVSPropertyOp13
 70
     1
102
RTVSPropertyOp14
 70
     1
102
RTVSPropertyOp15
 70
     1
102
RTVSPropertyOp16
 70
     1
102
RTVSPropertyOp17
 70
     1
102
RTVSPropertyOp18
 70
     1
102
RTVSPropertyOp19
 70
     1
102
RTVSPropertyOp20
 70
     1
102
RTVSPropertyOp21
 70
     1
102
RTVSPropertyOp22
 70
     1
102
RTVSPropertyOp23
 70
     1
102
RTVSPropertyOp24
 70
     1
102
RTVSPropertyOp25
 70
     1
102
RTVSPropertyOp26
 70
     1
102
RTVSPropertyOp27
 70
     1
102
RTVSPropertyOp28
 70
     1
102
RTVSPropertyOp29
 70
     1
102
RTVSPropertyOp30
 70
     1
102
RTVSPropertyOp31
 70
     1
102
RTVSPropertyOp32
 70
     1
  0
XRECORD
  5
370D1
102
{ACAD_REACTORS
330
370D0
102
}
330
370D0
100
AcDbXrecord
280
     1
102
RTVSPropertyOp0
 70
     1
102
RTVSPropertyOp1
 70
     1
102
RTVSPropertyOp2
 70
     1
102
RTVSPropertyOp3
 70
     1
102
RTVSPropertyOp4
 70
     1
102
RTVSPropertyOp5
 70
     1
102
RTVSPropertyOp6
 70
     1
102
RTVSPropertyOp7
 70
     1
102
RTVSPropertyOp8
 70
     1
102
RTVSPropertyOp9
 70
     1
102
RTVSPropertyOp10
 70
     1
102
RTVSPropertyOp11
 70
     1
102
RTVSPropertyOp12
 70
     1
102
RTVSPropertyOp13
 70
     1
102
RTVSPropertyOp14
 70
     1
102
RTVSPropertyOp15
 70
     1
102
RTVSPropertyOp16
 70
     1
102
RTVSPropertyOp17
 70
     1
102
RTVSPropertyOp18
 70
     1
102
RTVSPropertyOp19
 70
     1
102
RTVSPropertyOp20
 70
     1
102
RTVSPropertyOp21
 70
     1
102
RTVSPropertyOp22
 70
     1
102
RTVSPropertyOp23
 70
     1
102
RTVSPropertyOp24
 70
     1
102
RTVSPropertyOp25
 70
     1
102
RTVSPropertyOp26
 70
     1
102
RTVSPropertyOp27
 70
     1
102
RTVSPropertyOp28
 70
     1
102
RTVSPropertyOp29
 70
     1
102
RTVSPropertyOp30
 70
     1
102
RTVSPropertyOp31
 70
     1
102
RTVSPropertyOp32
 70
     1
  0
XRECORD
  5
370FB
102
{ACAD_REACTORS
330
370FA
102
}
330
370FA
100
AcDbXrecord
280
     1
102
RTVSPropertyOp0
 70
     1
102
RTVSPropertyOp1
 70
     1
102
RTVSPropertyOp2
 70
     1
102
RTVSPropertyOp3
 70
     1
102
RTVSPropertyOp4
 70
     1
102
RTVSPropertyOp5
 70
     1
102
RTVSPropertyOp6
 70
     1
102
RTVSPropertyOp7
 70
     1
102
RTVSPropertyOp8
 70
     1
102
RTVSPropertyOp9
 70
     1
102
RTVSPropertyOp10
 70
     1
102
RTVSPropertyOp11
 70
     1
102
RTVSPropertyOp12
 70
     1
102
RTVSPropertyOp13
 70
     1
102
RTVSPropertyOp14
 70
     1
102
RTVSPropertyOp15
 70
     1
102
RTVSPropertyOp16
 70
     1
102
RTVSPropertyOp17
 70
     1
102
RTVSPropertyOp18
 70
     1
102
RTVSPropertyOp19
 70
     1
102
RTVSPropertyOp20
 70
     1
102
RTVSPropertyOp21
 70
     1
102
RTVSPropertyOp22
 70
     1
102
RTVSPropertyOp23
 70
     1
102
RTVSPropertyOp24
 70
     1
102
RTVSPropertyOp25
 70
     1
102
RTVSPropertyOp26
 70
     1
102
RTVSPropertyOp27
 70
     1
102
RTVSPropertyOp28
 70
     1
102
RTVSPropertyOp29
 70
     1
102
RTVSPropertyOp30
 70
     1
102
RTVSPropertyOp31
 70
     1
102
RTVSPropertyOp32
 70
     1
  0
XRECORD
  5
370F3
102
{ACAD_REACTORS
330
370F2
102
}
330
370F2
100
AcDbXrecord
280
     1
102
RTVSPropertyOp0
 70
     0
102
RTVSPropertyOp1
 70
     0
102
RTVSPropertyOp2
 70
     0
102
RTVSPropertyOp3
 70
     0
102
RTVSPropertyOp4
 70
     0
102
RTVSPropertyOp5
 70
     0
102
RTVSPropertyOp6
 70
     0
102
RTVSPropertyOp7
 70
     0
102
RTVSPropertyOp8
 70
     0
102
RTVSPropertyOp9
 70
     0
102
RTVSPropertyOp10
 70
     0
102
RTVSPropertyOp11
 70
     0
102
RTVSPropertyOp12
 70
     0
102
RTVSPropertyOp13
 70
     0
102
RTVSPropertyOp14
 70
     2
102
RTVSPropertyOp15
 70
     0
102
RTVSPropertyOp16
 70
     0
102
RTVSPropertyOp17
 70
     0
102
RTVSPropertyOp18
 70
     0
102
RTVSPropertyOp19
 70
     0
102
RTVSPropertyOp20
 70
     0
102
RTVSPropertyOp21
 70
     0
102
RTVSPropertyOp22
 70
     0
102
RTVSPropertyOp23
 70
     0
102
RTVSPropertyOp24
 70
     0
102
RTVSPropertyOp25
 70
     0
102
RTVSPropertyOp26
 70
     0
102
RTVSPropertyOp27
 70
     0
102
RTVSPropertyOp28
 70
     1
102
RTVSPropertyOp29
 70
     1
102
RTVSPropertyOp30
 70
     1
102
RTVSPropertyOp31
 70
     1
102
RTVSPropertyOp32
 70
     1
  0
XRECORD
  5
370DD
102
{ACAD_REACTORS
330
370DC
102
}
330
370DC
100
AcDbXrecord
280
     1
102
RTVSPropertyOp0
 70
     1
102
RTVSPropertyOp1
 70
     1
102
RTVSPropertyOp2
 70
     1
102
RTVSPropertyOp3
 70
     1
102
RTVSPropertyOp4
 70
     1
102
RTVSPropertyOp5
 70
     1
102
RTVSPropertyOp6
 70
     1
102
RTVSPropertyOp7
 70
     1
102
RTVSPropertyOp8
 70
     1
102
RTVSPropertyOp9
 70
     1
102
RTVSPropertyOp10
 70
     1
102
RTVSPropertyOp11
 70
     1
102
RTVSPropertyOp12
 70
     1
102
RTVSPropertyOp13
 70
     1
102
RTVSPropertyOp14
 70
     1
102
RTVSPropertyOp15
 70
     1
102
RTVSPropertyOp16
 70
     1
102
RTVSPropertyOp17
 70
     1
102
RTVSPropertyOp18
 70
     1
102
RTVSPropertyOp19
 70
     1
102
RTVSPropertyOp20
 70
     1
102
RTVSPropertyOp21
 70
     1
102
RTVSPropertyOp22
 70
     1
102
RTVSPropertyOp23
 70
     1
102
RTVSPropertyOp24
 70
     1
102
RTVSPropertyOp25
 70
     1
102
RTVSPropertyOp26
 70
     1
102
RTVSPropertyOp27
 70
     1
102
RTVSPropertyOp28
 70
     1
102
RTVSPropertyOp29
 70
     1
102
RTVSPropertyOp30
 70
     1
102
RTVSPropertyOp31
 70
     1
102
RTVSPropertyOp32
 70
     1
  0
XRECORD
  5
370F5
102
{ACAD_REACTORS
330
370F4
102
}
330
370F4
100
AcDbXrecord
280
     1
102
RTVSPropertyOp0
 70
     0
102
RTVSPropertyOp1
 70
     0
102
RTVSPropertyOp2
 70
     0
102
RTVSPropertyOp3
 70
     0
102
RTVSPropertyOp4
 70
     0
102
RTVSPropertyOp5
 70
     0
102
RTVSPropertyOp6
 70
     0
102
RTVSPropertyOp7
 70
     0
102
RTVSPropertyOp8
 70
     0
102
RTVSPropertyOp9
 70
     0
102
RTVSPropertyOp10
 70
     0
102
RTVSPropertyOp11
 70
     0
102
RTVSPropertyOp12
 70
     0
102
RTVSPropertyOp13
 70
     0
102
RTVSPropertyOp14
 70
     2
102
RTVSPropertyOp15
 70
     0
102
RTVSPropertyOp16
 70
     0
102
RTVSPropertyOp17
 70
     0
102
RTVSPropertyOp18
 70
     0
102
RTVSPropertyOp19
 70
     0
102
RTVSPropertyOp20
 70
     0
102
RTVSPropertyOp21
 70
     0
102
RTVSPropertyOp22
 70
     0
102
RTVSPropertyOp23
 70
     0
102
RTVSPropertyOp24
 70
     0
102
RTVSPropertyOp25
 70
     0
102
RTVSPropertyOp26
 70
     0
102
RTVSPropertyOp27
 70
     0
102
RTVSPropertyOp28
 70
     1
102
RTVSPropertyOp29
 70
     1
102
RTVSPropertyOp30
 70
     1
102
RTVSPropertyOp31
 70
     1
102
RTVSPropertyOp32
 70
     1
  0
XRECORD
  5
370EF
102
{ACAD_REACTORS
330
370EE
102
}
330
370EE
100
AcDbXrecord
280
     1
102
RTVSPropertyOp0
 70
     1
102
RTVSPropertyOp1
 70
     1
102
RTVSPropertyOp2
 70
     1
102
RTVSPropertyOp3
 70
     1
102
RTVSPropertyOp4
 70
     1
102
RTVSPropertyOp5
 70
     1
102
RTVSPropertyOp6
 70
     1
102
RTVSPropertyOp7
 70
     1
102
RTVSPropertyOp8
 70
     1
102
RTVSPropertyOp9
 70
     1
102
RTVSPropertyOp10
 70
     1
102
RTVSPropertyOp11
 70
     1
102
RTVSPropertyOp12
 70
     1
102
RTVSPropertyOp13
 70
     1
102
RTVSPropertyOp14
 70
     1
102
RTVSPropertyOp15
 70
     1
102
RTVSPropertyOp16
 70
     1
102
RTVSPropertyOp17
 70
     1
102
RTVSPropertyOp18
 70
     1
102
RTVSPropertyOp19
 70
     1
102
RTVSPropertyOp20
 70
     1
102
RTVSPropertyOp21
 70
     1
102
RTVSPropertyOp22
 70
     1
102
RTVSPropertyOp23
 70
     1
102
RTVSPropertyOp24
 70
     1
102
RTVSPropertyOp25
 70
     1
102
RTVSPropertyOp26
 70
     1
102
RTVSPropertyOp27
 70
     1
102
RTVSPropertyOp28
 70
     1
102
RTVSPropertyOp29
 70
     1
102
RTVSPropertyOp30
 70
     1
102
RTVSPropertyOp31
 70
     1
102
RTVSPropertyOp32
 70
     1
  0
XRECORD
  5
37105
102
{ACAD_REACTORS
330
37104
102
}
330
37104
100
AcDbXrecord
280
     1
102
RTVSPropertyOp0
 70
     1
102
RTVSPropertyOp1
 70
     1
102
RTVSPropertyOp2
 70
     1
102
RTVSPropertyOp3
 70
     1
102
RTVSPropertyOp4
 70
     1
102
RTVSPropertyOp5
 70
     1
102
RTVSPropertyOp6
 70
     1
102
RTVSPropertyOp7
 70
     1
102
RTVSPropertyOp8
 70
     1
102
RTVSPropertyOp9
 70
     1
102
RTVSPropertyOp10
 70
     1
102
RTVSPropertyOp11
 70
     1
102
RTVSPropertyOp12
 70
     1
102
RTVSPropertyOp13
 70
     1
102
RTVSPropertyOp14
 70
     1
102
RTVSPropertyOp15
 70
     1
102
RTVSPropertyOp16
 70
     1
102
RTVSPropertyOp17
 70
     1
102
RTVSPropertyOp18
 70
     1
102
RTVSPropertyOp19
 70
     1
102
RTVSPropertyOp20
 70
     1
102
RTVSPropertyOp21
 70
     1
102
RTVSPropertyOp22
 70
     1
102
RTVSPropertyOp23
 70
     1
102
RTVSPropertyOp24
 70
     1
102
RTVSPropertyOp25
 70
     1
102
RTVSPropertyOp26
 70
     1
102
RTVSPropertyOp27
 70
     1
102
RTVSPropertyOp28
 70
     1
102
RTVSPropertyOp29
 70
     1
102
RTVSPropertyOp30
 70
     1
102
RTVSPropertyOp31
 70
     1
102
RTVSPropertyOp32
 70
     1
  0
XRECORD
  5
37103
102
{ACAD_REACTORS
330
37102
102
}
330
37102
100
AcDbXrecord
280
     1
102
RTVSPropertyOp0
 70
     1
102
RTVSPropertyOp1
 70
     1
102
RTVSPropertyOp2
 70
     1
102
RTVSPropertyOp3
 70
     1
102
RTVSPropertyOp4
 70
     1
102
RTVSPropertyOp5
 70
     1
102
RTVSPropertyOp6
 70
     1
102
RTVSPropertyOp7
 70
     1
102
RTVSPropertyOp8
 70
     1
102
RTVSPropertyOp9
 70
     1
102
RTVSPropertyOp10
 70
     1
102
RTVSPropertyOp11
 70
     1
102
RTVSPropertyOp12
 70
     1
102
RTVSPropertyOp13
 70
     1
102
RTVSPropertyOp14
 70
     1
102
RTVSPropertyOp15
 70
     1
102
RTVSPropertyOp16
 70
     1
102
RTVSPropertyOp17
 70
     1
102
RTVSPropertyOp18
 70
     1
102
RTVSPropertyOp19
 70
     1
102
RTVSPropertyOp20
 70
     1
102
RTVSPropertyOp21
 70
     1
102
RTVSPropertyOp22
 70
     1
102
RTVSPropertyOp23
 70
     1
102
RTVSPropertyOp24
 70
     1
102
RTVSPropertyOp25
 70
     1
102
RTVSPropertyOp26
 70
     1
102
RTVSPropertyOp27
 70
     1
102
RTVSPropertyOp28
 70
     1
102
RTVSPropertyOp29
 70
     1
102
RTVSPropertyOp30
 70
     1
102
RTVSPropertyOp31
 70
     1
102
RTVSPropertyOp32
 70
     1
  0
XRECORD
  5
370FD
102
{ACAD_REACTORS
330
370FC
102
}
330
370FC
100
AcDbXrecord
280
     1
102
RTVSPropertyOp0
 70
     1
102
RTVSPropertyOp1
 70
     1
102
RTVSPropertyOp2
 70
     1
102
RTVSPropertyOp3
 70
     1
102
RTVSPropertyOp4
 70
     1
102
RTVSPropertyOp5
 70
     1
102
RTVSPropertyOp6
 70
     1
102
RTVSPropertyOp7
 70
     1
102
RTVSPropertyOp8
 70
     1
102
RTVSPropertyOp9
 70
     1
102
RTVSPropertyOp10
 70
     1
102
RTVSPropertyOp11
 70
     1
102
RTVSPropertyOp12
 70
     1
102
RTVSPropertyOp13
 70
     1
102
RTVSPropertyOp14
 70
     1
102
RTVSPropertyOp15
 70
     1
102
RTVSPropertyOp16
 70
     1
102
RTVSPropertyOp17
 70
     1
102
RTVSPropertyOp18
 70
     1
102
RTVSPropertyOp19
 70
     1
102
RTVSPropertyOp20
 70
     1
102
RTVSPropertyOp21
 70
     1
102
RTVSPropertyOp22
 70
     1
102
RTVSPropertyOp23
 70
     1
102
RTVSPropertyOp24
 70
     1
102
RTVSPropertyOp25
 70
     1
102
RTVSPropertyOp26
 70
     1
102
RTVSPropertyOp27
 70
     1
102
RTVSPropertyOp28
 70
     1
102
RTVSPropertyOp29
 70
     1
102
RTVSPropertyOp30
 70
     1
102
RTVSPropertyOp31
 70
     1
102
RTVSPropertyOp32
 70
     1
  0
XRECORD
  5
370FF
102
{ACAD_REACTORS
330
370FE
102
}
330
370FE
100
AcDbXrecord
280
     1
102
RTVSPropertyOp0
 70
     1
102
RTVSPropertyOp1
 70
     1
102
RTVSPropertyOp2
 70
     1
102
RTVSPropertyOp3
 70
     1
102
RTVSPropertyOp4
 70
     1
102
RTVSPropertyOp5
 70
     1
102
RTVSPropertyOp6
 70
     1
102
RTVSPropertyOp7
 70
     1
102
RTVSPropertyOp8
 70
     1
102
RTVSPropertyOp9
 70
     1
102
RTVSPropertyOp10
 70
     1
102
RTVSPropertyOp11
 70
     1
102
RTVSPropertyOp12
 70
     1
102
RTVSPropertyOp13
 70
     1
102
RTVSPropertyOp14
 70
     1
102
RTVSPropertyOp15
 70
     1
102
RTVSPropertyOp16
 70
     1
102
RTVSPropertyOp17
 70
     1
102
RTVSPropertyOp18
 70
     1
102
RTVSPropertyOp19
 70
     1
102
RTVSPropertyOp20
 70
     1
102
RTVSPropertyOp21
 70
     1
102
RTVSPropertyOp22
 70
     1
102
RTVSPropertyOp23
 70
     1
102
RTVSPropertyOp24
 70
     1
102
RTVSPropertyOp25
 70
     1
102
RTVSPropertyOp26
 70
     1
102
RTVSPropertyOp27
 70
     1
102
RTVSPropertyOp28
 70
     1
102
RTVSPropertyOp29
 70
     1
102
RTVSPropertyOp30
 70
     1
102
RTVSPropertyOp31
 70
     1
102
RTVSPropertyOp32
 70
     1
  0
XRECORD
  5
370DB
102
{ACAD_REACTORS
330
370DA
102
}
330
370DA
100
AcDbXrecord
280
     1
102
RTVSPropertyOp0
 70
     1
102
RTVSPropertyOp1
 70
     1
102
RTVSPropertyOp2
 70
     1
102
RTVSPropertyOp3
 70
     1
102
RTVSPropertyOp4
 70
     1
102
RTVSPropertyOp5
 70
     1
102
RTVSPropertyOp6
 70
     1
102
RTVSPropertyOp7
 70
     1
102
RTVSPropertyOp8
 70
     1
102
RTVSPropertyOp9
 70
     1
102
RTVSPropertyOp10
 70
     1
102
RTVSPropertyOp11
 70
     1
102
RTVSPropertyOp12
 70
     1
102
RTVSPropertyOp13
 70
     1
102
RTVSPropertyOp14
 70
     1
102
RTVSPropertyOp15
 70
     1
102
RTVSPropertyOp16
 70
     1
102
RTVSPropertyOp17
 70
     1
102
RTVSPropertyOp18
 70
     1
102
RTVSPropertyOp19
 70
     1
102
RTVSPropertyOp20
 70
     1
102
RTVSPropertyOp21
 70
     1
102
RTVSPropertyOp22
 70
     1
102
RTVSPropertyOp23
 70
     1
102
RTVSPropertyOp24
 70
     1
102
RTVSPropertyOp25
 70
     1
102
RTVSPropertyOp26
 70
     1
102
RTVSPropertyOp27
 70
     1
102
RTVSPropertyOp28
 70
     1
102
RTVSPropertyOp29
 70
     1
102
RTVSPropertyOp30
 70
     1
102
RTVSPropertyOp31
 70
     1
102
RTVSPropertyOp32
 70
     1
  0
XRECORD
  5
370F9
102
{ACAD_REACTORS
330
370F8
102
}
330
370F8
100
AcDbXrecord
280
     1
102
RTVSPropertyOp0
 70
     1
102
RTVSPropertyOp1
 70
     1
102
RTVSPropertyOp2
 70
     1
102
RTVSPropertyOp3
 70
     1
102
RTVSPropertyOp4
 70
     1
102
RTVSPropertyOp5
 70
     1
102
RTVSPropertyOp6
 70
     1
102
RTVSPropertyOp7
 70
     1
102
RTVSPropertyOp8
 70
     1
102
RTVSPropertyOp9
 70
     1
102
RTVSPropertyOp10
 70
     1
102
RTVSPropertyOp11
 70
     1
102
RTVSPropertyOp12
 70
     1
102
RTVSPropertyOp13
 70
     1
102
RTVSPropertyOp14
 70
     1
102
RTVSPropertyOp15
 70
     1
102
RTVSPropertyOp16
 70
     1
102
RTVSPropertyOp17
 70
     1
102
RTVSPropertyOp18
 70
     1
102
RTVSPropertyOp19
 70
     1
102
RTVSPropertyOp20
 70
     1
102
RTVSPropertyOp21
 70
     1
102
RTVSPropertyOp22
 70
     1
102
RTVSPropertyOp23
 70
     1
102
RTVSPropertyOp24
 70
     1
102
RTVSPropertyOp25
 70
     1
102
RTVSPropertyOp26
 70
     1
102
RTVSPropertyOp27
 70
     1
102
RTVSPropertyOp28
 70
     1
102
RTVSPropertyOp29
 70
     1
102
RTVSPropertyOp30
 70
     1
102
RTVSPropertyOp31
 70
     1
102
RTVSPropertyOp32
 70
     1
  0
XRECORD
  5
37101
102
{ACAD_REACTORS
330
37100
102
}
330
37100
100
AcDbXrecord
280
     1
102
RTVSPropertyOp0
 70
     1
102
RTVSPropertyOp1
 70
     1
102
RTVSPropertyOp2
 70
     1
102
RTVSPropertyOp3
 70
     1
102
RTVSPropertyOp4
 70
     1
102
RTVSPropertyOp5
 70
     1
102
RTVSPropertyOp6
 70
     1
102
RTVSPropertyOp7
 70
     1
102
RTVSPropertyOp8
 70
     1
102
RTVSPropertyOp9
 70
     1
102
RTVSPropertyOp10
 70
     1
102
RTVSPropertyOp11
 70
     1
102
RTVSPropertyOp12
 70
     1
102
RTVSPropertyOp13
 70
     1
102
RTVSPropertyOp14
 70
     1
102
RTVSPropertyOp15
 70
     1
102
RTVSPropertyOp16
 70
     1
102
RTVSPropertyOp17
 70
     1
102
RTVSPropertyOp18
 70
     1
102
RTVSPropertyOp19
 70
     1
102
RTVSPropertyOp20
 70
     1
102
RTVSPropertyOp21
 70
     1
102
RTVSPropertyOp22
 70
     1
102
RTVSPropertyOp23
 70
     1
102
RTVSPropertyOp24
 70
     1
102
RTVSPropertyOp25
 70
     1
102
RTVSPropertyOp26
 70
     1
102
RTVSPropertyOp27
 70
     1
102
RTVSPropertyOp28
 70
     1
102
RTVSPropertyOp29
 70
     1
102
RTVSPropertyOp30
 70
     1
102
RTVSPropertyOp31
 70
     1
102
RTVSPropertyOp32
 70
     1
  0
ENDSEC
  0
EOF
