  0
SECTION
  2
HEADER
  9
$ACADVER
  1
AC1009
  9
$INSBASE
 10
1.2351028486011071
 20
11.247746401293711
 30
0.0
  9
$EXTMIN
 10
-1.8440970690534451
 20
13.15902177430608
 30
-0.0000000000000568
  9
$EXTMAX
 10
22.926048936159422
 20
26.204806585896389
 30
0.0000000000001856
  9
$LIMMIN
 10
0.0
 20
0.0
  9
$LIMMAX
 10
12.0
 20
9.0
  9
$ORTHOMODE
 70
     0
  9
$REGENMODE
 70
     1
  9
$FILLMODE
 70
     1
  9
$QTEXTMODE
 70
     0
  9
$MIRRTEXT
 70
     0
  9
$DRAGMODE
 70
     2
  9
$LTSCALE
 40
1.0
  9
$OSMODE
 70
   111
  9
$ATTMODE
 70
     1
  9
$TEXTSIZE
 40
0.2
  9
$TRACEWID
 40
0.05
  9
$TEXTSTYLE
  7
GORDON
  9
$CLAYER
  8
0
  9
$CELTYPE
  6
BYLAYER
  9
$CECOLOR
 62
   256
  9
$DIMSCALE
 40
1.0
  9
$DIMASZ
 40
0.18
  9
$DIMEXO
 40
0.0625
  9
$DIMDLI
 40
0.38
  9
$DIMRND
 40
0.0
  9
$DIMDLE
 40
0.0
  9
$DIMEXE
 40
0.18
  9
$DIMTP
 40
0.0
  9
$DIMTM
 40
0.0
  9
$DIMTXT
 40
0.18
  9
$DIMCEN
 40
0.09
  9
$DIMTSZ
 40
0.0
  9
$DIMTOL
 70
     0
  9
$DIMLIM
 70
     0
  9
$DIMTIH
 70
     1
  9
$DIMTOH
 70
     1
  9
$DIMSE1
 70
     0
  9
$DIMSE2
 70
     0
  9
$DIMTAD
 70
     0
  9
$DIMZIN
 70
     0
  9
$DIMBLK
  1

  9
$DIMASO
 70
     1
  9
$DIMSHO
 70
     1
  9
$DIMPOST
  1

  9
$DIMAPOST
  1

  9
$DIMALT
 70
     0
  9
$DIMALTD
 70
     2
  9
$DIMALTF
 40
25.399999999999999
  9
$DIMLFAC
 40
1.0
  9
$DIMTOFL
 70
     0
  9
$DIMTVP
 40
0.0
  9
$DIMTIX
 70
     0
  9
$DIMSOXD
 70
     0
  9
$DIMSAH
 70
     0
  9
$DIMBLK1
  1

  9
$DIMBLK2
  1

  9
$DIMSTYLE
  2
STANDARD
  9
$DIMCLRD
 70
     0
  9
$DIMCLRE
 70
     0
  9
$DIMCLRT
 70
     0
  9
$DIMTFAC
 40
1.0
  9
$DIMGAP
 40
0.09
  9
$LUNITS
 70
     5
  9
$LUPREC
 70
     6
  9
$SKETCHINC
 40
0.1
  9
$FILLETRAD
 40
0.0
  9
$AUNITS
 70
     0
  9
$AUPREC
 70
     0
  9
$MENU
  1
.
  9
$ELEVATION
 40
0.0
  9
$PELEVATION
 40
0.0
  9
$THICKNESS
 40
0.0
  9
$LIMCHECK
 70
     0
  9
$BLIPMODE
 70
     0
  9
$CHAMFERA
 40
0.5
  9
$CHAMFERB
 40
0.5
  9
$SKPOLY
 70
     0
  9
$TDCREATE
 40
2451225.386950695
  9
$TDUPDATE
 40
2454698.6081967368
  9
$TDINDWG
 40
0.5787345486
  9
$TDUSRTIMER
 40
0.5787343634
  9
$USRTIMER
 70
     1
  9
$ANGBASE
 50
0.0
  9
$ANGDIR
 70
     0
  9
$PDMODE
 70
     3
  9
$PDSIZE
 40
0.0
  9
$PLINEWID
 40
0.0
  9
$COORDS
 70
     1
  9
$SPLFRAME
 70
     0
  9
$SPLINETYPE
 70
     6
  9
$SPLINESEGS
 70
     8
  9
$ATTDIA
 70
     0
  9
$ATTREQ
 70
     1
  9
$HANDLING
 70
     1
  9
$HANDSEED
  5
6CE4C
  9
$SURFTAB1
 70
     6
  9
$SURFTAB2
 70
     6
  9
$SURFTYPE
 70
     6
  9
$SURFU
 70
     6
  9
$SURFV
 70
     6
  9
$UCSNAME
  2

  9
$UCSORG
 10
0.0
 20
0.0
 30
0.0
  9
$UCSXDIR
 10
1.0
 20
0.0
 30
0.0
  9
$UCSYDIR
 10
0.0
 20
1.0
 30
0.0
  9
$PUCSNAME
  2

  9
$PUCSORG
 10
0.0
 20
0.0
 30
0.0
  9
$PUCSXDIR
 10
1.0
 20
0.0
 30
0.0
  9
$PUCSYDIR
 10
0.0
 20
1.0
 30
0.0
  9
$USERI1
 70
     0
  9
$USERI2
 70
     0
  9
$USERI3
 70
     0
  9
$USERI4
 70
     0
  9
$USERI5
 70
     0
  9
$USERR1
 40
0.0
  9
$USERR2
 40
0.0
  9
$USERR3
 40
0.0
  9
$USERR4
 40
0.0
  9
$USERR5
 40
0.0
  9
$WORLDVIEW
 70
     1
  9
$SHADEDGE
 70
     3
  9
$SHADEDIF
 70
    70
  9
$TILEMODE
 70
     1
  9
$MAXACTVP
 70
    48
  9
$PLIMCHECK
 70
     0
  9
$PEXTMIN
 10
-0.0001218952091371
 20
-0.0000080246436092
 30
-0.000000000000013
  9
$PEXTMAX
 10
10.20579523931576
 20
7.7651132149410174
 30
0.0000000000000023
  9
$PLIMMIN
 10
-0.2079161059762549
 20
-0.2079166691697489
  9
$PLIMMAX
 10
10.79208365372785
 20
8.2920830905343603
  9
$UNITMODE
 70
     0
  9
$VISRETAIN
 70
     1
  9
$PLINEGEN
 70
     0
  9
$PSLTSCALE
 70
     1
  0
ENDSEC
  0
SECTION
  2
TABLES
  0
TABLE
  2
VPORT
 70
     1
  0
VPORT
  2
*ACTIVE
 70
     0
 10
0.0
 20
0.0
 11
1.0
 21
1.0
 12
10.33966289342939
 22
19.731453880916241
 13
0.0
 23
0.0
 14
0.5
 24
0.5
 15
0.5
 25
0.5
 16
0.0
 26
0.0
 36
1.0
 17
0.0
 27
0.0
 37
0.0
 40
13.26525005513979
 41
1.9172932330827059
 42
50.0
 43
0.0
 44
0.0
 50
0.0
 51
0.0
 71
     0
 72
   100
 73
     1
 74
     1
 75
     0
 76
     0
 77
     0
 78
     2
  0
ENDTAB
  0
TABLE
  2
LTYPE
 70
     1
  0
LTYPE
  2
CONTINUOUS
 70
     0
  3
Solid line
 72
    65
 73
     0
 40
0.0
  0
ENDTAB
  0
TABLE
  2
LAYER
 70
     5
  0
LAYER
  2
0
 70
     0
 62
     7
  6
CONTINUOUS
  0
LAYER
  2
DIM
 70
     0
 62
     1
  6
CONTINUOUS
  0
LAYER
  2
GRID
 70
     0
 62
     2
  6
CONTINUOUS
  0
LAYER
  2
HATCH
 70
     0
 62
     2
  6
CONTINUOUS
  0
LAYER
  2
DETAIL
 70
     0
 62
     1
  6
CONTINUOUS
  0
ENDTAB
  0
TABLE
  2
STYLE
 70
     3
  0
STYLE
  2
STANDARD
 70
     0
 40
0.0
 41
1.0
 50
0.0
 71
     0
 42
0.2
  3
txt
  4

  0
STYLE
  2
GORDON
 70
     0
 40
0.0
 41
1.0
 50
0.0
 71
     0
 42
0.2
  3
romand.shx
  4

  0
STYLE
  2
STD
 70
     0
 40
0.0
 41
1.0
 50
0.0
 71
     0
 42
0.25
  3
txt
  4

  0
ENDTAB
  0
TABLE
  2
VIEW
 70
     0
  0
ENDTAB
  0
TABLE
  2
UCS
 70
     0
  0
ENDTAB
  0
TABLE
  2
APPID
 70
    23
  0
APPID
  2
ACAD
 70
     0
  0
APPID
  2
RAK
 70
     0
  0
APPID
  2
DCO15
 70
     0
  0
APPID
  2
ABNSLEADERTOOLS
 70
     0
  0
APPID
  2
ACAD_PSEXT
 70
     0
  0
APPID
  2
ACAD_DSTYLE_DIMTEXT_FILL
 70
     0
  0
APPID
  2
ACAECLAYERSTANDARD
 70
     0
  0
APPID
  2
ACDBBLOCKREPETAG
 70
     0
  0
APPID
  2
ACLAYERTOOLS
 70
     0
  0
APPID
  2
ACAD_DSTYLE_DIMJAG
 70
     0
  0
APPID
  2
ACAD_DSTYLE_DIMBREAK
 70
     0
  0
APPID
  2
ACADANNOTATIVE
 70
     0
  0
APPID
  2
ACAD_DSTYLE_DIMTALN
 70
     0
  0
APPID
  2
ACADANNOAV
 70
     0
  0
APPID
  2
ACAD_MLEADERVER
 70
     0
  0
APPID
  2
ACADANNOPO
 70
     0
  0
APPID
  2
ACAD_DSTYLE_DIMRADIAL_EXTENSION
 70
     0
  0
APPID
  2
ACDBDYNAMICBLOCKTRUENAME
 70
     0
  0
APPID
  2
ACDBDYNAMICBLOCKGUID
 70
     0
  0
APPID
  2
ACAUTHENVIRON
 70
     0
  0
APPID
  2
ACDBBLOCKREPBTAG
 70
     0
  0
APPID
  2
ACAD_EXEMPT_FROM_CAD_STANDARDS
 70
     0
  0
APPID
  2
ACDBATTR
 70
     0
  0
ENDTAB
  0
TABLE
  2
DIMSTYLE
 70
     5
  0
DIMSTYLE
  2
STANDARD
 70
     0
  3

  4

  5

  6

  7

 40
1.0
 41
0.18
 42
0.0625
 43
0.38
 44
0.18
 45
0.0
 46
0.0
 47
0.0
 48
0.0
140
0.18
141
0.09
142
0.0
143
25.399999999999999
144
1.0
145
0.0
146
1.0
147
0.09
 71
     0
 72
     0
 73
     1
 74
     1
 75
     0
 76
     0
 77
     0
 78
     0
170
     0
171
     2
172
     0
173
     0
174
     0
175
     0
176
     0
177
     0
178
     0
  0
ENDTAB
  0
ENDSEC
  0
SECTION
  2
BLOCKS
  0
BLOCK
  8
0
  2
$MODEL_SPACE
 70
     0
 10
0.0
 20
0.0
 30
0.0
  3
$MODEL_SPACE
  1

  0
ENDBLK
  5
6C674
  8
0
  0
BLOCK
 67
     1
  8
0
  2
$PAPER_SPACE
 70
     0
 10
0.0
 20
0.0
 30
0.0
  3
$PAPER_SPACE
  1

  0
ENDBLK
  5
6C670
 67
     1
  8
0
  0
BLOCK
  8
0
  2
*U534
 70
     1
 10
0.0
 20
0.0
 30
0.0
  3
*U534
  1

  0
SOLID
  5
6C1B9
  8
DIM
 10
12.861111782681711
 20
21.083474248764549
 30
0.0000000000001625
 11
13.05678480029448
 21
20.9223898569402
 31
0.0000000000001625
 12
12.819445116015039
 22
21.01130546511585
 32
0.0000000000001625
 13
12.819445116015039
 23
21.01130546511585
 33
0.0000000000001625
  0
POLYLINE
  5
6C1BA
  8
DIM
 66
     1
 10
0.0
 20
0.0
 30
0.0
  0
VERTEX
  5
6CE25
  8
DIM
 10
12.84027844934837
 20
21.0473898569402
 30
0.0
  0
VERTEX
  5
6CE26
  8
DIM
 10
12.29506664278995
 20
21.36216804022207
 30
0.0
  0
SEQEND
  5
6CE27
  8
DIM
  0
ENDBLK
  5
6C1BF
  8
0
  0
BLOCK
  8
0
  2
*U535
 70
     1
 10
0.0
 20
0.0
 30
0.0
  3
*U535
  1

  0
SOLID
  5
6C1C1
  8
DIM
 10
13.707684397650709
 20
18.746801900129999
 30
0.0000000000001625
 11
13.66601773098404
 21
18.496801900129999
 31
0.0000000000001625
 12
13.624351064317381
 22
18.746801900129999
 32
0.0000000000001625
 13
13.624351064317381
 23
18.746801900129999
 33
0.0000000000001625
  0
POLYLINE
  5
6C1C2
  8
DIM
 66
     1
 10
0.0
 20
0.0
 30
0.0
  0
VERTEX
  5
6CE28
  8
DIM
 10
13.66601773098404
 20
18.746801900129999
 30
0.0
  0
VERTEX
  5
6CE29
  8
DIM
 10
13.66601773098404
 20
19.131063136521181
 30
0.0
  0
VERTEX
  5
6CE2A
  8
DIM
 10
14.856047929601189
 20
18.443998881005768
 30
0.0
  0
SEQEND
  5
6CE2B
  8
DIM
  0
ENDBLK
  5
6C1C8
  8
0
  0
BLOCK
  8
0
  2
*U536
 70
     1
 10
0.0
 20
0.0
 30
0.0
  3
*U536
  1

  0
SOLID
  5
6C1CA
  8
HATCH
  6
CONTINUOUS
 10
2.646999929309362
 20
14.60066896242113
 30
0.0
 11
2.6469999293093629
 21
14.549637926113149
 31
0.0
 12
2.7353882769576821
 22
14.549637926113149
 32
0.0
 13
2.7353882769576821
 23
14.549637926113149
 33
0.0
  0
SOLID
  5
6C1CB
  8
HATCH
  6
CONTINUOUS
 10
2.6469999293093629
 20
14.549637926113149
 30
0.0
 11
2.6469999293093651
 21
14.447167605206721
 31
0.0
 12
2.7353882769576781
 22
14.447167605206721
 32
0.0
 13
2.7353882769576781
 23
14.447167605206721
 33
0.0
  0
SOLID
  5
6C1CC
  8
HATCH
  6
CONTINUOUS
 10
-2.6469999293093629
 20
14.549637926113149
 30
0.0
 11
-2.7353882769576821
 21
14.549637926113149
 31
0.0
 12
-2.7353882769576781
 22
14.447167605206721
 32
0.0
 13
-2.7353882769576781
 23
14.447167605206721
 33
0.0
210
0.0
220
0.0
230
-1.0
  0
SOLID
  5
6C1CD
  8
HATCH
  6
CONTINUOUS
 10
2.6469999293093651
 20
14.447167605206721
 30
0.0
 11
2.6752842005568191
 21
14.43083767358816
 31
0.0
 12
2.7353882769576781
 22
14.43083767358816
 32
0.0
 13
2.7353882769576781
 23
14.43083767358816
 33
0.0
  0
SOLID
  5
6C1CE
  8
HATCH
  6
CONTINUOUS
 10
-2.6469999293093651
 20
14.447167605206721
 30
0.0
 11
-2.7353882769576781
 21
14.447167605206721
 31
0.0
 12
-2.7353882769576781
 22
14.43083767358816
 32
0.0
 13
-2.7353882769576781
 23
14.43083767358816
 33
0.0
210
0.0
220
0.0
230
-1.0
  0
SOLID
  5
6C1CF
  8
HATCH
  6
CONTINUOUS
 10
2.6752842005568191
 20
14.43083767358816
 30
0.0
 11
2.6752842005568191
 21
14.41246650051729
 31
0.0
 12
2.7353882769576781
 22
14.41246650051729
 32
0.0
 13
2.7353882769576781
 23
14.41246650051729
 33
0.0
  0
SOLID
  5
6C1D0
  8
HATCH
  6
CONTINUOUS
 10
-2.6752842005568191
 20
14.43083767358816
 30
0.0
 11
-2.7353882769576781
 21
14.43083767358816
 31
0.0
 12
-2.7353882769576781
 22
14.41246650051729
 32
0.0
 13
-2.7353882769576781
 23
14.41246650051729
 33
0.0
210
0.0
220
0.0
230
-1.0
  0
SOLID
  5
6C1D1
  8
HATCH
  6
CONTINUOUS
 10
2.6752842005568191
 20
14.41246650051729
 30
0.0
 11
2.6752842005568191
 21
14.39613656889872
 31
0.0
 12
2.7071040057102129
 22
14.39613656889872
 32
0.0
 13
2.7071040057102129
 23
14.39613656889872
 33
0.0
  0
SOLID
  5
6C1D2
  8
HATCH
  6
CONTINUOUS
 10
-2.6752842005568191
 20
14.41246650051729
 30
0.0
 11
-2.7071040057102129
 21
14.41246650051729
 31
0.0
 12
-2.7071040057102129
 22
14.39613656889872
 32
0.0
 13
-2.7071040057102129
 23
14.39613656889872
 33
0.0
210
0.0
220
0.0
230
-1.0
  0
SOLID
  5
6C1D3
  8
HATCH
  6
CONTINUOUS
 10
-2.7071040057102129
 20
14.41246650051729
 30
0.0
 11
-2.7353882769576781
 21
14.41246650051729
 31
0.0
 12
-2.7353882769576781
 22
14.39613656889872
 32
0.0
 13
-2.7353882769576781
 23
14.39613656889872
 33
0.0
210
0.0
220
0.0
230
-1.0
  0
SOLID
  5
6C1D4
  8
HATCH
  6
CONTINUOUS
 10
2.6752842005568191
 20
14.39613656889872
 30
0.0
 11
2.675284200556816
 21
13.582620200491389
 31
0.0
 12
2.707104005710212
 22
13.582620200491389
 32
0.0
 13
2.707104005710212
 23
13.582620200491389
 33
0.0
  0
SOLID
  5
6C1D5
  8
HATCH
  6
CONTINUOUS
 10
-2.6752842005568191
 20
14.39613656889872
 30
0.0
 11
-2.7071040057102129
 21
14.39613656889872
 31
0.0
 12
-2.707104005710212
 22
13.582620200491389
 32
0.0
 13
-2.707104005710212
 23
13.582620200491389
 33
0.0
210
0.0
220
0.0
230
-1.0
  0
SOLID
  5
6C1D6
  8
HATCH
  6
CONTINUOUS
 10
2.359702444113267
 20
13.582620200491389
 30
0.0
 11
2.359702444113267
 21
13.54179537144501
 31
0.0
 12
2.4304131222319141
 22
13.54179537144501
 32
0.0
 13
2.4304131222319141
 23
13.54179537144501
 33
0.0
  0
SOLID
  5
6C1D7
  8
HATCH
  6
CONTINUOUS
 10
2.675284200556816
 20
13.582620200491389
 30
0.0
 11
2.675284200556816
 21
13.54179537144501
 31
0.0
 12
2.707104005710212
 22
13.54179537144501
 32
0.0
 13
2.707104005710212
 23
13.54179537144501
 33
0.0
  0
SOLID
  5
6C1D8
  8
HATCH
  6
CONTINUOUS
 10
-2.675284200556816
 20
13.582620200491389
 30
0.0
 11
-2.707104005710212
 21
13.582620200491389
 31
0.0
 12
-2.707104005710212
 22
13.54179537144501
 32
0.0
 13
-2.707104005710212
 23
13.54179537144501
 33
0.0
210
0.0
220
0.0
230
-1.0
  0
SOLID
  5
6C1D9
  8
HATCH
  6
CONTINUOUS
 10
2.359702444113267
 20
13.54179537144501
 30
0.0
 11
2.6045735224381641
 21
13.400418988457361
 31
0.0
 12
2.675284200556816
 22
13.400418988457361
 32
0.0
 13
2.675284200556816
 23
13.400418988457361
 33
0.0
  0
SOLID
  5
6C1DA
  8
HATCH
  6
CONTINUOUS
 10
-2.359702444113267
 20
13.54179537144501
 30
0.0
 11
-2.4304131222319141
 21
13.54179537144501
 31
0.0
 12
-2.675284200556816
 22
13.400418988457361
 32
0.0
 13
-2.675284200556816
 23
13.400418988457361
 33
0.0
210
0.0
220
0.0
230
-1.0
  0
SOLID
  5
6C1DB
  8
HATCH
  6
CONTINUOUS
 10
2.675284200556816
 20
13.54179537144501
 30
0.0
 11
2.675284200556816
 21
13.400418988457361
 31
0.0
 12
2.707104005710212
 22
13.400418988457361
 32
0.0
 13
2.707104005710212
 23
13.400418988457361
 33
0.0
  0
SOLID
  5
6C1DC
  8
HATCH
  6
CONTINUOUS
 10
-2.675284200556816
 20
13.54179537144501
 30
0.0
 11
-2.707104005710212
 21
13.54179537144501
 31
0.0
 12
-2.707104005710212
 22
13.400418988457361
 32
0.0
 13
-2.707104005710212
 23
13.400418988457361
 33
0.0
210
0.0
220
0.0
230
-1.0
  0
SOLID
  5
6C1DD
  8
HATCH
  6
CONTINUOUS
 10
2.6045735224381641
 20
13.400418988457361
 30
0.0
 11
2.6363933275915552
 21
13.3820478153865
 31
0.0
 12
2.707104005710212
 22
13.3820478153865
 32
0.0
 13
2.707104005710212
 23
13.3820478153865
 33
0.0
  0
SOLID
  5
6C1DE
  8
HATCH
  6
CONTINUOUS
 10
-2.6045735224381641
 20
13.400418988457361
 30
0.0
 11
-2.707104005710212
 21
13.400418988457361
 31
0.0
 12
-2.707104005710212
 22
13.3820478153865
 32
0.0
 13
-2.707104005710212
 23
13.3820478153865
 33
0.0
210
0.0
220
0.0
230
-1.0
  0
SOLID
  5
6C1DF
  8
HATCH
  6
CONTINUOUS
 10
2.6363933275915552
 20
13.3820478153865
 30
0.0
 11
2.9519750840351162
 21
13.19984660335246
 31
0.0
 12
3.022685762153773
 22
13.19984660335246
 32
0.0
 13
3.022685762153773
 23
13.19984660335246
 33
0.0
  0
SOLID
  5
6C1E0
  8
HATCH
  6
CONTINUOUS
 10
-2.6363933275915552
 20
13.3820478153865
 30
0.0
 11
-2.707104005710212
 21
13.3820478153865
 31
0.0
 12
-3.022685762153773
 22
13.19984660335246
 32
0.0
 13
-3.022685762153773
 23
13.19984660335246
 33
0.0
210
0.0
220
0.0
230
-1.0
  0
SOLID
  5
6C1E1
  8
HATCH
  6
CONTINUOUS
 10
-2.9519750840351162
 20
13.19984660335246
 30
0.0
 11
-3.022685762153773
 21
13.19984660335246
 31
0.0
 12
-3.022685762153777
 22
13.15902177430608
 32
0.0
 13
-3.022685762153777
 23
13.15902177430608
 33
0.0
210
0.0
220
0.0
230
-1.0
  0
LINE
  5
6C1E2
  8
HATCH
  6
CONTINUOUS
 10
2.646999929309362
 20
14.60066896242113
 30
0.0
 11
2.6469999293093629
 21
14.549637926113149
 31
0.0
  0
LINE
  5
6C1E3
  8
HATCH
  6
CONTINUOUS
 10
2.7353882769576821
 20
14.549637926113149
 30
0.0
 11
2.646999929309362
 21
14.60066896242113
 31
0.0
  0
LINE
  5
6C1E4
  8
HATCH
  6
CONTINUOUS
 10
2.6469999293093629
 20
14.549637926113149
 30
0.0
 11
2.6469999293093651
 21
14.447167605206721
 31
0.0
  0
LINE
  5
6C1E5
  8
HATCH
  6
CONTINUOUS
 10
2.7353882769576821
 20
14.549637926113149
 30
0.0
 11
2.7353882769576781
 21
14.447167605206721
 31
0.0
  0
LINE
  5
6C1E6
  8
HATCH
  6
CONTINUOUS
 10
2.6469999293093651
 20
14.447167605206721
 30
0.0
 11
2.6752842005568191
 21
14.43083767358816
 31
0.0
  0
LINE
  5
6C1E7
  8
HATCH
  6
CONTINUOUS
 10
2.7353882769576781
 20
14.447167605206721
 30
0.0
 11
2.7353882769576781
 21
14.43083767358816
 31
0.0
  0
LINE
  5
6C1E8
  8
HATCH
  6
CONTINUOUS
 10
2.6752842005568191
 20
14.43083767358816
 30
0.0
 11
2.6752842005568191
 21
14.41246650051729
 31
0.0
  0
LINE
  5
6C1E9
  8
HATCH
  6
CONTINUOUS
 10
2.7353882769576781
 20
14.43083767358816
 30
0.0
 11
2.7353882769576781
 21
14.41246650051729
 31
0.0
  0
LINE
  5
6C1EA
  8
HATCH
  6
CONTINUOUS
 10
2.6752842005568191
 20
14.41246650051729
 30
0.0
 11
2.6752842005568191
 21
14.39613656889872
 31
0.0
  0
LINE
  5
6C1EB
  8
HATCH
  6
CONTINUOUS
 10
2.7071040057102129
 20
14.41246650051729
 30
0.0
 11
2.7071040057102129
 21
14.39613656889872
 31
0.0
  0
LINE
  5
6C1EC
  8
HATCH
  6
CONTINUOUS
 10
2.7353882769576781
 20
14.41246650051729
 30
0.0
 11
2.7353882769576781
 21
14.39613656889872
 31
0.0
  0
LINE
  5
6C1ED
  8
HATCH
  6
CONTINUOUS
 10
2.7353882769576781
 20
14.39613656889872
 30
0.0
 11
2.7071040057102129
 21
14.41246650051729
 31
0.0
  0
LINE
  5
6C1EE
  8
HATCH
  6
CONTINUOUS
 10
2.6752842005568191
 20
14.39613656889872
 30
0.0
 11
2.675284200556816
 21
13.582620200491389
 31
0.0
  0
LINE
  5
6C1EF
  8
HATCH
  6
CONTINUOUS
 10
2.7071040057102129
 20
14.39613656889872
 30
0.0
 11
2.707104005710212
 21
13.582620200491389
 31
0.0
  0
LINE
  5
6C1F0
  8
HATCH
  6
CONTINUOUS
 10
2.359702444113267
 20
13.582620200491389
 30
0.0
 11
2.359702444113267
 21
13.54179537144501
 31
0.0
  0
LINE
  5
6C1F1
  8
HATCH
  6
CONTINUOUS
 10
2.4304131222319141
 20
13.54179537144501
 30
0.0
 11
2.359702444113267
 21
13.582620200491389
 31
0.0
  0
LINE
  5
6C1F2
  8
HATCH
  6
CONTINUOUS
 10
2.675284200556816
 20
13.582620200491389
 30
0.0
 11
2.675284200556816
 21
13.54179537144501
 31
0.0
  0
LINE
  5
6C1F3
  8
HATCH
  6
CONTINUOUS
 10
2.707104005710212
 20
13.582620200491389
 30
0.0
 11
2.707104005710212
 21
13.54179537144501
 31
0.0
  0
LINE
  5
6C1F4
  8
HATCH
  6
CONTINUOUS
 10
2.359702444113267
 20
13.54179537144501
 30
0.0
 11
2.6045735224381641
 21
13.400418988457361
 31
0.0
  0
LINE
  5
6C1F5
  8
HATCH
  6
CONTINUOUS
 10
2.4304131222319141
 20
13.54179537144501
 30
0.0
 11
2.675284200556816
 21
13.400418988457361
 31
0.0
  0
LINE
  5
6C1F6
  8
HATCH
  6
CONTINUOUS
 10
2.675284200556816
 20
13.54179537144501
 30
0.0
 11
2.675284200556816
 21
13.400418988457361
 31
0.0
  0
LINE
  5
6C1F7
  8
HATCH
  6
CONTINUOUS
 10
2.707104005710212
 20
13.54179537144501
 30
0.0
 11
2.707104005710212
 21
13.400418988457361
 31
0.0
  0
LINE
  5
6C1F8
  8
HATCH
  6
CONTINUOUS
 10
2.6045735224381641
 20
13.400418988457361
 30
0.0
 11
2.6363933275915552
 21
13.3820478153865
 31
0.0
  0
LINE
  5
6C1F9
  8
HATCH
  6
CONTINUOUS
 10
2.707104005710212
 20
13.400418988457361
 30
0.0
 11
2.707104005710212
 21
13.3820478153865
 31
0.0
  0
LINE
  5
6C1FA
  8
HATCH
  6
CONTINUOUS
 10
2.6363933275915552
 20
13.3820478153865
 30
0.0
 11
2.9519750840351162
 21
13.19984660335246
 31
0.0
  0
LINE
  5
6C1FB
  8
HATCH
  6
CONTINUOUS
 10
2.707104005710212
 20
13.3820478153865
 30
0.0
 11
3.022685762153773
 21
13.19984660335246
 31
0.0
  0
LINE
  5
6C1FC
  8
HATCH
  6
CONTINUOUS
 10
3.022685762153773
 20
13.19984660335246
 30
0.0
 11
3.022685762153777
 21
13.15902177430608
 31
0.0
  0
LINE
  5
6C1FD
  8
HATCH
  6
CONTINUOUS
 10
3.022685762153777
 20
13.15902177430608
 30
0.0
 11
2.9519750840351162
 21
13.19984660335246
 31
0.0
  0
ENDBLK
  5
6C1FF
  8
0
  0
BLOCK
  8
0
  2
*U537
 70
     1
 10
0.0
 20
0.0
 30
0.0
  3
*U537
  1

  0
SOLID
  5
6C201
  8
HATCH
  6
CONTINUOUS
 10
9.0055485011647747
 20
18.271778692037149
 30
0.0
 11
9.0055485011647765
 21
18.22074765572917
 31
0.0
 12
9.0939368488130921
 22
18.22074765572917
 32
0.0
 13
9.0939368488130921
 23
18.22074765572917
 33
0.0
  0
SOLID
  5
6C202
  8
HATCH
  6
CONTINUOUS
 10
9.0055485011647765
 20
18.22074765572917
 30
0.0
 11
9.00554850116478
 21
18.118277334822729
 31
0.0
 12
9.0939368488130956
 22
18.118277334822729
 32
0.0
 13
9.0939368488130956
 23
18.118277334822729
 33
0.0
  0
SOLID
  5
6C203
  8
HATCH
  6
CONTINUOUS
 10
-9.0055485011647765
 20
18.22074765572917
 30
0.0
 11
-9.0939368488130921
 21
18.22074765572917
 31
0.0
 12
-9.0939368488130956
 22
18.118277334822729
 32
0.0
 13
-9.0939368488130956
 23
18.118277334822729
 33
0.0
210
0.0
220
0.0
230
-1.0
  0
SOLID
  5
6C204
  8
HATCH
  6
CONTINUOUS
 10
9.00554850116478
 20
18.118277334822729
 30
0.0
 11
9.0338327724122394
 21
18.101947403204171
 31
0.0
 12
9.0939368488130956
 22
18.101947403204171
 32
0.0
 13
9.0939368488130956
 23
18.101947403204171
 33
0.0
  0
SOLID
  5
6C205
  8
HATCH
  6
CONTINUOUS
 10
-9.00554850116478
 20
18.118277334822729
 30
0.0
 11
-9.0939368488130956
 21
18.118277334822729
 31
0.0
 12
-9.0939368488130956
 22
18.101947403204171
 32
0.0
 13
-9.0939368488130956
 23
18.101947403204171
 33
0.0
210
0.0
220
0.0
230
-1.0
  0
SOLID
  5
6C206
  8
HATCH
  6
CONTINUOUS
 10
9.0338327724122394
 20
18.101947403204171
 30
0.0
 11
9.0338327724122394
 21
18.083576230133311
 31
0.0
 12
9.0939368488130956
 22
18.083576230133311
 32
0.0
 13
9.0939368488130956
 23
18.083576230133311
 33
0.0
  0
SOLID
  5
6C207
  8
HATCH
  6
CONTINUOUS
 10
-9.0338327724122394
 20
18.101947403204171
 30
0.0
 11
-9.0939368488130956
 21
18.101947403204171
 31
0.0
 12
-9.0939368488130956
 22
18.083576230133311
 32
0.0
 13
-9.0939368488130956
 23
18.083576230133311
 33
0.0
210
0.0
220
0.0
230
-1.0
  0
SOLID
  5
6C208
  8
HATCH
  6
CONTINUOUS
 10
9.0338327724122394
 20
18.083576230133311
 30
0.0
 11
9.0338327724122394
 21
18.06724629851476
 31
0.0
 12
9.0656525775656345
 22
18.06724629851476
 32
0.0
 13
9.0656525775656345
 23
18.06724629851476
 33
0.0
  0
SOLID
  5
6C209
  8
HATCH
  6
CONTINUOUS
 10
-9.0338327724122394
 20
18.083576230133311
 30
0.0
 11
-9.0656525775656345
 21
18.083576230133311
 31
0.0
 12
-9.0656525775656345
 22
18.06724629851476
 32
0.0
 13
-9.0656525775656345
 23
18.06724629851476
 33
0.0
210
0.0
220
0.0
230
-1.0
  0
SOLID
  5
6C20A
  8
HATCH
  6
CONTINUOUS
 10
-9.0656525775656345
 20
18.083576230133311
 30
0.0
 11
-9.0939368488130956
 21
18.083576230133311
 31
0.0
 12
-9.0939368488130956
 22
18.06724629851476
 32
0.0
 13
-9.0939368488130956
 23
18.06724629851476
 33
0.0
210
0.0
220
0.0
230
-1.0
  0
SOLID
  5
6C20B
  8
HATCH
  6
CONTINUOUS
 10
9.0338327724122394
 20
18.06724629851476
 30
0.0
 11
9.0338327724122394
 21
17.6502206698066
 31
0.0
 12
9.0656525775656345
 22
17.6502206698066
 32
0.0
 13
9.0656525775656345
 23
17.6502206698066
 33
0.0
  0
SOLID
  5
6C20C
  8
HATCH
  6
CONTINUOUS
 10
-9.0338327724122394
 20
18.06724629851476
 30
0.0
 11
-9.0656525775656345
 21
18.06724629851476
 31
0.0
 12
-9.0656525775656345
 22
17.6502206698066
 32
0.0
 13
-9.0656525775656345
 23
17.6502206698066
 33
0.0
210
0.0
220
0.0
230
-1.0
  0
SOLID
  5
6C20D
  8
HATCH
  6
CONTINUOUS
 10
9.0338327724122394
 20
17.6502206698066
 30
0.0
 11
9.0338327724122394
 21
17.631849496735722
 31
0.0
 12
9.0656525775656345
 22
17.631849496735722
 32
0.0
 13
9.0656525775656345
 23
17.631849496735722
 33
0.0
  0
SOLID
  5
6C20E
  8
HATCH
  6
CONTINUOUS
 10
-9.0338327724122394
 20
17.6502206698066
 30
0.0
 11
-9.0656525775656345
 21
17.6502206698066
 31
0.0
 12
-9.0656525775656345
 22
17.631849496735722
 32
0.0
 13
-9.0656525775656345
 23
17.631849496735722
 33
0.0
210
0.0
220
0.0
230
-1.0
  0
SOLID
  5
6C20F
  8
HATCH
  6
CONTINUOUS
 10
9.3308176205115512
 20
17.6502206698066
 30
0.0
 11
9.2989978153581632
 21
17.631849496735722
 31
0.0
 12
9.3308176205115512
 22
17.631849496735722
 32
0.0
 13
9.3308176205115512
 23
17.631849496735722
 33
0.0
  0
SOLID
  5
6C210
  8
HATCH
  6
CONTINUOUS
 10
9.0338327724122394
 20
17.631849496735722
 30
0.0
 11
9.0338327724122394
 21
17.51549873395297
 31
0.0
 12
9.0656525775656345
 22
17.51549873395297
 32
0.0
 13
9.0656525775656345
 23
17.51549873395297
 33
0.0
  0
SOLID
  5
6C211
  8
HATCH
  6
CONTINUOUS
 10
-9.0338327724122394
 20
17.631849496735722
 30
0.0
 11
-9.0656525775656345
 21
17.631849496735722
 31
0.0
 12
-9.0656525775656345
 22
17.51549873395297
 32
0.0
 13
-9.0656525775656345
 23
17.51549873395297
 33
0.0
210
0.0
220
0.0
230
-1.0
  0
SOLID
  5
6C212
  8
HATCH
  6
CONTINUOUS
 10
9.2989978153581632
 20
17.631849496735722
 30
0.0
 11
9.2989978153581596
 21
17.51549873395297
 31
0.0
 12
9.3308176205115512
 22
17.51549873395297
 32
0.0
 13
9.3308176205115512
 23
17.51549873395297
 33
0.0
  0
SOLID
  5
6C213
  8
HATCH
  6
CONTINUOUS
 10
-9.2989978153581632
 20
17.631849496735722
 30
0.0
 11
-9.3308176205115512
 21
17.631849496735722
 31
0.0
 12
-9.3308176205115512
 22
17.51549873395297
 32
0.0
 13
-9.3308176205115512
 23
17.51549873395297
 33
0.0
210
0.0
220
0.0
230
-1.0
  0
SOLID
  5
6C214
  8
HATCH
  6
CONTINUOUS
 10
-9.0338327724122394
 20
17.51549873395297
 30
0.0
 11
-9.0656525775656345
 21
17.51549873395297
 31
0.0
 12
-9.0656525775656345
 22
17.497127560882099
 32
0.0
 13
-9.0656525775656345
 23
17.497127560882099
 33
0.0
210
0.0
220
0.0
230
-1.0
  0
SOLID
  5
6C215
  8
HATCH
  6
CONTINUOUS
 10
-9.2989978153592627
 20
17.51549873395297
 30
0.0
 11
-9.3308176205115512
 21
17.51549873395297
 31
0.0
 12
-9.3308176205115512
 22
17.497127560882099
 32
0.0
 13
-9.3308176205115512
 23
17.497127560882099
 33
0.0
210
0.0
220
0.0
230
-1.0
  0
SOLID
  5
6C216
  8
HATCH
  6
CONTINUOUS
 10
9.0338327724122394
 20
17.362405625029101
 30
0.0
 11
9.0338327724122394
 21
17.34403445195823
 31
0.0
 12
9.0656525775656345
 22
17.34403445195823
 32
0.0
 13
9.0656525775656345
 23
17.34403445195823
 33
0.0
  0
SOLID
  5
6C217
  8
HATCH
  6
CONTINUOUS
 10
9.0338327724122394
 20
17.34403445195823
 30
0.0
 11
9.0338327724122394
 21
17.13123503055423
 31
0.0
 12
9.0656525775656291
 22
17.13123503055423
 32
0.0
 13
9.0656525775656291
 23
17.13123503055423
 33
0.0
  0
SOLID
  5
6C218
  8
HATCH
  6
CONTINUOUS
 10
-9.0338327724122394
 20
17.34403445195823
 30
0.0
 11
-9.0656525775656345
 21
17.34403445195823
 31
0.0
 12
-9.0656525775656291
 22
17.13123503055423
 32
0.0
 13
-9.0656525775656291
 23
17.13123503055423
 33
0.0
210
0.0
220
0.0
230
-1.0
  0
SOLID
  5
6C219
  8
HATCH
  6
CONTINUOUS
 10
8.9304184056628291
 20
17.13123503055423
 30
0.0
 11
8.8950630666034982
 21
17.11082261603104
 31
0.0
 12
8.9657737447221582
 22
17.11082261603104
 32
0.0
 13
8.9657737447221582
 23
17.11082261603104
 33
0.0
  0
SOLID
  5
6C21A
  8
HATCH
  6
CONTINUOUS
 10
9.0338327724122394
 20
17.13123503055423
 30
0.0
 11
9.0338327724122394
 21
17.11082261603104
 31
0.0
 12
9.0656525775656291
 22
17.11082261603104
 32
0.0
 13
9.0656525775656291
 23
17.11082261603104
 33
0.0
  0
SOLID
  5
6C21B
  8
HATCH
  6
CONTINUOUS
 10
-9.0338327724122394
 20
17.13123503055423
 30
0.0
 11
-9.0656525775656291
 21
17.13123503055423
 31
0.0
 12
-9.0656525775656291
 22
17.11082261603104
 32
0.0
 13
-9.0656525775656291
 23
17.11082261603104
 33
0.0
210
0.0
220
0.0
230
-1.0
  0
SOLID
  5
6C21C
  8
HATCH
  6
CONTINUOUS
 10
8.8950630666034982
 20
17.11082261603104
 30
0.0
 11
8.9631220942935776
 21
17.071528718073392
 31
0.0
 12
9.0338327724122394
 22
17.071528718073392
 32
0.0
 13
9.0338327724122394
 23
17.071528718073392
 33
0.0
  0
SOLID
  5
6C21D
  8
HATCH
  6
CONTINUOUS
 10
-8.8950630666034982
 20
17.11082261603104
 30
0.0
 11
-8.9657737447221582
 21
17.11082261603104
 31
0.0
 12
-9.0338327724122394
 22
17.071528718073392
 32
0.0
 13
-9.0338327724122394
 23
17.071528718073392
 33
0.0
210
0.0
220
0.0
230
-1.0
  0
SOLID
  5
6C21E
  8
HATCH
  6
CONTINUOUS
 10
9.0338327724122394
 20
17.11082261603104
 30
0.0
 11
9.0338327724122394
 21
17.071528718073392
 31
0.0
 12
9.0656525775656291
 22
17.071528718073392
 32
0.0
 13
9.0656525775656291
 23
17.071528718073392
 33
0.0
  0
SOLID
  5
6C21F
  8
HATCH
  6
CONTINUOUS
 10
-9.0338327724122394
 20
17.11082261603104
 30
0.0
 11
-9.0656525775656291
 21
17.11082261603104
 31
0.0
 12
-9.0656525775656291
 22
17.071528718073392
 32
0.0
 13
-9.0656525775656291
 23
17.071528718073392
 33
0.0
210
0.0
220
0.0
230
-1.0
  0
SOLID
  5
6C220
  8
HATCH
  6
CONTINUOUS
 10
8.9631220942935776
 20
17.071528718073392
 30
0.0
 11
8.9949418994469745
 21
17.05315754500252
 31
0.0
 12
9.0656525775656291
 22
17.05315754500252
 32
0.0
 13
9.0656525775656291
 23
17.05315754500252
 33
0.0
  0
SOLID
  5
6C221
  8
HATCH
  6
CONTINUOUS
 10
-8.9631220942935776
 20
17.071528718073392
 30
0.0
 11
-9.0656525775656291
 21
17.071528718073392
 31
0.0
 12
-9.0656525775656291
 22
17.05315754500252
 32
0.0
 13
-9.0656525775656291
 23
17.05315754500252
 33
0.0
210
0.0
220
0.0
230
-1.0
  0
SOLID
  5
6C222
  8
HATCH
  6
CONTINUOUS
 10
8.9949418994469745
 20
17.05315754500252
 30
0.0
 11
9.3105236558905204
 21
16.8709563329685
 31
0.0
 12
9.3812343340091822
 22
16.8709563329685
 32
0.0
 13
9.3812343340091822
 23
16.8709563329685
 33
0.0
  0
SOLID
  5
6C223
  8
HATCH
  6
CONTINUOUS
 10
-8.9949418994469745
 20
17.05315754500252
 30
0.0
 11
-9.0656525775656291
 21
17.05315754500252
 31
0.0
 12
-9.3812343340091822
 22
16.8709563329685
 32
0.0
 13
-9.3812343340091822
 23
16.8709563329685
 33
0.0
210
0.0
220
0.0
230
-1.0
  0
SOLID
  5
6C224
  8
HATCH
  6
CONTINUOUS
 10
-9.3105236558905204
 20
16.8709563329685
 30
0.0
 11
-9.3812343340091822
 21
16.8709563329685
 31
0.0
 12
-9.3812343340091928
 22
16.8301315039221
 32
0.0
 13
-9.3812343340091928
 23
16.8301315039221
 33
0.0
210
0.0
220
0.0
230
-1.0
  0
LINE
  5
6C225
  8
HATCH
  6
CONTINUOUS
 10
9.0055485011647747
 20
18.271778692037149
 30
0.0
 11
9.0055485011647765
 21
18.22074765572917
 31
0.0
  0
LINE
  5
6C226
  8
HATCH
  6
CONTINUOUS
 10
9.0939368488130921
 20
18.22074765572917
 30
0.0
 11
9.0055485011647747
 21
18.271778692037149
 31
0.0
  0
LINE
  5
6C227
  8
HATCH
  6
CONTINUOUS
 10
9.0055485011647765
 20
18.22074765572917
 30
0.0
 11
9.00554850116478
 21
18.118277334822729
 31
0.0
  0
LINE
  5
6C228
  8
HATCH
  6
CONTINUOUS
 10
9.0939368488130921
 20
18.22074765572917
 30
0.0
 11
9.0939368488130956
 21
18.118277334822729
 31
0.0
  0
LINE
  5
6C229
  8
HATCH
  6
CONTINUOUS
 10
9.00554850116478
 20
18.118277334822729
 30
0.0
 11
9.0338327724122394
 21
18.101947403204171
 31
0.0
  0
LINE
  5
6C22A
  8
HATCH
  6
CONTINUOUS
 10
9.0939368488130956
 20
18.118277334822729
 30
0.0
 11
9.0939368488130956
 21
18.101947403204171
 31
0.0
  0
LINE
  5
6C22B
  8
HATCH
  6
CONTINUOUS
 10
9.0338327724122394
 20
18.101947403204171
 30
0.0
 11
9.0338327724122394
 21
18.083576230133311
 31
0.0
  0
LINE
  5
6C22C
  8
HATCH
  6
CONTINUOUS
 10
9.0939368488130956
 20
18.101947403204171
 30
0.0
 11
9.0939368488130956
 21
18.083576230133311
 31
0.0
  0
LINE
  5
6C22D
  8
HATCH
  6
CONTINUOUS
 10
9.0338327724122394
 20
18.083576230133311
 30
0.0
 11
9.0338327724122394
 21
18.06724629851476
 31
0.0
  0
LINE
  5
6C22E
  8
HATCH
  6
CONTINUOUS
 10
9.0656525775656345
 20
18.083576230133311
 30
0.0
 11
9.0656525775656345
 21
18.06724629851476
 31
0.0
  0
LINE
  5
6C22F
  8
HATCH
  6
CONTINUOUS
 10
9.0939368488130956
 20
18.083576230133311
 30
0.0
 11
9.0939368488130956
 21
18.06724629851476
 31
0.0
  0
LINE
  5
6C230
  8
HATCH
  6
CONTINUOUS
 10
9.0939368488130956
 20
18.06724629851476
 30
0.0
 11
9.0656525775656345
 21
18.083576230133311
 31
0.0
  0
LINE
  5
6C231
  8
HATCH
  6
CONTINUOUS
 10
9.0338327724122394
 20
18.06724629851476
 30
0.0
 11
9.0338327724122394
 21
17.6502206698066
 31
0.0
  0
LINE
  5
6C232
  8
HATCH
  6
CONTINUOUS
 10
9.0656525775656345
 20
18.06724629851476
 30
0.0
 11
9.0656525775656345
 21
17.6502206698066
 31
0.0
  0
LINE
  5
6C233
  8
HATCH
  6
CONTINUOUS
 10
9.0338327724122394
 20
17.6502206698066
 30
0.0
 11
9.0338327724122394
 21
17.631849496735722
 31
0.0
  0
LINE
  5
6C234
  8
HATCH
  6
CONTINUOUS
 10
9.0656525775656345
 20
17.6502206698066
 30
0.0
 11
9.0656525775656345
 21
17.631849496735722
 31
0.0
  0
LINE
  5
6C235
  8
HATCH
  6
CONTINUOUS
 10
9.3308176205115512
 20
17.6502206698066
 30
0.0
 11
9.2989978153581632
 21
17.631849496735722
 31
0.0
  0
LINE
  5
6C236
  8
HATCH
  6
CONTINUOUS
 10
9.3308176205115512
 20
17.631849496735722
 30
0.0
 11
9.3308176205115512
 21
17.6502206698066
 31
0.0
  0
LINE
  5
6C237
  8
HATCH
  6
CONTINUOUS
 10
9.0338327724122394
 20
17.631849496735722
 30
0.0
 11
9.0338327724122394
 21
17.51549873395297
 31
0.0
  0
LINE
  5
6C238
  8
HATCH
  6
CONTINUOUS
 10
9.0656525775656345
 20
17.631849496735722
 30
0.0
 11
9.0656525775656345
 21
17.51549873395297
 31
0.0
  0
LINE
  5
6C239
  8
HATCH
  6
CONTINUOUS
 10
9.2989978153581632
 20
17.631849496735722
 30
0.0
 11
9.2989978153581596
 21
17.51549873395297
 31
0.0
  0
LINE
  5
6C23A
  8
HATCH
  6
CONTINUOUS
 10
9.3308176205115512
 20
17.631849496735722
 30
0.0
 11
9.3308176205115512
 21
17.51549873395297
 31
0.0
  0
LINE
  5
6C23B
  8
HATCH
  6
CONTINUOUS
 10
9.0656525775656345
 20
17.51549873395297
 30
0.0
 11
9.0656525775656345
 21
17.497127560882099
 31
0.0
  0
LINE
  5
6C23C
  8
HATCH
  6
CONTINUOUS
 10
9.0656525775656345
 20
17.497127560882099
 30
0.0
 11
9.0338327724122394
 21
17.51549873395297
 31
0.0
  0
LINE
  5
6C23D
  8
HATCH
  6
CONTINUOUS
 10
9.3308176205115512
 20
17.51549873395297
 30
0.0
 11
9.3308176205115512
 21
17.497127560882099
 31
0.0
  0
LINE
  5
6C23E
  8
HATCH
  6
CONTINUOUS
 10
9.3308176205115512
 20
17.497127560882099
 30
0.0
 11
9.2989978153592627
 21
17.51549873395297
 31
0.0
  0
LINE
  5
6C23F
  8
HATCH
  6
CONTINUOUS
 10
9.0338327724122394
 20
17.362405625029101
 30
0.0
 11
9.0338327724122394
 21
17.34403445195823
 31
0.0
  0
LINE
  5
6C240
  8
HATCH
  6
CONTINUOUS
 10
9.0656525775656345
 20
17.34403445195823
 30
0.0
 11
9.0338327724122394
 21
17.362405625029101
 31
0.0
  0
LINE
  5
6C241
  8
HATCH
  6
CONTINUOUS
 10
9.0338327724122394
 20
17.34403445195823
 30
0.0
 11
9.0338327724122394
 21
17.13123503055423
 31
0.0
  0
LINE
  5
6C242
  8
HATCH
  6
CONTINUOUS
 10
9.0656525775656345
 20
17.34403445195823
 30
0.0
 11
9.0656525775656291
 21
17.13123503055423
 31
0.0
  0
LINE
  5
6C243
  8
HATCH
  6
CONTINUOUS
 10
8.9304184056628291
 20
17.13123503055423
 30
0.0
 11
8.8950630666034982
 21
17.11082261603104
 31
0.0
  0
LINE
  5
6C244
  8
HATCH
  6
CONTINUOUS
 10
8.9657737447221582
 20
17.11082261603104
 30
0.0
 11
8.9304184056628291
 21
17.13123503055423
 31
0.0
  0
LINE
  5
6C245
  8
HATCH
  6
CONTINUOUS
 10
9.0338327724122394
 20
17.13123503055423
 30
0.0
 11
9.0338327724122394
 21
17.11082261603104
 31
0.0
  0
LINE
  5
6C246
  8
HATCH
  6
CONTINUOUS
 10
9.0656525775656291
 20
17.13123503055423
 30
0.0
 11
9.0656525775656291
 21
17.11082261603104
 31
0.0
  0
LINE
  5
6C247
  8
HATCH
  6
CONTINUOUS
 10
8.8950630666034982
 20
17.11082261603104
 30
0.0
 11
8.9631220942935776
 21
17.071528718073392
 31
0.0
  0
LINE
  5
6C248
  8
HATCH
  6
CONTINUOUS
 10
8.9657737447221582
 20
17.11082261603104
 30
0.0
 11
9.0338327724122394
 21
17.071528718073392
 31
0.0
  0
LINE
  5
6C249
  8
HATCH
  6
CONTINUOUS
 10
9.0338327724122394
 20
17.11082261603104
 30
0.0
 11
9.0338327724122394
 21
17.071528718073392
 31
0.0
  0
LINE
  5
6C24A
  8
HATCH
  6
CONTINUOUS
 10
9.0656525775656291
 20
17.11082261603104
 30
0.0
 11
9.0656525775656291
 21
17.071528718073392
 31
0.0
  0
LINE
  5
6C24B
  8
HATCH
  6
CONTINUOUS
 10
8.9631220942935776
 20
17.071528718073392
 30
0.0
 11
8.9949418994469745
 21
17.05315754500252
 31
0.0
  0
LINE
  5
6C24C
  8
HATCH
  6
CONTINUOUS
 10
9.0656525775656291
 20
17.071528718073392
 30
0.0
 11
9.0656525775656291
 21
17.05315754500252
 31
0.0
  0
LINE
  5
6C24D
  8
HATCH
  6
CONTINUOUS
 10
8.9949418994469745
 20
17.05315754500252
 30
0.0
 11
9.3105236558905204
 21
16.8709563329685
 31
0.0
  0
LINE
  5
6C24E
  8
HATCH
  6
CONTINUOUS
 10
9.0656525775656291
 20
17.05315754500252
 30
0.0
 11
9.3812343340091822
 21
16.8709563329685
 31
0.0
  0
LINE
  5
6C24F
  8
HATCH
  6
CONTINUOUS
 10
9.3812343340091822
 20
16.8709563329685
 30
0.0
 11
9.3812343340091928
 21
16.8301315039221
 31
0.0
  0
LINE
  5
6C250
  8
HATCH
  6
CONTINUOUS
 10
9.3812343340091928
 20
16.8301315039221
 30
0.0
 11
9.3105236558905204
 21
16.8709563329685
 31
0.0
  0
ENDBLK
  5
6C252
  8
0
  0
BLOCK
  8
0
  2
*U538
 70
     1
 10
0.0
 20
0.0
 30
0.0
  3
*U538
  1

  0
SOLID
  5
6C254
  8
HATCH
  6
CONTINUOUS
 10
17.225664832458381
 20
18.475902837269071
 30
0.0
 11
17.137276484810069
 21
18.424871800961078
 31
0.0
 12
17.225664832458381
 22
18.424871800961078
 32
0.0
 13
17.225664832458381
 23
18.424871800961078
 33
0.0
  0
SOLID
  5
6C255
  8
HATCH
  6
CONTINUOUS
 10
17.137276484810069
 20
18.424871800961078
 30
0.0
 11
17.13727648481008
 21
18.322401480054651
 31
0.0
 12
17.225664832458381
 22
18.322401480054651
 32
0.0
 13
17.225664832458381
 23
18.322401480054651
 33
0.0
  0
SOLID
  5
6C256
  8
HATCH
  6
CONTINUOUS
 10
-17.137276484810069
 20
18.424871800961078
 30
0.0
 11
-17.225664832458381
 21
18.424871800961078
 31
0.0
 12
-17.225664832458381
 22
18.322401480054651
 32
0.0
 13
-17.225664832458381
 23
18.322401480054651
 33
0.0
210
0.0
220
0.0
230
-1.0
  0
SOLID
  5
6C257
  8
HATCH
  6
CONTINUOUS
 10
17.13727648481008
 20
18.322401480054651
 30
0.0
 11
17.13727648481008
 21
18.306071548436101
 31
0.0
 12
17.197380561210931
 22
18.306071548436101
 32
0.0
 13
17.197380561210931
 23
18.306071548436101
 33
0.0
  0
SOLID
  5
6C258
  8
HATCH
  6
CONTINUOUS
 10
-17.13727648481008
 20
18.322401480054651
 30
0.0
 11
-17.225664832458381
 21
18.322401480054651
 31
0.0
 12
-17.197380561210931
 22
18.306071548436101
 32
0.0
 13
-17.197380561210931
 23
18.306071548436101
 33
0.0
210
0.0
220
0.0
230
-1.0
  0
SOLID
  5
6C259
  8
HATCH
  6
CONTINUOUS
 10
17.13727648481008
 20
18.306071548436101
 30
0.0
 11
17.13727648481008
 21
18.287700375365208
 31
0.0
 12
17.197380561210931
 22
18.287700375365208
 32
0.0
 13
17.197380561210931
 23
18.287700375365208
 33
0.0
  0
SOLID
  5
6C25A
  8
HATCH
  6
CONTINUOUS
 10
-17.13727648481008
 20
18.306071548436101
 30
0.0
 11
-17.197380561210931
 21
18.306071548436101
 31
0.0
 12
-17.197380561210931
 22
18.287700375365208
 32
0.0
 13
-17.197380561210931
 23
18.287700375365208
 33
0.0
210
0.0
220
0.0
230
-1.0
  0
SOLID
  5
6C25B
  8
HATCH
  6
CONTINUOUS
 10
-17.13727648481008
 20
18.287700375365208
 30
0.0
 11
-17.165560756057531
 21
18.287700375365208
 31
0.0
 12
-17.13727648481008
 22
18.271370443746662
 32
0.0
 13
-17.13727648481008
 23
18.271370443746662
 33
0.0
210
0.0
220
0.0
230
-1.0
  0
SOLID
  5
6C25C
  8
HATCH
  6
CONTINUOUS
 10
17.165560756057531
 20
18.287700375365208
 30
0.0
 11
17.165560756057531
 21
18.271370443746662
 31
0.0
 12
17.197380561210931
 22
18.271370443746662
 32
0.0
 13
17.197380561210931
 23
18.271370443746662
 33
0.0
  0
SOLID
  5
6C25D
  8
HATCH
  6
CONTINUOUS
 10
-17.165560756057531
 20
18.287700375365208
 30
0.0
 11
-17.197380561210931
 21
18.287700375365208
 31
0.0
 12
-17.197380561210931
 22
18.271370443746662
 32
0.0
 13
-17.197380561210931
 23
18.271370443746662
 33
0.0
210
0.0
220
0.0
230
-1.0
  0
SOLID
  5
6C25E
  8
HATCH
  6
CONTINUOUS
 10
17.165560756057531
 20
18.271370443746662
 30
0.0
 11
17.165560756057541
 21
17.457854075339331
 31
0.0
 12
17.19738056121092
 22
17.457854075339331
 32
0.0
 13
17.19738056121092
 23
17.457854075339331
 33
0.0
  0
SOLID
  5
6C25F
  8
HATCH
  6
CONTINUOUS
 10
-17.165560756057531
 20
18.271370443746662
 30
0.0
 11
-17.197380561210931
 21
18.271370443746662
 31
0.0
 12
-17.19738056121092
 22
17.457854075339331
 32
0.0
 13
-17.19738056121092
 23
17.457854075339331
 33
0.0
210
0.0
220
0.0
230
-1.0
  0
SOLID
  5
6C260
  8
HATCH
  6
CONTINUOUS
 10
17.165560756057541
 20
17.457854075339331
 30
0.0
 11
17.165560756057541
 21
17.417029246292952
 31
0.0
 12
17.19738056121092
 22
17.417029246292952
 32
0.0
 13
17.19738056121092
 23
17.417029246292952
 33
0.0
  0
SOLID
  5
6C261
  8
HATCH
  6
CONTINUOUS
 10
-17.165560756057541
 20
17.457854075339331
 30
0.0
 11
-17.19738056121092
 21
17.457854075339331
 31
0.0
 12
-17.19738056121092
 22
17.417029246292952
 32
0.0
 13
-17.19738056121092
 23
17.417029246292952
 33
0.0
210
0.0
220
0.0
230
-1.0
  0
SOLID
  5
6C262
  8
HATCH
  6
CONTINUOUS
 10
17.512962317654491
 20
17.457854075339331
 30
0.0
 11
17.44225163953584
 21
17.417029246292952
 31
0.0
 12
17.512962317654491
 22
17.417029246292952
 32
0.0
 13
17.512962317654491
 23
17.417029246292952
 33
0.0
  0
SOLID
  5
6C263
  8
HATCH
  6
CONTINUOUS
 10
17.165560756057541
 20
17.417029246292952
 30
0.0
 11
17.165560756057541
 21
17.275652863305311
 31
0.0
 12
17.19738056121092
 22
17.275652863305311
 32
0.0
 13
17.19738056121092
 23
17.275652863305311
 33
0.0
  0
SOLID
  5
6C264
  8
HATCH
  6
CONTINUOUS
 10
-17.165560756057541
 20
17.417029246292952
 30
0.0
 11
-17.19738056121092
 21
17.417029246292952
 31
0.0
 12
-17.19738056121092
 22
17.275652863305311
 32
0.0
 13
-17.19738056121092
 23
17.275652863305311
 33
0.0
210
0.0
220
0.0
230
-1.0
  0
SOLID
  5
6C265
  8
HATCH
  6
CONTINUOUS
 10
17.44225163953584
 20
17.417029246292952
 30
0.0
 11
17.19738056121092
 21
17.275652863305311
 31
0.0
 12
17.268091239329578
 22
17.275652863305311
 32
0.0
 13
17.268091239329578
 23
17.275652863305311
 33
0.0
  0
SOLID
  5
6C266
  8
HATCH
  6
CONTINUOUS
 10
-17.44225163953584
 20
17.417029246292952
 30
0.0
 11
-17.512962317654491
 21
17.417029246292952
 31
0.0
 12
-17.268091239329578
 22
17.275652863305311
 32
0.0
 13
-17.268091239329578
 23
17.275652863305311
 33
0.0
210
0.0
220
0.0
230
-1.0
  0
SOLID
  5
6C267
  8
HATCH
  6
CONTINUOUS
 10
17.165560756057541
 20
17.275652863305311
 30
0.0
 11
17.165560756057541
 21
17.257281690234429
 31
0.0
 12
17.236271434176189
 22
17.257281690234429
 32
0.0
 13
17.236271434176189
 23
17.257281690234429
 33
0.0
  0
SOLID
  5
6C268
  8
HATCH
  6
CONTINUOUS
 10
-17.165560756057541
 20
17.275652863305311
 30
0.0
 11
-17.268091239329578
 21
17.275652863305311
 31
0.0
 12
-17.236271434176189
 22
17.257281690234429
 32
0.0
 13
-17.236271434176189
 23
17.257281690234429
 33
0.0
210
0.0
220
0.0
230
-1.0
  0
SOLID
  5
6C269
  8
HATCH
  6
CONTINUOUS
 10
17.165560756057541
 20
17.257281690234429
 30
0.0
 11
16.84997899961397
 21
17.075080478200402
 31
0.0
 12
16.920689677732629
 22
17.075080478200402
 32
0.0
 13
16.920689677732629
 23
17.075080478200402
 33
0.0
  0
SOLID
  5
6C26A
  8
HATCH
  6
CONTINUOUS
 10
-17.165560756057541
 20
17.257281690234429
 30
0.0
 11
-17.236271434176189
 21
17.257281690234429
 31
0.0
 12
-16.920689677732629
 22
17.075080478200402
 32
0.0
 13
-16.920689677732629
 23
17.075080478200402
 33
0.0
210
0.0
220
0.0
230
-1.0
  0
SOLID
  5
6C26B
  8
HATCH
  6
CONTINUOUS
 10
-16.84997899961397
 20
17.075080478200402
 30
0.0
 11
-16.920689677732629
 21
17.075080478200402
 31
0.0
 12
-16.84997899961397
 22
17.034255649154019
 32
0.0
 13
-16.84997899961397
 23
17.034255649154019
 33
0.0
210
0.0
220
0.0
230
-1.0
  0
LINE
  5
6C26C
  8
HATCH
  6
CONTINUOUS
 10
17.225664832458381
 20
18.475902837269071
 30
0.0
 11
17.137276484810069
 21
18.424871800961078
 31
0.0
  0
LINE
  5
6C26D
  8
HATCH
  6
CONTINUOUS
 10
17.225664832458381
 20
18.424871800961078
 30
0.0
 11
17.225664832458381
 21
18.475902837269071
 31
0.0
  0
LINE
  5
6C26E
  8
HATCH
  6
CONTINUOUS
 10
17.137276484810069
 20
18.424871800961078
 30
0.0
 11
17.13727648481008
 21
18.322401480054651
 31
0.0
  0
LINE
  5
6C26F
  8
HATCH
  6
CONTINUOUS
 10
17.225664832458381
 20
18.424871800961078
 30
0.0
 11
17.225664832458381
 21
18.322401480054651
 31
0.0
  0
LINE
  5
6C270
  8
HATCH
  6
CONTINUOUS
 10
17.13727648481008
 20
18.322401480054651
 30
0.0
 11
17.13727648481008
 21
18.306071548436101
 31
0.0
  0
LINE
  5
6C271
  8
HATCH
  6
CONTINUOUS
 10
17.225664832458381
 20
18.322401480054651
 30
0.0
 11
17.197380561210931
 21
18.306071548436101
 31
0.0
  0
LINE
  5
6C272
  8
HATCH
  6
CONTINUOUS
 10
17.13727648481008
 20
18.306071548436101
 30
0.0
 11
17.13727648481008
 21
18.287700375365208
 31
0.0
  0
LINE
  5
6C273
  8
HATCH
  6
CONTINUOUS
 10
17.197380561210931
 20
18.306071548436101
 30
0.0
 11
17.197380561210931
 21
18.287700375365208
 31
0.0
  0
LINE
  5
6C274
  8
HATCH
  6
CONTINUOUS
 10
17.165560756057531
 20
18.287700375365208
 30
0.0
 11
17.13727648481008
 21
18.271370443746662
 31
0.0
  0
LINE
  5
6C275
  8
HATCH
  6
CONTINUOUS
 10
17.13727648481008
 20
18.271370443746662
 30
0.0
 11
17.13727648481008
 21
18.287700375365208
 31
0.0
  0
LINE
  5
6C276
  8
HATCH
  6
CONTINUOUS
 10
17.165560756057531
 20
18.287700375365208
 30
0.0
 11
17.165560756057531
 21
18.271370443746662
 31
0.0
  0
LINE
  5
6C277
  8
HATCH
  6
CONTINUOUS
 10
17.197380561210931
 20
18.287700375365208
 30
0.0
 11
17.197380561210931
 21
18.271370443746662
 31
0.0
  0
LINE
  5
6C278
  8
HATCH
  6
CONTINUOUS
 10
17.165560756057531
 20
18.271370443746662
 30
0.0
 11
17.165560756057541
 21
17.457854075339331
 31
0.0
  0
LINE
  5
6C279
  8
HATCH
  6
CONTINUOUS
 10
17.197380561210931
 20
18.271370443746662
 30
0.0
 11
17.19738056121092
 21
17.457854075339331
 31
0.0
  0
LINE
  5
6C27A
  8
HATCH
  6
CONTINUOUS
 10
17.165560756057541
 20
17.457854075339331
 30
0.0
 11
17.165560756057541
 21
17.417029246292952
 31
0.0
  0
LINE
  5
6C27B
  8
HATCH
  6
CONTINUOUS
 10
17.19738056121092
 20
17.457854075339331
 30
0.0
 11
17.19738056121092
 21
17.417029246292952
 31
0.0
  0
LINE
  5
6C27C
  8
HATCH
  6
CONTINUOUS
 10
17.512962317654491
 20
17.457854075339331
 30
0.0
 11
17.44225163953584
 21
17.417029246292952
 31
0.0
  0
LINE
  5
6C27D
  8
HATCH
  6
CONTINUOUS
 10
17.512962317654491
 20
17.417029246292952
 30
0.0
 11
17.512962317654491
 21
17.457854075339331
 31
0.0
  0
LINE
  5
6C27E
  8
HATCH
  6
CONTINUOUS
 10
17.165560756057541
 20
17.417029246292952
 30
0.0
 11
17.165560756057541
 21
17.275652863305311
 31
0.0
  0
LINE
  5
6C27F
  8
HATCH
  6
CONTINUOUS
 10
17.512962317654491
 20
17.417029246292952
 30
0.0
 11
17.268091239329578
 21
17.275652863305311
 31
0.0
  0
LINE
  5
6C280
  8
HATCH
  6
CONTINUOUS
 10
17.165560756057541
 20
17.275652863305311
 30
0.0
 11
17.165560756057541
 21
17.257281690234429
 31
0.0
  0
LINE
  5
6C281
  8
HATCH
  6
CONTINUOUS
 10
17.268091239329578
 20
17.275652863305311
 30
0.0
 11
17.236271434176189
 21
17.257281690234429
 31
0.0
  0
LINE
  5
6C282
  8
HATCH
  6
CONTINUOUS
 10
17.165560756057541
 20
17.257281690234429
 30
0.0
 11
16.84997899961397
 21
17.075080478200402
 31
0.0
  0
LINE
  5
6C283
  8
HATCH
  6
CONTINUOUS
 10
17.236271434176189
 20
17.257281690234429
 30
0.0
 11
16.920689677732629
 21
17.075080478200402
 31
0.0
  0
LINE
  5
6C284
  8
HATCH
  6
CONTINUOUS
 10
16.920689677732629
 20
17.075080478200402
 30
0.0
 11
16.84997899961397
 21
17.034255649154019
 31
0.0
  0
LINE
  5
6C285
  8
HATCH
  6
CONTINUOUS
 10
16.84997899961397
 20
17.034255649154019
 30
0.0
 11
16.84997899961397
 21
17.075080478200402
 31
0.0
  0
ENDBLK
  5
6C287
  8
0
  0
BLOCK
  8
0
  2
*U539
 70
     1
 10
0.0
 20
0.0
 30
0.0
  3
*U539
  1

  0
SOLID
  5
6C289
  8
HATCH
  6
CONTINUOUS
 10
21.52869036486711
 20
20.632186086297111
 30
0.0
 11
21.49687055971372
 21
20.613814913226221
 31
0.0
 12
21.52869036486711
 22
20.613814913226221
 32
0.0
 13
21.52869036486711
 23
20.613814913226221
 33
0.0
  0
SOLID
  5
6C28A
  8
HATCH
  6
CONTINUOUS
 10
21.49687055971372
 20
20.613814913226221
 30
0.0
 11
21.49687055971372
 21
19.717139742272611
 31
0.0
 12
21.52869036486711
 22
19.717139742272611
 32
0.0
 13
21.52869036486711
 23
19.717139742272611
 33
0.0
  0
SOLID
  5
6C28B
  8
HATCH
  6
CONTINUOUS
 10
-21.49687055971372
 20
20.613814913226221
 30
0.0
 11
-21.52869036486711
 21
20.613814913226221
 31
0.0
 12
-21.52869036486711
 22
19.717139742272611
 32
0.0
 13
-21.52869036486711
 23
19.717139742272611
 33
0.0
210
0.0
220
0.0
230
-1.0
  0
SOLID
  5
6C28C
  8
HATCH
  6
CONTINUOUS
 10
21.49687055971372
 20
19.717139742272611
 30
0.0
 11
21.457979686748448
 21
19.6946860862971
 31
0.0
 12
21.52869036486711
 22
19.6946860862971
 32
0.0
 13
21.52869036486711
 23
19.6946860862971
 33
0.0
  0
SOLID
  5
6C28D
  8
HATCH
  6
CONTINUOUS
 10
-21.49687055971372
 20
19.717139742272611
 30
0.0
 11
-21.52869036486711
 21
19.717139742272611
 31
0.0
 12
-21.52869036486711
 22
19.6946860862971
 32
0.0
 13
-21.52869036486711
 23
19.6946860862971
 33
0.0
210
0.0
220
0.0
230
-1.0
  0
SOLID
  5
6C28E
  8
HATCH
  6
CONTINUOUS
 10
21.457979686748448
 20
19.6946860862971
 30
0.0
 11
20.716791548819199
 21
19.266760915343479
 31
0.0
 12
20.78750222693785
 22
19.266760915343479
 32
0.0
 13
20.78750222693785
 23
19.266760915343479
 33
0.0
  0
SOLID
  5
6C28F
  8
HATCH
  6
CONTINUOUS
 10
-21.457979686748448
 20
19.6946860862971
 30
0.0
 11
-21.52869036486711
 21
19.6946860862971
 31
0.0
 12
-20.78750222693785
 22
19.266760915343479
 32
0.0
 13
-20.78750222693785
 23
19.266760915343479
 33
0.0
210
0.0
220
0.0
230
-1.0
  0
SOLID
  5
6C290
  8
HATCH
  6
CONTINUOUS
 10
-20.716791548819199
 20
19.266760915343479
 30
0.0
 11
-20.78750222693785
 21
19.266760915343479
 31
0.0
 12
-20.716791548819199
 22
19.2259360862971
 32
0.0
 13
-20.716791548819199
 23
19.2259360862971
 33
0.0
210
0.0
220
0.0
230
-1.0
  0
LINE
  5
6C291
  8
HATCH
  6
CONTINUOUS
 10
21.52869036486711
 20
20.632186086297111
 30
0.0
 11
21.49687055971372
 21
20.613814913226221
 31
0.0
  0
LINE
  5
6C292
  8
HATCH
  6
CONTINUOUS
 10
21.52869036486711
 20
20.613814913226221
 30
0.0
 11
21.52869036486711
 21
20.632186086297111
 31
0.0
  0
LINE
  5
6C293
  8
HATCH
  6
CONTINUOUS
 10
21.49687055971372
 20
20.613814913226221
 30
0.0
 11
21.49687055971372
 21
19.717139742272611
 31
0.0
  0
LINE
  5
6C294
  8
HATCH
  6
CONTINUOUS
 10
21.52869036486711
 20
20.613814913226221
 30
0.0
 11
21.52869036486711
 21
19.717139742272611
 31
0.0
  0
LINE
  5
6C295
  8
HATCH
  6
CONTINUOUS
 10
21.49687055971372
 20
19.717139742272611
 30
0.0
 11
21.457979686748448
 21
19.6946860862971
 31
0.0
  0
LINE
  5
6C296
  8
HATCH
  6
CONTINUOUS
 10
21.52869036486711
 20
19.717139742272611
 30
0.0
 11
21.52869036486711
 21
19.6946860862971
 31
0.0
  0
LINE
  5
6C297
  8
HATCH
  6
CONTINUOUS
 10
21.457979686748448
 20
19.6946860862971
 30
0.0
 11
20.716791548819199
 21
19.266760915343479
 31
0.0
  0
LINE
  5
6C298
  8
HATCH
  6
CONTINUOUS
 10
21.52869036486711
 20
19.6946860862971
 30
0.0
 11
20.78750222693785
 21
19.266760915343479
 31
0.0
  0
LINE
  5
6C299
  8
HATCH
  6
CONTINUOUS
 10
20.78750222693785
 20
19.266760915343479
 30
0.0
 11
20.716791548819199
 21
19.2259360862971
 31
0.0
  0
LINE
  5
6C29A
  8
HATCH
  6
CONTINUOUS
 10
20.716791548819199
 20
19.2259360862971
 30
0.0
 11
20.716791548819199
 21
19.266760915343479
 31
0.0
  0
ENDBLK
  5
6C29C
  8
0
  0
BLOCK
  8
0
  2
*U540
 70
     1
 10
0.0
 20
0.0
 30
0.0
  3
*U540
  1

  0
SOLID
  5
6C29E
  8
HATCH
  6
CONTINUOUS
 10
11.865441877673771
 20
21.570629003130389
 30
0.0
 11
11.777053530025441
 21
21.51959796682241
 31
0.0
 12
11.865441877673771
 22
21.51959796682241
 32
0.0
 13
11.865441877673771
 23
21.51959796682241
 33
0.0
  0
SOLID
  5
6C29F
  8
HATCH
  6
CONTINUOUS
 10
11.777053530025441
 20
21.51959796682241
 30
0.0
 11
11.777053530025441
 21
21.417127645915979
 31
0.0
 12
11.865441877673771
 22
21.417127645915979
 32
0.0
 13
11.865441877673771
 23
21.417127645915979
 33
0.0
  0
SOLID
  5
6C2A0
  8
HATCH
  6
CONTINUOUS
 10
-11.777053530025441
 20
21.51959796682241
 30
0.0
 11
-11.865441877673771
 21
21.51959796682241
 31
0.0
 12
-11.865441877673771
 22
21.417127645915979
 32
0.0
 13
-11.865441877673771
 23
21.417127645915979
 33
0.0
210
0.0
220
0.0
230
-1.0
  0
SOLID
  5
6C2A1
  8
HATCH
  6
CONTINUOUS
 10
11.777053530025441
 20
21.417127645915979
 30
0.0
 11
11.777053530025441
 21
21.400797714297429
 31
0.0
 12
11.837157606426301
 22
21.400797714297429
 32
0.0
 13
11.837157606426301
 23
21.400797714297429
 33
0.0
  0
SOLID
  5
6C2A2
  8
HATCH
  6
CONTINUOUS
 10
-11.777053530025441
 20
21.417127645915979
 30
0.0
 11
-11.865441877673771
 21
21.417127645915979
 31
0.0
 12
-11.837157606426301
 22
21.400797714297429
 32
0.0
 13
-11.837157606426301
 23
21.400797714297429
 33
0.0
210
0.0
220
0.0
230
-1.0
  0
SOLID
  5
6C2A3
  8
HATCH
  6
CONTINUOUS
 10
11.777053530025441
 20
21.400797714297429
 30
0.0
 11
11.777053530025441
 21
21.382426541226561
 31
0.0
 12
11.837157606426301
 22
21.382426541226561
 32
0.0
 13
11.837157606426301
 23
21.382426541226561
 33
0.0
  0
SOLID
  5
6C2A4
  8
HATCH
  6
CONTINUOUS
 10
-11.777053530025441
 20
21.400797714297429
 30
0.0
 11
-11.837157606426301
 21
21.400797714297429
 31
0.0
 12
-11.837157606426301
 22
21.382426541226561
 32
0.0
 13
-11.837157606426301
 23
21.382426541226561
 33
0.0
210
0.0
220
0.0
230
-1.0
  0
SOLID
  5
6C2A5
  8
HATCH
  6
CONTINUOUS
 10
-11.777053530025441
 20
21.382426541226561
 30
0.0
 11
-11.805337801272911
 21
21.382426541226561
 31
0.0
 12
-11.777053530025441
 22
21.366096609608
 32
0.0
 13
-11.777053530025441
 23
21.366096609608
 33
0.0
210
0.0
220
0.0
230
-1.0
  0
SOLID
  5
6C2A6
  8
HATCH
  6
CONTINUOUS
 10
11.805337801272911
 20
21.382426541226561
 30
0.0
 11
11.805337801272911
 21
21.366096609608
 31
0.0
 12
11.837157606426301
 22
21.366096609608
 32
0.0
 13
11.837157606426301
 23
21.366096609608
 33
0.0
  0
SOLID
  5
6C2A7
  8
HATCH
  6
CONTINUOUS
 10
-11.805337801272911
 20
21.382426541226561
 30
0.0
 11
-11.837157606426301
 21
21.382426541226561
 31
0.0
 12
-11.837157606426301
 22
21.366096609608
 32
0.0
 13
-11.837157606426301
 23
21.366096609608
 33
0.0
210
0.0
220
0.0
230
-1.0
  0
SOLID
  5
6C2A8
  8
HATCH
  6
CONTINUOUS
 10
11.805337801272911
 20
21.366096609608
 30
0.0
 11
11.805337801272911
 21
20.97050401614851
 31
0.0
 12
11.83715760642631
 22
20.97050401614851
 32
0.0
 13
11.83715760642631
 23
20.97050401614851
 33
0.0
  0
SOLID
  5
6C2A9
  8
HATCH
  6
CONTINUOUS
 10
-11.805337801272911
 20
21.366096609608
 30
0.0
 11
-11.837157606426301
 21
21.366096609608
 31
0.0
 12
-11.83715760642631
 22
20.97050401614851
 32
0.0
 13
-11.83715760642631
 23
20.97050401614851
 33
0.0
210
0.0
220
0.0
230
-1.0
  0
SOLID
  5
6C2AA
  8
HATCH
  6
CONTINUOUS
 10
-11.805337801272911
 20
20.97050401614851
 30
0.0
 11
-11.83715760642631
 21
20.97050401614851
 31
0.0
 12
-11.805337801272911
 22
20.952132843077639
 32
0.0
 13
-11.805337801272911
 23
20.952132843077639
 33
0.0
210
0.0
220
0.0
230
-1.0
  0
SOLID
  5
6C2AB
  8
HATCH
  6
CONTINUOUS
 10
11.87109873192326
 20
20.950908098206249
 30
0.0
 11
11.839278926769859
 21
20.93253692513537
 31
0.0
 12
11.87109873192326
 22
20.93253692513537
 32
0.0
 13
11.87109873192326
 23
20.93253692513537
 33
0.0
  0
SOLID
  5
6C2AC
  8
HATCH
  6
CONTINUOUS
 10
11.839278926769859
 20
20.93253692513537
 30
0.0
 11
11.839278926769859
 21
20.85374500507584
 31
0.0
 12
11.87109873192326
 22
20.85374500507584
 32
0.0
 13
11.87109873192326
 23
20.85374500507584
 33
0.0
  0
SOLID
  5
6C2AD
  8
HATCH
  6
CONTINUOUS
 10
-11.839278926769859
 20
20.93253692513537
 30
0.0
 11
-11.87109873192326
 21
20.93253692513537
 31
0.0
 12
-11.87109873192326
 22
20.85374500507584
 32
0.0
 13
-11.87109873192326
 23
20.85374500507584
 33
0.0
210
0.0
220
0.0
230
-1.0
  0
SOLID
  5
6C2AE
  8
HATCH
  6
CONTINUOUS
 10
-11.839278926769859
 20
20.85374500507584
 30
0.0
 11
-11.87109873192326
 21
20.85374500507584
 31
0.0
 12
-11.839278926769859
 22
20.835373832004969
 32
0.0
 13
-11.839278926769859
 23
20.835373832004969
 33
0.0
210
0.0
220
0.0
230
-1.0
  0
SOLID
  5
6C2AF
  8
HATCH
  6
CONTINUOUS
 10
11.78341749105612
 20
20.542659807742389
 30
0.0
 11
11.78341749105612
 21
20.5278062725992
 31
0.0
 12
11.80914456859615
 22
20.5278062725992
 32
0.0
 13
11.80914456859615
 23
20.5278062725992
 33
0.0
  0
SOLID
  5
6C2B0
  8
HATCH
  6
CONTINUOUS
 10
11.53076823813818
 20
20.5278062725992
 30
0.0
 11
11.53076823813818
 21
20.52428863467151
 31
0.0
 12
11.53686096575156
 22
20.52428863467151
 32
0.0
 13
11.53686096575156
 23
20.52428863467151
 33
0.0
  0
SOLID
  5
6C2B1
  8
HATCH
  6
CONTINUOUS
 10
11.78341749105612
 20
20.5278062725992
 30
0.0
 11
11.78341749105612
 21
20.52428863467151
 31
0.0
 12
11.815237296209521
 22
20.52428863467151
 32
0.0
 13
11.815237296209521
 23
20.52428863467151
 33
0.0
  0
SOLID
  5
6C2B2
  8
HATCH
  6
CONTINUOUS
 10
-11.78341749105612
 20
20.5278062725992
 30
0.0
 11
-11.80914456859615
 21
20.5278062725992
 31
0.0
 12
-11.815237296209521
 22
20.52428863467151
 32
0.0
 13
-11.815237296209521
 23
20.52428863467151
 33
0.0
210
0.0
220
0.0
230
-1.0
  0
SOLID
  5
6C2B3
  8
HATCH
  6
CONTINUOUS
 10
11.53076823813818
 20
20.52428863467151
 30
0.0
 11
11.53076823813818
 21
20.510530667282879
 31
0.0
 12
11.560690464277551
 22
20.510530667282879
 32
0.0
 13
11.560690464277551
 23
20.510530667282879
 33
0.0
  0
SOLID
  5
6C2B4
  8
HATCH
  6
CONTINUOUS
 10
-11.53076823813818
 20
20.52428863467151
 30
0.0
 11
-11.53686096575156
 21
20.52428863467151
 31
0.0
 12
-11.560690464277551
 22
20.510530667282879
 32
0.0
 13
-11.560690464277551
 23
20.510530667282879
 33
0.0
210
0.0
220
0.0
230
-1.0
  0
SOLID
  5
6C2B5
  8
HATCH
  6
CONTINUOUS
 10
11.78341749105612
 20
20.52428863467151
 30
0.0
 11
11.78341749105612
 21
20.510530667282879
 31
0.0
 12
11.815237296209521
 22
20.510530667282879
 32
0.0
 13
11.815237296209521
 23
20.510530667282879
 33
0.0
  0
SOLID
  5
6C2B6
  8
HATCH
  6
CONTINUOUS
 10
-11.78341749105612
 20
20.52428863467151
 30
0.0
 11
-11.815237296209521
 21
20.52428863467151
 31
0.0
 12
-11.815237296209521
 22
20.510530667282879
 32
0.0
 13
-11.815237296209521
 23
20.510530667282879
 33
0.0
210
0.0
220
0.0
230
-1.0
  0
SOLID
  5
6C2B7
  8
HATCH
  6
CONTINUOUS
 10
11.53076823813818
 20
20.510530667282879
 30
0.0
 11
11.510374012148541
 21
20.49875605541785
 31
0.0
 12
11.581084690267179
 22
20.49875605541785
 32
0.0
 13
11.581084690267179
 23
20.49875605541785
 33
0.0
  0
SOLID
  5
6C2B8
  8
HATCH
  6
CONTINUOUS
 10
-11.53076823813818
 20
20.510530667282879
 30
0.0
 11
-11.560690464277551
 21
20.510530667282879
 31
0.0
 12
-11.581084690267179
 22
20.49875605541785
 32
0.0
 13
-11.581084690267179
 23
20.49875605541785
 33
0.0
210
0.0
220
0.0
230
-1.0
  0
SOLID
  5
6C2B9
  8
HATCH
  6
CONTINUOUS
 10
11.78341749105612
 20
20.510530667282879
 30
0.0
 11
11.78341749105612
 21
20.49875605541785
 31
0.0
 12
11.815237296209521
 22
20.49875605541785
 32
0.0
 13
11.815237296209521
 23
20.49875605541785
 33
0.0
  0
SOLID
  5
6C2BA
  8
HATCH
  6
CONTINUOUS
 10
-11.78341749105612
 20
20.510530667282879
 30
0.0
 11
-11.815237296209521
 21
20.510530667282879
 31
0.0
 12
-11.815237296209521
 22
20.49875605541785
 32
0.0
 13
-11.815237296209521
 23
20.49875605541785
 33
0.0
210
0.0
220
0.0
230
-1.0
  0
SOLID
  5
6C2BB
  8
HATCH
  6
CONTINUOUS
 10
11.510374012148541
 20
20.49875605541785
 30
0.0
 11
11.38064946849226
 21
20.423859555217401
 31
0.0
 12
11.451360146610901
 22
20.423859555217401
 32
0.0
 13
11.451360146610901
 23
20.423859555217401
 33
0.0
  0
SOLID
  5
6C2BC
  8
HATCH
  6
CONTINUOUS
 10
-11.510374012148541
 20
20.49875605541785
 30
0.0
 11
-11.581084690267179
 21
20.49875605541785
 31
0.0
 12
-11.451360146610901
 22
20.423859555217401
 32
0.0
 13
-11.451360146610901
 23
20.423859555217401
 33
0.0
210
0.0
220
0.0
230
-1.0
  0
SOLID
  5
6C2BD
  8
HATCH
  6
CONTINUOUS
 10
11.78341749105612
 20
20.49875605541785
 30
0.0
 11
11.78341749105612
 21
20.423859555217401
 31
0.0
 12
11.815237296209521
 22
20.423859555217401
 32
0.0
 13
11.815237296209521
 23
20.423859555217401
 33
0.0
  0
SOLID
  5
6C2BE
  8
HATCH
  6
CONTINUOUS
 10
-11.78341749105612
 20
20.49875605541785
 30
0.0
 11
-11.815237296209521
 21
20.49875605541785
 31
0.0
 12
-11.815237296209521
 22
20.423859555217401
 32
0.0
 13
-11.815237296209521
 23
20.423859555217401
 33
0.0
210
0.0
220
0.0
230
-1.0
  0
SOLID
  5
6C2BF
  8
HATCH
  6
CONTINUOUS
 10
11.38064946849226
 20
20.423859555217401
 30
0.0
 11
11.34882966333887
 21
20.40548838214653
 31
0.0
 12
11.41954034145752
 22
20.40548838214653
 32
0.0
 13
11.41954034145752
 23
20.40548838214653
 33
0.0
  0
SOLID
  5
6C2C0
  8
HATCH
  6
CONTINUOUS
 10
-11.38064946849226
 20
20.423859555217401
 30
0.0
 11
-11.451360146610901
 21
20.423859555217401
 31
0.0
 12
-11.41954034145752
 22
20.40548838214653
 32
0.0
 13
-11.41954034145752
 23
20.40548838214653
 33
0.0
210
0.0
220
0.0
230
-1.0
  0
SOLID
  5
6C2C1
  8
HATCH
  6
CONTINUOUS
 10
-11.78341749105612
 20
20.423859555217401
 30
0.0
 11
-11.815237296209521
 21
20.423859555217401
 31
0.0
 12
-11.78341749105612
 22
20.40548838214653
 32
0.0
 13
-11.78341749105612
 23
20.40548838214653
 33
0.0
210
0.0
220
0.0
230
-1.0
  0
SOLID
  5
6C2C2
  8
HATCH
  6
CONTINUOUS
 10
11.34882966333887
 20
20.40548838214653
 30
0.0
 11
11.215186481694611
 21
20.328329455248848
 31
0.0
 12
11.28589715981327
 22
20.328329455248848
 32
0.0
 13
11.28589715981327
 23
20.328329455248848
 33
0.0
  0
SOLID
  5
6C2C3
  8
HATCH
  6
CONTINUOUS
 10
-11.34882966333887
 20
20.40548838214653
 30
0.0
 11
-11.41954034145752
 21
20.40548838214653
 31
0.0
 12
-11.28589715981327
 22
20.328329455248848
 32
0.0
 13
-11.28589715981327
 23
20.328329455248848
 33
0.0
210
0.0
220
0.0
230
-1.0
  0
SOLID
  5
6C2C4
  8
HATCH
  6
CONTINUOUS
 10
-11.215186481694611
 20
20.328329455248848
 30
0.0
 11
-11.28589715981327
 21
20.328329455248848
 31
0.0
 12
-11.215186481694611
 22
20.28750462620247
 32
0.0
 13
-11.215186481694611
 23
20.28750462620247
 33
0.0
210
0.0
220
0.0
230
-1.0
  0
LINE
  5
6C2C5
  8
HATCH
  6
CONTINUOUS
 10
11.865441877673771
 20
21.570629003130389
 30
0.0
 11
11.777053530025441
 21
21.51959796682241
 31
0.0
  0
LINE
  5
6C2C6
  8
HATCH
  6
CONTINUOUS
 10
11.865441877673771
 20
21.51959796682241
 30
0.0
 11
11.865441877673771
 21
21.570629003130389
 31
0.0
  0
LINE
  5
6C2C7
  8
HATCH
  6
CONTINUOUS
 10
11.777053530025441
 20
21.51959796682241
 30
0.0
 11
11.777053530025441
 21
21.417127645915979
 31
0.0
  0
LINE
  5
6C2C8
  8
HATCH
  6
CONTINUOUS
 10
11.865441877673771
 20
21.51959796682241
 30
0.0
 11
11.865441877673771
 21
21.417127645915979
 31
0.0
  0
LINE
  5
6C2C9
  8
HATCH
  6
CONTINUOUS
 10
11.777053530025441
 20
21.417127645915979
 30
0.0
 11
11.777053530025441
 21
21.400797714297429
 31
0.0
  0
LINE
  5
6C2CA
  8
HATCH
  6
CONTINUOUS
 10
11.865441877673771
 20
21.417127645915979
 30
0.0
 11
11.837157606426301
 21
21.400797714297429
 31
0.0
  0
LINE
  5
6C2CB
  8
HATCH
  6
CONTINUOUS
 10
11.777053530025441
 20
21.400797714297429
 30
0.0
 11
11.777053530025441
 21
21.382426541226561
 31
0.0
  0
LINE
  5
6C2CC
  8
HATCH
  6
CONTINUOUS
 10
11.837157606426301
 20
21.400797714297429
 30
0.0
 11
11.837157606426301
 21
21.382426541226561
 31
0.0
  0
LINE
  5
6C2CD
  8
HATCH
  6
CONTINUOUS
 10
11.805337801272911
 20
21.382426541226561
 30
0.0
 11
11.777053530025441
 21
21.366096609608
 31
0.0
  0
LINE
  5
6C2CE
  8
HATCH
  6
CONTINUOUS
 10
11.777053530025441
 20
21.366096609608
 30
0.0
 11
11.777053530025441
 21
21.382426541226561
 31
0.0
  0
LINE
  5
6C2CF
  8
HATCH
  6
CONTINUOUS
 10
11.805337801272911
 20
21.382426541226561
 30
0.0
 11
11.805337801272911
 21
21.366096609608
 31
0.0
  0
LINE
  5
6C2D0
  8
HATCH
  6
CONTINUOUS
 10
11.837157606426301
 20
21.382426541226561
 30
0.0
 11
11.837157606426301
 21
21.366096609608
 31
0.0
  0
LINE
  5
6C2D1
  8
HATCH
  6
CONTINUOUS
 10
11.805337801272911
 20
21.366096609608
 30
0.0
 11
11.805337801272911
 21
20.97050401614851
 31
0.0
  0
LINE
  5
6C2D2
  8
HATCH
  6
CONTINUOUS
 10
11.837157606426301
 20
21.366096609608
 30
0.0
 11
11.83715760642631
 21
20.97050401614851
 31
0.0
  0
LINE
  5
6C2D3
  8
HATCH
  6
CONTINUOUS
 10
11.83715760642631
 20
20.97050401614851
 30
0.0
 11
11.805337801272911
 21
20.952132843077639
 31
0.0
  0
LINE
  5
6C2D4
  8
HATCH
  6
CONTINUOUS
 10
11.805337801272911
 20
20.952132843077639
 30
0.0
 11
11.805337801272911
 21
20.97050401614851
 31
0.0
  0
LINE
  5
6C2D5
  8
HATCH
  6
CONTINUOUS
 10
11.87109873192326
 20
20.950908098206249
 30
0.0
 11
11.839278926769859
 21
20.93253692513537
 31
0.0
  0
LINE
  5
6C2D6
  8
HATCH
  6
CONTINUOUS
 10
11.87109873192326
 20
20.93253692513537
 30
0.0
 11
11.87109873192326
 21
20.950908098206249
 31
0.0
  0
LINE
  5
6C2D7
  8
HATCH
  6
CONTINUOUS
 10
11.839278926769859
 20
20.93253692513537
 30
0.0
 11
11.839278926769859
 21
20.85374500507584
 31
0.0
  0
LINE
  5
6C2D8
  8
HATCH
  6
CONTINUOUS
 10
11.87109873192326
 20
20.93253692513537
 30
0.0
 11
11.87109873192326
 21
20.85374500507584
 31
0.0
  0
LINE
  5
6C2D9
  8
HATCH
  6
CONTINUOUS
 10
11.87109873192326
 20
20.85374500507584
 30
0.0
 11
11.839278926769859
 21
20.835373832004969
 31
0.0
  0
LINE
  5
6C2DA
  8
HATCH
  6
CONTINUOUS
 10
11.839278926769859
 20
20.835373832004969
 30
0.0
 11
11.839278926769859
 21
20.85374500507584
 31
0.0
  0
LINE
  5
6C2DB
  8
HATCH
  6
CONTINUOUS
 10
11.78341749105612
 20
20.542659807742389
 30
0.0
 11
11.78341749105612
 21
20.5278062725992
 31
0.0
  0
LINE
  5
6C2DC
  8
HATCH
  6
CONTINUOUS
 10
11.80914456859615
 20
20.5278062725992
 30
0.0
 11
11.78341749105612
 21
20.542659807742389
 31
0.0
  0
LINE
  5
6C2DD
  8
HATCH
  6
CONTINUOUS
 10
11.53076823813818
 20
20.5278062725992
 30
0.0
 11
11.53076823813818
 21
20.52428863467151
 31
0.0
  0
LINE
  5
6C2DE
  8
HATCH
  6
CONTINUOUS
 10
11.53686096575156
 20
20.52428863467151
 30
0.0
 11
11.53076823813818
 21
20.5278062725992
 31
0.0
  0
LINE
  5
6C2DF
  8
HATCH
  6
CONTINUOUS
 10
11.78341749105612
 20
20.5278062725992
 30
0.0
 11
11.78341749105612
 21
20.52428863467151
 31
0.0
  0
LINE
  5
6C2E0
  8
HATCH
  6
CONTINUOUS
 10
11.80914456859615
 20
20.5278062725992
 30
0.0
 11
11.815237296209521
 21
20.52428863467151
 31
0.0
  0
LINE
  5
6C2E1
  8
HATCH
  6
CONTINUOUS
 10
11.53076823813818
 20
20.52428863467151
 30
0.0
 11
11.53076823813818
 21
20.510530667282879
 31
0.0
  0
LINE
  5
6C2E2
  8
HATCH
  6
CONTINUOUS
 10
11.53686096575156
 20
20.52428863467151
 30
0.0
 11
11.560690464277551
 21
20.510530667282879
 31
0.0
  0
LINE
  5
6C2E3
  8
HATCH
  6
CONTINUOUS
 10
11.78341749105612
 20
20.52428863467151
 30
0.0
 11
11.78341749105612
 21
20.510530667282879
 31
0.0
  0
LINE
  5
6C2E4
  8
HATCH
  6
CONTINUOUS
 10
11.815237296209521
 20
20.52428863467151
 30
0.0
 11
11.815237296209521
 21
20.510530667282879
 31
0.0
  0
LINE
  5
6C2E5
  8
HATCH
  6
CONTINUOUS
 10
11.53076823813818
 20
20.510530667282879
 30
0.0
 11
11.510374012148541
 21
20.49875605541785
 31
0.0
  0
LINE
  5
6C2E6
  8
HATCH
  6
CONTINUOUS
 10
11.560690464277551
 20
20.510530667282879
 30
0.0
 11
11.581084690267179
 21
20.49875605541785
 31
0.0
  0
LINE
  5
6C2E7
  8
HATCH
  6
CONTINUOUS
 10
11.78341749105612
 20
20.510530667282879
 30
0.0
 11
11.78341749105612
 21
20.49875605541785
 31
0.0
  0
LINE
  5
6C2E8
  8
HATCH
  6
CONTINUOUS
 10
11.815237296209521
 20
20.510530667282879
 30
0.0
 11
11.815237296209521
 21
20.49875605541785
 31
0.0
  0
LINE
  5
6C2E9
  8
HATCH
  6
CONTINUOUS
 10
11.510374012148541
 20
20.49875605541785
 30
0.0
 11
11.38064946849226
 21
20.423859555217401
 31
0.0
  0
LINE
  5
6C2EA
  8
HATCH
  6
CONTINUOUS
 10
11.581084690267179
 20
20.49875605541785
 30
0.0
 11
11.451360146610901
 21
20.423859555217401
 31
0.0
  0
LINE
  5
6C2EB
  8
HATCH
  6
CONTINUOUS
 10
11.78341749105612
 20
20.49875605541785
 30
0.0
 11
11.78341749105612
 21
20.423859555217401
 31
0.0
  0
LINE
  5
6C2EC
  8
HATCH
  6
CONTINUOUS
 10
11.815237296209521
 20
20.49875605541785
 30
0.0
 11
11.815237296209521
 21
20.423859555217401
 31
0.0
  0
LINE
  5
6C2ED
  8
HATCH
  6
CONTINUOUS
 10
11.38064946849226
 20
20.423859555217401
 30
0.0
 11
11.34882966333887
 21
20.40548838214653
 31
0.0
  0
LINE
  5
6C2EE
  8
HATCH
  6
CONTINUOUS
 10
11.451360146610901
 20
20.423859555217401
 30
0.0
 11
11.41954034145752
 21
20.40548838214653
 31
0.0
  0
LINE
  5
6C2EF
  8
HATCH
  6
CONTINUOUS
 10
11.815237296209521
 20
20.423859555217401
 30
0.0
 11
11.78341749105612
 21
20.40548838214653
 31
0.0
  0
LINE
  5
6C2F0
  8
HATCH
  6
CONTINUOUS
 10
11.78341749105612
 20
20.40548838214653
 30
0.0
 11
11.78341749105612
 21
20.423859555217401
 31
0.0
  0
LINE
  5
6C2F1
  8
HATCH
  6
CONTINUOUS
 10
11.34882966333887
 20
20.40548838214653
 30
0.0
 11
11.215186481694611
 21
20.328329455248848
 31
0.0
  0
LINE
  5
6C2F2
  8
HATCH
  6
CONTINUOUS
 10
11.41954034145752
 20
20.40548838214653
 30
0.0
 11
11.28589715981327
 21
20.328329455248848
 31
0.0
  0
LINE
  5
6C2F3
  8
HATCH
  6
CONTINUOUS
 10
11.28589715981327
 20
20.328329455248848
 30
0.0
 11
11.215186481694611
 21
20.28750462620247
 31
0.0
  0
LINE
  5
6C2F4
  8
HATCH
  6
CONTINUOUS
 10
11.215186481694611
 20
20.28750462620247
 30
0.0
 11
11.215186481694611
 21
20.328329455248848
 31
0.0
  0
ENDBLK
  5
6C2F6
  8
0
  0
BLOCK
  8
0
  2
*U541
 70
     1
 10
0.0
 20
0.0
 30
0.0
  3
*U541
  1

  0
SOLID
  5
6C2F8
  8
DIM
 10
15.88028755947645
 20
24.244884175731709
 30
0.0
 11
15.530903985770401
 21
24.095009666810459
 31
0.0
 12
15.81279401205842
 22
24.35009644239739
 32
0.0
 13
15.81279401205842
 23
24.35009644239739
 33
0.0
  0
POLYLINE
  5
6C2F9
  8
DIM
 66
     1
 10
0.0
 20
0.0
 30
0.0
  0
VERTEX
  5
6CE2C
  8
DIM
 10
15.846540785767431
 20
24.29749030906455
 30
0.0
  0
VERTEX
  5
6CE2D
  8
DIM
 10
18.53744388841044
 20
26.02370153814741
 30
0.0
  0
VERTEX
  5
6CE2E
  8
DIM
 10
18.91244388841044
 20
26.02370153814741
 30
0.0
  0
SEQEND
  5
6CE2F
  8
DIM
  0
ENDBLK
  5
6C2FF
  8
0
  0
BLOCK
  8
0
  2
*U542
 70
     1
 10
0.0
 20
0.0
 30
0.0
  3
*U542
  1

  0
TEXT
  5
6C301
  8
DIM
 10
19.176048936159422
 20
25.829806585896389
 30
0.0
 40
0.375
  1
WALL ANGLE
  7
STD
  0
ENDBLK
  5
6C303
  8
0
  0
BLOCK
  8
0
  2
*U543
 70
     1
 10
0.0
 20
0.0
 30
0.0
  3
*U543
  1

  0
SOLID
  5
6C305
  8
DIM
 10
15.55920812540441
 20
18.31100912400527
 30
0.0
 11
15.53551645898175
 21
18.690442853320569
 31
0.0
 12
15.68098708267301
 22
18.33920283902426
 32
0.0
 13
15.68098708267301
 23
18.33920283902426
 33
0.0
  0
POLYLINE
  5
6C306
  8
DIM
 66
     1
 10
0.0
 20
0.0
 30
0.0
  0
VERTEX
  5
6CE30
  8
DIM
 10
15.62009760403871
 20
18.325105981514771
 30
0.0
  0
VERTEX
  5
6CE31
  8
DIM
 10
16.36182484985061
 20
15.121314976609741
 30
0.0
  0
VERTEX
  5
6CE32
  8
DIM
 10
16.73682484985061
 20
15.121314976609741
 30
0.0
  0
SEQEND
  5
6CE33
  8
DIM
  0
ENDBLK
  5
6C30C
  8
0
  0
BLOCK
  8
0
  2
*U544
 70
     1
 10
0.0
 20
0.0
 30
0.0
  3
*U544
  1

  0
TEXT
  5
6C30E
  8
DIM
 10
16.980733444666441
 20
14.92716422626868
 30
0.0
 40
0.375
  1
CROSS TEE
  7
STD
  0
TEXT
  5
6C30F
  8
DIM
 10
16.97510588668554
 20
14.29551347592761
 30
0.0
 40
0.375
  1
(INSTALL HOOK
  7
STD
  0
TEXT
  5
6C310
  8
DIM
 10
16.965385559263979
 20
13.66411852367659
 30
0.0
 40
0.375
  1
END FIRST)
  7
STD
  0
ENDBLK
  5
6C312
  8
0
  0
BLOCK
  8
0
  2
*U545
 70
     1
 10
0.0
 20
0.0
 30
0.0
  3
*U545
  1

  0
SOLID
  5
6C314
  8
DIM
 10
9.5330722345087064
 20
22.265472540013199
 30
0.0
 11
9.7893702428795653
 21
21.984683329207058
 31
0.0
 12
9.4558594098348738
 22
22.167171066443949
 32
0.0
 13
9.4558594098348738
 23
22.167171066443949
 33
0.0
  0
POLYLINE
  5
6C315
  8
DIM
 66
     1
 10
0.0
 20
0.0
 30
0.0
  0
VERTEX
  5
6CE34
  8
DIM
 10
9.4944658221717901
 20
22.21632180322856
 30
0.0
  0
VERTEX
  5
6CE35
  8
DIM
 10
6.4965884698278611
 20
24.571063497279731
 30
0.0
  0
VERTEX
  5
6CE36
  8
DIM
 10
6.1215884698278611
 20
24.571063497279731
 30
0.0
  0
SEQEND
  5
6CE37
  8
DIM
  0
ENDBLK
  5
6C31B
  8
0
  0
BLOCK
  8
0
  2
*U546
 70
     1
 10
0.0
 20
0.0
 30
0.0
  3
*U546
  1

  0
TEXT
  5
6C31D
  8
DIM
 10
2.8523558640979849
 20
24.376912746938672
 30
0.0
 40
0.375
  1
CROSS TEE
  7
STD
  0
TEXT
  5
6C31E
  8
DIM
 10
-1.136303753910197
 20
23.74551779468764
 30
0.0
 40
0.375
  1
(SNAP TAB END INSTALLED
  7
STD
  0
TEXT
  5
6C31F
  8
DIM
 10
-1.8440970690534451
 20
23.113867044346581
 30
0.0
 40
0.375
  1
AFTER HOOK END IS PLACED)
  7
STD
  0
ENDBLK
  5
6C321
  8
0
  0
BLOCK
  8
0
  2
*U547
 70
     1
 10
0.0
 20
0.0
 30
0.0
  3
*U547
  1

  0
SOLID
  5
6C323
  8
DIM
 10
7.8551694076526131
 20
17.594373629130502
 30
0.0
 11
8.1325638246977316
 21
17.33440519375381
 31
0.0
 12
7.7858496133166684
 22
17.4903555243928
 32
0.0
 13
7.7858496133166684
 23
17.4903555243928
 33
0.0
  0
POLYLINE
  5
6C324
  8
DIM
 66
     1
 10
0.0
 20
0.0
 30
0.0
  0
VERTEX
  5
6CE38
  8
DIM
 10
7.8205095104846389
 20
17.542364576761649
 30
0.0
  0
VERTEX
  5
6CE39
  8
DIM
 10
5.3029820628748681
 20
19.220096403768888
 30
0.0
  0
VERTEX
  5
6CE3A
  8
DIM
 10
4.9279820628748681
 20
19.220096403768888
 30
0.0
  0
SEQEND
  5
6CE3B
  8
DIM
  0
ENDBLK
  5
6C32A
  8
0
  0
BLOCK
  8
0
  2
*U548
 70
     1
 10
0.0
 20
0.0
 30
0.0
  3
*U548
  1

  0
TEXT
  5
6C32C
  8
DIM
 10
0.2030025267220715
 20
19.02620145151786
 30
0.0
 40
0.375
  1
MAIN TEE SPLICE
  7
STD
  0
TEXT
  5
6C32D
  8
DIM
 10
-1.1069394923775191
 20
18.394550701176801
 30
0.0
 40
0.375
  1
BEND TABS TOWARDS
  7
STD
  0
TEXT
  5
6C32E
  8
DIM
 10
1.6418667832022891
 20
17.762899950835742
 30
0.0
 40
0.375
  1
BUTT JOINT
  7
STD
  0
ENDBLK
  5
6C330
  8
0
  0
ENDSEC
  0
SECTION
  2
ENTITIES
  0
LINE
  5
331CC
  8
GRID
 10
17.137276484810069
 20
18.424871800961078
 30
0.0000000000001839
 11
14.08886906504674
 21
20.184870645361109
 31
0.0000000000001767
210
0.0000000000000006
220
0.8164965809277266
230
0.5773502691896251
1001
ACDBBLOCKREPETAG
1070
     1
1071
      582
1005
331CC
  0
LINE
  5
331CD
  8
GRID
 10
17.225664832458381
 20
18.475902837269071
 30
0.0000000000001839
 11
14.177257412695051
 21
20.23590168166908
 31
0.0000000000001785
210
0.0000000000000006
220
0.8164965809277266
230
0.5773502691896251
1001
ACDBBLOCKREPETAG
1070
     1
1071
      583
1005
331CD
  0
LINE
  5
331CE
  8
GRID
 10
14.177257412695051
 20
20.23590168166908
 30
0.0000000000001785
 11
14.08886906504674
 21
20.184870645361109
 31
0.0000000000001767
210
0.0000000000000006
220
0.8164965809277266
230
0.5773502691896251
1001
ACDBBLOCKREPETAG
1070
     1
1071
      584
1005
331CE
  0
LINE
  5
331CF
  8
GRID
 10
14.08886906504674
 20
20.184870645361109
 30
0.0000000000001803
 11
14.08886906504674
 21
20.031369288146699
 31
0.0000000000001794
210
0.0000000000000006
220
0.8164965809277266
230
0.5773502691896251
1001
ACDBBLOCKREPETAG
1070
     1
1071
      585
1005
331CF
  0
LINE
  5
331D0
  8
GRID
 10
14.115032015950639
 20
19.655372612629481
 30
0.0000000000001803
 11
14.1171533362942
 21
19.654147867758081
 31
0.0000000000001812
210
0.0000000000000006
220
0.8164965809277266
230
0.5773502691896251
1001
ACDBBLOCKREPETAG
1070
     1
1071
      586
1005
331D0
  0
LINE
  5
331D1
  8
GRID
 10
14.083212210797249
 20
19.637001439558599
 30
0.0000000000001767
 11
14.115032015950639
 21
19.655372612629481
 31
0.0000000000001803
210
0.0000000000000006
220
0.8164965809277266
230
0.5773502691896251
1001
ACDBBLOCKREPETAG
1070
     1
1071
      587
1005
331D1
  0
LINE
  5
331D2
  8
GRID
 10
13.90473783461576
 20
19.317914936350789
 30
0.0000000000001794
 11
13.936557639769161
 21
19.33628610942166
 31
0.0000000000001803
210
0.0000000000000006
220
0.8164965809277266
230
0.5773502691896251
1001
ACDBBLOCKREPETAG
1070
     1
1071
      588
1005
331D2
  0
LINE
  5
331D3
  8
GRID
 10
13.936557639769161
 20
19.33628610942166
 30
0.0000000000001812
 11
14.24061355567938
 21
19.160739344522199
 31
0.0000000000001812
210
0.0000000000000006
220
0.8164965809277266
230
0.5773502691896251
1001
ACDBBLOCKREPETAG
1070
     1
1071
      589
1005
331D3
  0
LINE
  5
331D4
  8
GRID
 10
13.9924190754829
 20
19.18972497314515
 30
0.0000000000001785
 11
13.9924190754829
 21
19.166863068879159
 31
0.0000000000001812
210
0.0000000000000006
220
0.8164965809277266
230
0.5773502691896251
1001
ACDBBLOCKREPETAG
1070
     1
1071
      590
1005
331D4
  0
LINE
  5
331D5
  8
GRID
 10
13.96059927032951
 20
19.148491895808291
 30
0.0000000000001776
 11
13.9924190754829
 21
19.166863068879159
 31
0.0000000000001803
210
0.0000000000000006
220
0.8164965809277266
230
0.5773502691896251
1001
ACDBBLOCKREPETAG
1070
     1
1071
      591
1005
331D5
  0
LINE
  5
331D6
  8
GRID
 10
17.137276484810069
 20
18.27137044374668
 30
0.0000000000001839
 11
14.08886906504674
 21
20.031369288146699
 31
0.0000000000001785
210
0.0000000000000006
220
0.8164965809277266
230
0.5773502691896251
1001
ACDBBLOCKREPETAG
1070
     1
1071
      592
1005
331D6
  0
LINE
  5
331D7
  8
GRID
 10
14.315071899738321
 20
18.928925594514041
 30
0.0000000000001776
 11
14.31507189973833
 21
18.903012198752371
 31
0.0000000000001794
210
0.0000000000000006
220
0.8164965809277266
230
0.5773502691896251
1001
ACDBBLOCKREPETAG
1070
     1
1071
      593
1005
331D7
  0
LINE
  5
331D8
  8
GRID
 10
14.126769363908339
 20
19.037642114264582
 30
0.0000000000001794
 11
14.315071899738321
 21
18.928925594514041
 31
0.0000000000001794
210
0.0000000000000006
220
0.8164965809277266
230
0.5773502691896251
1001
ACDBBLOCKREPETAG
1070
     1
1071
      594
1005
331D8
  0
LINE
  5
331D9
  8
GRID
 10
14.126769363908339
 20
19.052553547549291
 30
0.0000000000001812
 11
14.12676936390835
 21
19.037642114264582
 31
0.0000000000001812
210
0.0000000000000006
220
0.8164965809277266
230
0.5773502691896251
1001
ACDBBLOCKREPETAG
1070
     1
1071
      595
1005
331D9
  0
LINE
  5
331DA
  8
GRID
 10
14.00656121110663
 20
19.121955756928141
 30
0.0000000000001785
 11
14.126769363908339
 21
19.052553547549291
 31
0.0000000000001812
210
0.0000000000000006
220
0.8164965809277266
230
0.5773502691896251
1001
ACDBBLOCKREPETAG
1070
     1
1071
      596
1005
331DA
  0
LINE
  5
331DB
  8
GRID
 10
14.00656121110663
 20
19.181560007335872
 30
0.0000000000001794
 11
14.00656121110663
 21
19.121955756928141
 31
0.0000000000001794
210
0.0000000000000006
220
0.8164965809277266
230
0.5773502691896251
1001
ACDBBLOCKREPETAG
1070
     1
1071
      597
1005
331DB
  0
LINE
  5
331DC
  8
GRID
 10
13.96059927032951
 20
19.208096146216011
 30
0.0000000000001812
 11
14.00656121110663
 21
19.181560007335861
 31
0.0000000000001785
210
0.0000000000000006
220
0.8164965809277266
230
0.5773502691896251
1001
ACDBBLOCKREPETAG
1070
     1
1071
      598
1005
331DC
  0
LINE
  5
331DD
  8
GRID
 10
13.96059927032951
 20
19.148491895808291
 30
0.0000000000001785
 11
13.96059927032951
 21
19.208096146216011
 31
0.0000000000001812
210
0.0000000000000006
220
0.8164965809277266
230
0.5773502691896251
1001
ACDBBLOCKREPETAG
1070
     1
1071
      599
1005
331DD
  0
LINE
  5
331DE
  8
GRID
 10
13.904737834615769
 20
19.18074351075494
 30
0.0000000000001821
 11
13.96059927032951
 21
19.148491895808291
 31
0.0000000000001785
210
0.0000000000000006
220
0.8164965809277266
230
0.5773502691896251
1001
ACDBBLOCKREPETAG
1070
     1
1071
      600
1005
331DE
  0
LINE
  5
331DF
  8
GRID
 10
13.904737834615769
 20
19.317914936350789
 30
0.0000000000001803
 11
13.904737834615769
 21
19.18074351075494
 31
0.0000000000001812
210
0.0000000000000006
220
0.8164965809277266
230
0.5773502691896251
1001
ACDBBLOCKREPETAG
1070
     1
1071
      601
1005
331DF
  0
LINE
  5
331E0
  8
GRID
 10
14.24061355567938
 20
19.123996998380449
 30
0.0000000000001794
 11
13.904737834615769
 21
19.317914936350789
 31
0.0000000000001803
210
0.0000000000000006
220
0.8164965809277266
230
0.5773502691896251
1001
ACDBBLOCKREPETAG
1070
     1
1071
      602
1005
331E0
  0
LINE
  5
331E1
  8
GRID
 10
14.24061355567938
 20
19.448962637589691
 30
0.0000000000001794
 11
14.24061355567938
 21
19.123996998380449
 31
0.0000000000001803
210
0.0000000000000006
220
0.8164965809277266
230
0.5773502691896251
1001
ACDBBLOCKREPETAG
1070
     1
1071
      603
1005
331E1
  0
LINE
  5
331E2
  8
GRID
 10
14.083212210797249
 20
19.539838346428191
 30
0.0000000000001812
 11
14.24061355567938
 21
19.448962637589691
 31
0.0000000000001794
210
0.0000000000000006
220
0.8164965809277266
230
0.5773502691896251
1001
ACDBBLOCKREPETAG
1070
     1
1071
      604
1005
331E2
  0
LINE
  5
331E3
  8
GRID
 10
14.083212210797241
 20
19.637001439558599
 30
0.0000000000001785
 11
14.083212210797249
 21
19.539838346428191
 31
0.0000000000001803
210
0.0000000000000006
220
0.8164965809277266
230
0.5773502691896251
1001
ACDBBLOCKREPETAG
1070
     1
1071
      605
1005
331E3
  0
LINE
  5
331E4
  8
GRID
 10
14.1171533362942
 20
19.617405521616341
 30
0.0000000000001803
 11
14.083212210797249
 21
19.637001439558599
 31
0.0000000000001776
210
0.0000000000000006
220
0.8164965809277266
230
0.5773502691896251
1001
ACDBBLOCKREPETAG
1070
     1
1071
      606
1005
331E4
  0
LINE
  5
331E5
  8
GRID
 10
14.1171533362942
 20
20.015039356528138
 30
0.0000000000001803
 11
14.1171533362942
 21
19.617405521616341
 31
0.0000000000001803
210
0.0000000000000006
220
0.8164965809277266
230
0.5773502691896251
1001
ACDBBLOCKREPETAG
1070
     1
1071
      607
1005
331E5
  0
LINE
  5
331E6
  8
GRID
 10
14.31507189973833
 20
18.903012198752371
 30
0.0000000000001794
 11
13.99949014329477
 21
18.720810986718341
 31
0.0000000000001803
210
0.0000000000000006
220
0.8164965809277266
230
0.5773502691896251
1001
ACDBBLOCKREPETAG
1070
     1
1071
      608
1005
331E6
  0
LINE
  5
331E7
  8
GRID
 10
17.165560756057531
 20
17.257281690234439
 30
0.0000000000001856
 11
14.31507189973833
 21
18.903012198752371
 31
0.0000000000001794
210
0.0000000000000006
220
0.8164965809277266
230
0.5773502691896251
1001
ACDBBLOCKREPETAG
1070
     1
1071
      609
1005
331E7
  0
LINE
  5
331E8
  8
GRID
 10
13.99949014329477
 20
18.720810986718341
 30
0.0000000000001812
 11
13.999490143294761
 21
18.679986157671959
 31
0.0000000000001803
210
0.0000000000000006
220
0.8164965809277266
230
0.5773502691896251
1001
ACDBBLOCKREPETAG
1070
     1
1071
      610
1005
331E8
  0
LINE
  5
331E9
  8
GRID
 10
16.84997899961397
 20
17.07508047820042
 30
0.0000000000001821
 11
13.99949014329477
 21
18.720810986718341
 31
0.0000000000001812
210
0.0000000000000006
220
0.8164965809277266
230
0.5773502691896251
1001
ACDBBLOCKREPETAG
1070
     1
1071
      611
1005
331E9
  0
LINE
  5
331EA
  8
GRID
 10
16.84997899961397
 20
17.03425564915403
 30
0.0000000000001812
 11
13.999490143294761
 21
18.679986157671959
 31
0.0000000000001803
210
0.0000000000000006
220
0.8164965809277266
230
0.5773502691896251
1001
ACDBBLOCKREPETAG
1070
     1
1071
      612
1005
331EA
  0
LINE
  5
331EB
  8
GRID
 10
17.51296231765448
 20
17.457854075339341
 30
0.0000000000001856
 11
17.197380561210931
 21
17.640055287373361
 31
0.0000000000001821
210
0.0000000000000006
220
0.8164965809277266
230
0.5773502691896251
1001
ACDBBLOCKREPETAG
1070
     1
1071
      613
1005
331EB
  0
LINE
  5
331EC
  8
GRID
 10
17.225664832458381
 20
18.322401480054651
 30
0.0000000000001821
 11
17.197380561210931
 21
18.306071548436101
 31
0.0000000000001821
210
0.0000000000000006
220
0.8164965809277266
230
0.5773502691896251
1001
ACDBBLOCKREPETAG
1070
     1
1071
      614
1005
331EC
  0
LINE
  5
331ED
  8
GRID
 10
17.197380561210931
 20
18.306071548436101
 30
0.0000000000001821
 11
17.197380561210931
 21
17.275652863305311
 31
0.0000000000001839
210
0.0000000000000006
220
0.8164965809277266
230
0.5773502691896251
1001
ACDBBLOCKREPETAG
1070
     1
1071
      615
1005
331ED
  0
LINE
  5
331EE
  8
GRID
 10
17.197380561210931
 20
17.275652863305311
 30
0.0000000000001839
 11
17.512962317654491
 21
17.457854075339331
 31
0.0000000000001856
210
0.0000000000000006
220
0.8164965809277266
230
0.5773502691896251
1001
ACDBBLOCKREPETAG
1070
     1
1071
      616
1005
331EE
  0
LINE
  5
331EF
  8
GRID
 10
17.512962317654491
 20
17.457854075339331
 30
0.0000000000001856
 11
17.512962317654491
 21
17.417029246292952
 31
0.0000000000001856
210
0.0000000000000006
220
0.8164965809277266
230
0.5773502691896251
1001
ACDBBLOCKREPETAG
1070
     1
1071
      617
1005
331EF
  0
LINE
  5
331F0
  8
GRID
 10
17.512962317654491
 20
17.417029246292952
 30
0.0000000000001856
 11
16.84997899961397
 21
17.03425564915403
 31
0.0000000000001839
210
0.0000000000000006
220
0.8164965809277266
230
0.5773502691896251
1001
ACDBBLOCKREPETAG
1070
     1
1071
      618
1005
331F0
  0
LINE
  5
331F1
  8
GRID
 10
16.84997899961397
 20
17.03425564915403
 30
0.0000000000001839
 11
16.84997899961397
 21
17.075080478200402
 31
0.0000000000001847
210
0.0000000000000006
220
0.8164965809277266
230
0.5773502691896251
1001
ACDBBLOCKREPETAG
1070
     1
1071
      619
1005
331F1
  0
LINE
  5
331F2
  8
GRID
 10
16.84997899961397
 20
17.075080478200402
 30
0.0000000000001847
 11
17.165560756057541
 21
17.257281690234429
 31
0.0000000000001856
210
0.0000000000000006
220
0.8164965809277266
230
0.5773502691896251
1001
ACDBBLOCKREPETAG
1070
     1
1071
      620
1005
331F2
  0
LINE
  5
331F3
  8
GRID
 10
17.165560756057541
 20
17.257281690234429
 30
0.0000000000001856
 11
17.165560756057531
 21
18.287700375365208
 31
0.0000000000001821
210
0.0000000000000006
220
0.8164965809277266
230
0.5773502691896251
1001
ACDBBLOCKREPETAG
1070
     1
1071
      621
1005
331F3
  0
LINE
  5
331F4
  8
GRID
 10
17.165560756057531
 20
18.287700375365208
 30
0.0000000000001821
 11
17.13727648481008
 21
18.271370443746662
 31
0.0000000000001839
210
0.0000000000000006
220
0.8164965809277266
230
0.5773502691896251
1001
ACDBBLOCKREPETAG
1070
     1
1071
      622
1005
331F4
  0
LINE
  5
331F5
  8
GRID
 10
17.13727648481008
 20
18.271370443746662
 30
0.0000000000001839
 11
17.137276484810069
 21
18.424871800961078
 31
0.0000000000001839
210
0.0000000000000006
220
0.8164965809277266
230
0.5773502691896251
1001
ACDBBLOCKREPETAG
1070
     1
1071
      623
1005
331F5
  0
LINE
  5
331F6
  8
GRID
 10
17.137276484810069
 20
18.424871800961078
 30
0.0000000000001856
 11
17.225664832458381
 21
18.475902837269071
 31
0.0000000000001839
210
0.0000000000000006
220
0.8164965809277266
230
0.5773502691896251
1001
ACDBBLOCKREPETAG
1070
     1
1071
      624
1005
331F6
  0
LINE
  5
331F7
  8
GRID
 10
17.225664832458381
 20
18.475902837269071
 30
0.0000000000001839
 11
17.225664832458381
 21
18.322401480054651
 31
0.0000000000001821
210
0.0000000000000006
220
0.8164965809277266
230
0.5773502691896251
1001
ACDBBLOCKREPETAG
1070
     1
1071
      625
1005
331F7
  0
LINE
  5
331F8
  8
GRID
 10
11.777053530025441
 20
21.366096609608
 30
0.0000000000001767
 11
8.6519951105715123
 21
23.170349929313051
 31
0.0000000000001714
210
0.0000000000000006
220
0.8164965809277266
230
0.5773502691896251
1001
ACDBBLOCKREPETAG
1070
     1
1071
      626
1005
331F8
  0
LINE
  5
331F9
  8
GRID
 10
12.119293212119739
 20
20.401814147532349
 30
0.0000000000001803
 11
12.119293212119739
 21
20.62063523122098
 31
0.0000000000001767
210
0.0000000000000006
220
0.8164965809277266
230
0.5773502691896251
1001
ACDBBLOCKREPETAG
1070
     1
1071
      627
1005
331F9
  0
LINE
  5
331FA
  8
GRID
 10
11.53076823813818
 20
20.510530667282879
 30
0.0000000000001759
 11
8.6802793818189716
 21
22.156261175800811
 31
0.0000000000001714
210
0.0000000000000006
220
0.8164965809277266
230
0.5773502691896251
1001
ACDBBLOCKREPETAG
1070
     1
1071
      628
1005
331FA
  0
LINE
  5
331FB
  8
GRID
 10
11.777053530025441
 20
21.51959796682241
 30
0.0000000000001776
 11
8.6519951105715123
 21
23.323851286527461
 31
0.0000000000001705
210
0.0000000000000006
220
0.8164965809277266
230
0.5773502691896251
1001
ACDBBLOCKREPETAG
1070
     1
1071
      629
1005
331FB
  0
LINE
  5
331FC
  8
GRID
 10
11.839278926769859
 20
20.93253692513537
 30
0.0000000000001767
 11
11.805337801272911
 21
20.952132843077639
 31
0.0000000000001776
210
0.0000000000000006
220
0.8164965809277266
230
0.5773502691896251
1001
ACDBBLOCKREPETAG
1070
     1
1071
      630
1005
331FC
  0
LINE
  5
331FD
  8
GRID
 10
11.87109873192326
 20
20.950908098206249
 30
0.0000000000001759
 11
11.839278926769859
 21
20.93253692513537
 31
0.0000000000001767
210
0.0000000000000006
220
0.8164965809277266
230
0.5773502691896251
1001
ACDBBLOCKREPETAG
1070
     1
1071
      631
1005
331FD
  0
LINE
  5
331FE
  8
GRID
 10
11.839278926769859
 20
20.835373832004969
 30
0.0000000000001741
 11
11.839278926769859
 21
20.93253692513537
 31
0.0000000000001759
210
0.0000000000000006
220
0.8164965809277266
230
0.5773502691896251
1001
ACDBBLOCKREPETAG
1070
     1
1071
      632
1005
331FE
  0
LINE
  5
331FF
  8
GRID
 10
11.87109873192326
 20
20.85374500507584
 30
0.0000000000001767
 11
11.839278926769859
 21
20.835373832004969
 31
0.0000000000001741
210
0.0000000000000006
220
0.8164965809277266
230
0.5773502691896251
1001
ACDBBLOCKREPETAG
1070
     1
1071
      633
1005
331FF
  0
LINE
  5
33200
  8
GRID
 10
12.07333127134261
 20
20.700243647861441
 30
0.0000000000001759
 11
11.839278926769859
 21
20.835373832004969
 31
0.000000000000175
210
0.0000000000000006
220
0.8164965809277266
230
0.5773502691896251
1001
ACDBBLOCKREPETAG
1070
     1
1071
      634
1005
33200
  0
LINE
  5
33201
  8
GRID
 10
12.105151076496011
 20
20.718614820932309
 30
0.0000000000001776
 11
12.07333127134261
 21
20.700243647861441
 31
0.0000000000001759
210
0.0000000000000006
220
0.8164965809277266
230
0.5773502691896251
1001
ACDBBLOCKREPETAG
1070
     1
1071
      635
1005
33201
  0
LINE
  5
33202
  8
GRID
 10
12.15111301727312
 20
20.639006404291852
 30
0.0000000000001767
 11
12.119293212119731
 21
20.620635231220991
 31
0.0000000000001776
210
0.0000000000000006
220
0.8164965809277266
230
0.5773502691896251
1001
ACDBBLOCKREPETAG
1070
     1
1071
      636
1005
33202
  0
LINE
  5
33203
  8
GRID
 10
12.119293212119739
 20
20.62063523122098
 30
0.0000000000001776
 11
12.07333127134261
 21
20.700243647861441
 31
0.0000000000001759
210
0.0000000000000006
220
0.8164965809277266
230
0.5773502691896251
1001
ACDBBLOCKREPETAG
1070
     1
1071
      637
1005
33203
  0
LINE
  5
33204
  8
GRID
 10
11.71907077396815
 20
20.442638976578738
 30
0.0000000000001767
 11
11.78341749105612
 21
20.40548838214653
 31
0.0000000000001794
210
0.0000000000000006
220
0.8164965809277266
230
0.5773502691896251
1001
ACDBBLOCKREPETAG
1070
     1
1071
      638
1005
33204
  0
LINE
  5
33205
  8
GRID
 10
11.71907077396815
 20
20.41908975284867
 30
0.0000000000001759
 11
11.71907077396815
 21
20.442638976578738
 31
0.0000000000001767
210
0.0000000000000006
220
0.8164965809277266
230
0.5773502691896251
1001
ACDBBLOCKREPETAG
1070
     1
1071
      639
1005
33205
  0
LINE
  5
33206
  8
GRID
 10
11.815237296209521
 20
20.423859555217401
 30
0.0000000000001776
 11
11.78341749105612
 21
20.40548838214653
 31
0.0000000000001785
210
0.0000000000000006
220
0.8164965809277266
230
0.5773502691896251
1001
ACDBBLOCKREPETAG
1070
     1
1071
      640
1005
33206
  0
LINE
  5
33207
  8
GRID
 10
11.78341749105612
 20
20.40548838214653
 30
0.0000000000001785
 11
11.78341749105612
 21
20.542659807742389
 31
0.0000000000001785
210
0.0000000000000006
220
0.8164965809277266
230
0.5773502691896251
1001
ACDBBLOCKREPETAG
1070
     1
1071
      641
1005
33207
  0
LINE
  5
33208
  8
GRID
 10
11.78341749105612
 20
20.542659807742389
 30
0.0000000000001785
 11
12.07333127134261
 21
20.375278008652199
 31
0.0000000000001767
210
0.0000000000000006
220
0.8164965809277266
230
0.5773502691896251
1001
ACDBBLOCKREPETAG
1070
     1
1071
      642
1005
33208
  0
LINE
  5
33209
  8
GRID
 10
12.119293212119731
 20
20.401814147532349
 30
0.0000000000001776
 11
12.15111301727312
 21
20.420185320603231
 31
0.0000000000001785
210
0.0000000000000006
220
0.8164965809277266
230
0.5773502691896251
1001
ACDBBLOCKREPETAG
1070
     1
1071
      643
1005
33209
  0
LINE
  5
3320A
  8
GRID
 10
12.07333127134261
 20
20.375278008652199
 30
0.0000000000001759
 11
12.119293212119739
 21
20.401814147532349
 31
0.0000000000001803
210
0.0000000000000006
220
0.8164965809277266
230
0.5773502691896251
1001
ACDBBLOCKREPETAG
1070
     1
1071
      644
1005
3320A
  0
LINE
  5
3320B
  8
GRID
 10
11.805337801272911
 20
21.38242654122655
 30
0.0000000000001767
 11
11.777053530025441
 21
21.366096609608
 31
0.0000000000001767
210
0.0000000000000006
220
0.8164965809277266
230
0.5773502691896251
1001
ACDBBLOCKREPETAG
1070
     1
1071
      645
1005
3320B
  0
LINE
  5
3320C
  8
GRID
 10
11.777053530025441
 20
21.366096609608
 30
0.0000000000001759
 11
11.777053530025441
 21
21.51959796682241
 31
0.0000000000001776
210
0.0000000000000006
220
0.8164965809277266
230
0.5773502691896251
1001
ACDBBLOCKREPETAG
1070
     1
1071
      646
1005
3320C
  0
LINE
  5
3320D
  8
GRID
 10
11.777053530025441
 20
21.51959796682241
 30
0.0000000000001776
 11
11.865441877673771
 21
21.570629003130389
 31
0.0000000000001767
210
0.0000000000000006
220
0.8164965809277266
230
0.5773502691896251
1001
ACDBBLOCKREPETAG
1070
     1
1071
      647
1005
3320D
  0
LINE
  5
3320E
  8
GRID
 10
11.83715760642631
 20
20.97050401614851
 30
0.0000000000001776
 11
11.805337801272911
 21
20.952132843077639
 31
0.0000000000001759
210
0.0000000000000006
220
0.8164965809277266
230
0.5773502691896251
1001
ACDBBLOCKREPETAG
1070
     1
1071
      648
1005
3320E
  0
LINE
  5
3320F
  8
GRID
 10
11.805337801272911
 20
20.952132843077639
 30
0.0000000000001759
 11
11.805337801272911
 21
21.38242654122655
 31
0.0000000000001759
210
0.0000000000000006
220
0.8164965809277266
230
0.5773502691896251
1001
ACDBBLOCKREPETAG
1070
     1
1071
      649
1005
3320F
  0
LINE
  5
33210
  8
GRID
 10
12.016055622066499
 20
20.611653768830781
 30
0.0000000000001785
 11
11.883826653984629
 21
20.68799619914752
 31
0.0000000000001759
210
0.0000000000000006
220
0.8164965809277266
230
0.5773502691896251
1001
ACDBBLOCKREPETAG
1070
     1
1071
      650
1005
33210
  0
LINE
  5
33211
  8
GRID
 10
12.016055622066499
 20
20.663093053429218
 30
0.0000000000001785
 11
12.016055622066499
 21
20.611653768830781
 31
0.0000000000001767
210
0.0000000000000006
220
0.8164965809277266
230
0.5773502691896251
1001
ACDBBLOCKREPETAG
1070
     1
1071
      651
1005
33211
  0
LINE
  5
33212
  8
GRID
 10
11.83927892676987
 20
20.76515512604519
 30
0.0000000000001794
 11
12.016055622066499
 21
20.663093053429218
 31
0.0000000000001759
210
0.0000000000000006
220
0.8164965809277266
230
0.5773502691896251
1001
ACDBBLOCKREPETAG
1070
     1
1071
      652
1005
33212
  0
LINE
  5
33213
  8
GRID
 10
11.915646459138021
 20
20.706367372218391
 30
0.0000000000001767
 11
11.88382665398462
 21
20.68799619914752
 31
0.000000000000175
210
0.0000000000000006
220
0.8164965809277266
230
0.5773502691896251
1001
ACDBBLOCKREPETAG
1070
     1
1071
      653
1005
33213
  0
LINE
  5
33214
  8
GRID
 10
11.88382665398462
 20
20.68799619914752
 30
0.0000000000001759
 11
11.88382665398462
 21
20.606346541054741
 31
0.0000000000001767
210
0.0000000000000006
220
0.8164965809277266
230
0.5773502691896251
1001
ACDBBLOCKREPETAG
1070
     1
1071
      654
1005
33214
  0
LINE
  5
33215
  8
GRID
 10
11.88382665398462
 20
20.606346541054751
 30
0.0000000000001776
 11
12.01605562206649
 21
20.530004110738009
 31
0.0000000000001767
210
0.0000000000000006
220
0.8164965809277266
230
0.5773502691896251
1001
ACDBBLOCKREPETAG
1070
     1
1071
      655
1005
33215
  0
LINE
  5
33216
  8
GRID
 10
12.01605562206649
 20
20.530004110738009
 30
0.000000000000175
 11
12.016055622066499
 21
20.478564826139561
 31
0.0000000000001785
210
0.0000000000000006
220
0.8164965809277266
230
0.5773502691896251
1001
ACDBBLOCKREPETAG
1070
     1
1071
      656
1005
33216
  0
LINE
  5
33217
  8
GRID
 10
12.016055622066499
 20
20.478564826139561
 30
0.0000000000001776
 11
11.83927892676987
 21
20.580626898755519
 31
0.0000000000001759
210
0.0000000000000006
220
0.8164965809277266
230
0.5773502691896251
1001
ACDBBLOCKREPETAG
1070
     1
1071
      657
1005
33217
  0
LINE
  5
33218
  8
GRID
 10
11.87109873192326
 20
20.59899807182639
 30
0.0000000000001776
 11
11.83927892676987
 21
20.580626898755519
 31
0.0000000000001759
210
0.0000000000000006
220
0.8164965809277266
230
0.5773502691896251
1001
ACDBBLOCKREPETAG
1070
     1
1071
      658
1005
33218
  0
LINE
  5
33219
  8
GRID
 10
11.83927892676987
 20
20.580626898755519
 30
0.0000000000001767
 11
11.839278926769859
 21
20.76515512604519
 31
0.0000000000001741
210
0.0000000000000006
220
0.8164965809277266
230
0.5773502691896251
1001
ACDBBLOCKREPETAG
1070
     1
1071
      659
1005
33219
  0
LINE
  5
3321A
  8
GRID
 10
11.53076823813818
 20
20.5278062725992
 30
0.0000000000001759
 11
11.71907077396815
 21
20.41908975284867
 31
0.0000000000001767
210
0.0000000000000006
220
0.8164965809277266
230
0.5773502691896251
1001
ACDBBLOCKREPETAG
1070
     1
1071
      660
1005
3321A
  0
LINE
  5
3321B
  8
GRID
 10
11.71907077396815
 20
20.41908975284867
 30
0.0000000000001759
 11
11.73946499995778
 21
20.43086436471371
 31
0.0000000000001767
210
0.0000000000000006
220
0.8164965809277266
230
0.5773502691896251
1001
ACDBBLOCKREPETAG
1070
     1
1071
      661
1005
3321B
  0
LINE
  5
3321C
  8
GRID
 10
11.215186481694611
 20
20.328329455248848
 30
0.0000000000001767
 11
8.3646976253754133
 21
21.974059963766798
 31
0.0000000000001723
210
0.0000000000000006
220
0.8164965809277266
230
0.5773502691896251
1001
ACDBBLOCKREPETAG
1070
     1
1071
      662
1005
3321C
  0
LINE
  5
3321D
  8
GRID
 10
11.215186481694611
 20
20.28750462620247
 30
0.0000000000001759
 11
11.215186481694611
 21
20.328329455248848
 31
0.0000000000001767
210
0.0000000000000006
220
0.8164965809277266
230
0.5773502691896251
1001
ACDBBLOCKREPETAG
1070
     1
1071
      663
1005
3321D
  0
LINE
  5
3321E
  8
GRID
 10
11.215186481694611
 20
20.328329455248848
 30
0.0000000000001759
 11
11.53076823813818
 21
20.510530667282879
 31
0.0000000000001759
210
0.0000000000000006
220
0.8164965809277266
230
0.5773502691896251
1001
ACDBBLOCKREPETAG
1070
     1
1071
      664
1005
3321E
  0
LINE
  5
3321F
  8
GRID
 10
11.53076823813818
 20
20.510530667282879
 30
0.0000000000001759
 11
11.53076823813818
 21
20.5278062725992
 31
0.0000000000001759
210
0.0000000000000006
220
0.8164965809277266
230
0.5773502691896251
1001
ACDBBLOCKREPETAG
1070
     1
1071
      665
1005
3321F
  0
LINE
  5
33220
  8
GRID
 10
11.865441877673771
 20
21.570629003130389
 30
0.0000000000001759
 11
11.865441877673771
 21
21.417127645915979
 31
0.0000000000001759
210
0.0000000000000006
220
0.8164965809277266
230
0.5773502691896251
1001
ACDBBLOCKREPETAG
1070
     1
1071
      666
1005
33220
  0
LINE
  5
33221
  8
GRID
 10
8.7403834582198296
 20
23.37488232283544
 30
0.0000000000001714
 11
11.865441877673771
 21
21.570629003130389
 31
0.0000000000001767
210
0.0000000000000006
220
0.8164965809277266
230
0.5773502691896251
1001
ACDBBLOCKREPETAG
1070
     1
1071
      667
1005
33221
  0
LINE
  5
33222
  8
GRID
 10
11.865441877673771
 20
21.417127645915979
 30
0.0000000000001767
 11
11.83715760642631
 21
21.400797714297429
 31
0.0000000000001776
210
0.0000000000000006
220
0.8164965809277266
230
0.5773502691896251
1001
ACDBBLOCKREPETAG
1070
     1
1071
      668
1005
33222
  0
LINE
  5
33223
  8
GRID
 10
11.815237296209521
 20
20.52428863467151
 30
0.0000000000001767
 11
11.815237296209521
 21
20.423859555217401
 31
0.0000000000001776
210
0.0000000000000006
220
0.8164965809277266
230
0.5773502691896251
1001
ACDBBLOCKREPETAG
1070
     1
1071
      669
1005
33223
  0
LINE
  5
33224
  8
GRID
 10
12.15111301727312
 20
20.639006404291852
 30
0.0000000000001776
 11
12.15111301727312
 21
20.420185320603231
 31
0.0000000000001767
210
0.0000000000000006
220
0.8164965809277266
230
0.5773502691896251
1001
ACDBBLOCKREPETAG
1070
     1
1071
      670
1005
33224
  0
LINE
  5
33225
  8
GRID
 10
12.105151076496011
 20
20.718614820932309
 30
0.0000000000001767
 11
12.15111301727312
 21
20.639006404291852
 31
0.0000000000001776
210
0.0000000000000006
220
0.8164965809277266
230
0.5773502691896251
1001
ACDBBLOCKREPETAG
1070
     1
1071
      671
1005
33225
  0
LINE
  5
33226
  8
GRID
 10
11.87109873192326
 20
20.85374500507584
 30
0.0000000000001767
 11
12.105151076496011
 21
20.718614820932309
 31
0.0000000000001785
210
0.0000000000000006
220
0.8164965809277266
230
0.5773502691896251
1001
ACDBBLOCKREPETAG
1070
     1
1071
      672
1005
33226
  0
LINE
  5
33227
  8
GRID
 10
11.87109873192326
 20
20.950908098206241
 30
0.0000000000001767
 11
11.87109873192326
 21
20.85374500507584
 31
0.0000000000001767
210
0.0000000000000006
220
0.8164965809277266
230
0.5773502691896251
1001
ACDBBLOCKREPETAG
1070
     1
1071
      673
1005
33227
  0
LINE
  5
33228
  8
GRID
 10
11.83715760642631
 20
20.97050401614851
 30
0.0000000000001776
 11
11.87109873192326
 21
20.950908098206241
 31
0.0000000000001767
210
0.0000000000000006
220
0.8164965809277266
230
0.5773502691896251
1001
ACDBBLOCKREPETAG
1070
     1
1071
      674
1005
33228
  0
LINE
  5
33229
  8
GRID
 10
11.83715760642631
 20
21.400797714297429
 30
0.0000000000001759
 11
11.83715760642631
 21
20.97050401614851
 31
0.0000000000001785
210
0.0000000000000006
220
0.8164965809277266
230
0.5773502691896251
1001
ACDBBLOCKREPETAG
1070
     1
1071
      675
1005
33229
  0
LINE
  5
3322A
  8
GRID
 10
11.87109873192326
 20
20.59899807182639
 30
0.0000000000001776
 11
12.01605562206649
 21
20.515307172281322
 31
0.0000000000001767
210
0.0000000000000006
220
0.8164965809277266
230
0.5773502691896251
1001
ACDBBLOCKREPETAG
1070
     1
1071
      676
1005
3322A
  0
LINE
  5
3322B
  8
GRID
 10
11.87109873192326
 20
20.746783952974319
 30
0.0000000000001759
 11
11.87109873192326
 21
20.59899807182639
 31
0.0000000000001776
210
0.0000000000000006
220
0.8164965809277266
230
0.5773502691896251
1001
ACDBBLOCKREPETAG
1070
     1
1071
      677
1005
3322B
  0
LINE
  5
3322C
  8
GRID
 10
11.915646459138021
 20
20.706367372218391
 30
0.0000000000001767
 11
12.016055622066499
 21
20.64839611497252
 31
0.0000000000001794
210
0.0000000000000006
220
0.8164965809277266
230
0.5773502691896251
1001
ACDBBLOCKREPETAG
1070
     1
1071
      678
1005
3322C
  0
LINE
  5
3322D
  8
GRID
 10
11.87109873192326
 20
20.707020569483149
 30
0.0000000000001767
 11
11.878169799735121
 21
20.711103052387781
 31
0.0000000000001767
210
0.0000000000000006
220
0.8164965809277266
230
0.5773502691896251
1001
ACDBBLOCKREPETAG
1070
     1
1071
      679
1005
3322D
  0
LINE
  5
3322E
  8
GRID
 10
11.878169799735121
 20
20.711103052387781
 30
0.0000000000001767
 11
11.878169799735121
 21
20.670278223341391
 31
0.000000000000175
210
0.0000000000000006
220
0.8164965809277266
230
0.5773502691896251
1001
ACDBBLOCKREPETAG
1070
     1
1071
      680
1005
3322E
  0
LINE
  5
3322F
  8
GRID
 10
11.878169799735121
 20
20.711103052387781
 30
0.0000000000001767
 11
11.87109873192326
 21
20.715185535292431
 31
0.0000000000001785
210
0.0000000000000006
220
0.8164965809277266
230
0.5773502691896251
1001
ACDBBLOCKREPETAG
1070
     1
1071
      681
1005
3322F
  0
LINE
  5
33230
  8
GRID
 10
11.215186481694611
 20
20.28750462620247
 30
0.0000000000001767
 11
8.3646976253754133
 21
21.933235134720402
 31
0.0000000000001732
210
0.0000000000000006
220
0.8164965809277266
230
0.5773502691896251
1001
ACDBBLOCKREPETAG
1070
     1
1071
      682
1005
33230
  0
LINE
  5
33231
  8
GRID
 10
11.878169799735121
 20
20.670278223341391
 30
0.0000000000001767
 11
11.87109873192326
 21
20.666195740436748
 31
0.0000000000001759
210
0.0000000000000006
220
0.8164965809277266
230
0.5773502691896251
1001
ACDBBLOCKREPETAG
1070
     1
1071
      683
1005
33231
  0
LINE
  5
33232
  8
GRID
 10
11.581084690267179
 20
20.49875605541785
 30
0.0000000000001767
 11
11.215186481694611
 21
20.28750462620247
 31
0.0000000000001767
210
0.0000000000000006
220
0.8164965809277266
230
0.5773502691896251
1001
ACDBBLOCKREPETAG
1070
     1
1071
      684
1005
33232
  0
LINE
  5
33233
  8
GRID
 10
8.7403834582198243
 20
23.37488232283544
 30
0.0000000000001723
 11
8.6519951105715052
 21
23.323851286527461
 31
0.0000000000001723
210
0.0000000000000006
220
0.8164965809277266
230
0.5773502691896251
1001
ACDBBLOCKREPETAG
1070
     1
1071
      685
1005
33233
  0
LINE
  5
33234
  8
GRID
 10
8.6519951105715052
 20
23.323851286527461
 30
0.0000000000001714
 11
8.6519951105715123
 21
23.170349929313051
 31
0.0000000000001705
210
0.0000000000000006
220
0.8164965809277266
230
0.5773502691896251
1001
ACDBBLOCKREPETAG
1070
     1
1071
      686
1005
33234
  0
LINE
  5
33235
  8
GRID
 10
8.6802793818189592
 20
23.154019997694501
 30
0.0000000000001714
 11
8.6802793818189716
 21
22.156261175800811
 31
0.0000000000001714
210
0.0000000000000006
220
0.8164965809277266
230
0.5773502691896251
1001
ACDBBLOCKREPETAG
1070
     1
1071
      687
1005
33235
  0
LINE
  5
33236
  8
GRID
 10
8.6802793818189716
 20
22.156261175800811
 30
0.0000000000001714
 11
8.3646976253754062
 21
21.974059963766798
 31
0.0000000000001732
210
0.0000000000000006
220
0.8164965809277266
230
0.5773502691896251
1001
ACDBBLOCKREPETAG
1070
     1
1071
      688
1005
33236
  0
LINE
  5
33237
  8
GRID
 10
8.3646976253754062
 20
21.974059963766798
 30
0.0000000000001732
 11
8.3646976253754062
 21
21.933235134720402
 31
0.0000000000001732
210
0.0000000000000006
220
0.8164965809277266
230
0.5773502691896251
1001
ACDBBLOCKREPETAG
1070
     1
1071
      689
1005
33237
  0
LINE
  5
33238
  8
DETAIL
 10
9.0338327724122394
 20
17.803313778730871
 30
0.0000000000001785
 11
7.2758426041977202
 21
16.788337681879511
 31
0.0000000000001794
210
0.0000000000000006
220
0.8164965809277266
230
0.5773502691896251
1001
ACDBBLOCKREPETAG
1070
     1
1071
      690
1005
33238
  0
LINE
  5
33239
  8
DETAIL
 10
9.3761608428541265
 20
17.771317318965931
 30
0.0000000000001785
 11
9.3761608428538086
 21
17.414100064810611
 31
0.0000000000001812
210
0.0000000000000006
220
0.8164965809277266
230
0.5773502691896251
1001
ACDBBLOCKREPETAG
1070
     1
1071
      691
1005
33239
  0
LINE
  5
3323A
  8
DETAIL
 10
9.4207085700689515
 20
17.745597676666659
 30
0.0000000000001794
 11
9.4207085700686317
 21
17.388380422511339
 31
0.0000000000001794
210
0.0000000000000006
220
0.8164965809277266
230
0.5773502691896251
1001
ACDBBLOCKREPETAG
1070
     1
1071
      692
1005
3323A
  0
LINE
  5
3323B
  8
DETAIL
 10
9.4207085700685624
 20
17.388380422511009
 30
0.0000000000001759
 11
9.3761608428538086
 21
17.414100064810238
 31
0.0000000000001785
210
0.0000000000000006
220
0.8164965809277266
230
0.5773502691896251
1001
ACDBBLOCKREPETAG
1070
     1
1071
      693
1005
3323B
  0
LINE
  5
3323C
  8
DETAIL
 10
9.6321334976439577
 20
17.510446661359879
 30
0.0000000000001776
 11
9.4207085700686317
 21
17.38838042251097
 31
0.0000000000001776
210
0.0000000000000006
220
0.8164965809277266
230
0.5773502691896251
1001
ACDBBLOCKREPETAG
1070
     1
1071
      694
1005
3323C
  0
POLYLINE
  5
3323D
  8
DETAIL
 66
     1
 10
0.0
 20
0.0
 30
0.0
 70
     8
  0
VERTEX
  5
6C331
  8
DETAIL
 10
9.6321300000000001
 20
17.510400000000001
 30
0.0000000000001777
 70
    32
  0
VERTEX
  5
6C332
  8
DETAIL
 10
9.63246
 20
17.5106
 30
0.0000000000001777
 70
    32
  0
VERTEX
  5
6C333
  8
DETAIL
 10
9.6327899999999982
 20
17.5108
 30
0.0000000000001777
 70
    32
  0
VERTEX
  5
6C334
  8
DETAIL
 10
9.6331199999999981
 20
17.510999999999999
 30
0.0000000000001777
 70
    32
  0
VERTEX
  5
6C335
  8
DETAIL
 10
9.6334400000000002
 20
17.511199999999999
 30
0.0000000000001777
 70
    32
  0
VERTEX
  5
6C336
  8
DETAIL
 10
9.6337700000000002
 20
17.511399999999998
 30
0.0000000000001777
 70
    32
  0
VERTEX
  5
6C337
  8
DETAIL
 10
9.6340899999999987
 20
17.511600000000001
 30
0.0000000000001777
 70
    32
  0
VERTEX
  5
6C338
  8
DETAIL
 10
9.6344100000000008
 20
17.511800000000001
 30
0.0000000000001777
 70
    32
  0
VERTEX
  5
6C339
  8
DETAIL
 10
9.6347199999999997
 20
17.512
 30
0.0000000000001777
 70
    32
  0
VERTEX
  5
6C33A
  8
DETAIL
 10
9.63504
 20
17.5122
 30
0.0000000000001777
 70
    32
  0
VERTEX
  5
6C33B
  8
DETAIL
 10
9.6353500000000007
 20
17.5124
 30
0.0000000000001777
 70
    32
  0
VERTEX
  5
6C33C
  8
DETAIL
 10
9.6356600000000014
 20
17.512599999999999
 30
0.0000000000001777
 70
    32
  0
VERTEX
  5
6C33D
  8
DETAIL
 10
9.6359700000000004
 20
17.512799999999999
 30
0.0000000000001777
 70
    32
  0
VERTEX
  5
6C33E
  8
DETAIL
 10
9.6362699999999997
 20
17.513000000000002
 30
0.0000000000001777
 70
    32
  0
VERTEX
  5
6C33F
  8
DETAIL
 10
9.6365800000000004
 20
17.513200000000001
 30
0.0000000000001777
 70
    32
  0
VERTEX
  5
6C340
  8
DETAIL
 10
9.6368799999999997
 20
17.513400000000001
 30
0.0000000000001777
 70
    32
  0
VERTEX
  5
6C341
  8
DETAIL
 10
9.6371800000000007
 20
17.5137
 30
0.0000000000001777
 70
    32
  0
VERTEX
  5
6C342
  8
DETAIL
 10
9.6374700000000004
 20
17.5139
 30
0.0000000000001777
 70
    32
  0
VERTEX
  5
6C343
  8
DETAIL
 10
9.6377699999999997
 20
17.514099999999999
 30
0.0000000000001777
 70
    32
  0
VERTEX
  5
6C344
  8
DETAIL
 10
9.6380600000000012
 20
17.514299999999999
 30
0.0000000000001777
 70
    32
  0
VERTEX
  5
6C345
  8
DETAIL
 10
9.6383500000000009
 20
17.514500000000002
 30
0.0000000000001777
 70
    32
  0
VERTEX
  5
6C346
  8
DETAIL
 10
9.6386399999999988
 20
17.514700000000001
 30
0.0000000000001777
 70
    32
  0
VERTEX
  5
6C347
  8
DETAIL
 10
9.6389199999999988
 20
17.514900000000001
 30
0.0000000000001777
 70
    32
  0
VERTEX
  5
6C348
  8
DETAIL
 10
9.6392000000000007
 20
17.5152
 30
0.0000000000001777
 70
    32
  0
VERTEX
  5
6C349
  8
DETAIL
 10
9.6394899999999986
 20
17.5154
 30
0.0000000000001777
 70
    32
  0
VERTEX
  5
6C34A
  8
DETAIL
 10
9.6397600000000008
 20
17.515599999999999
 30
0.0000000000001777
 70
    32
  0
VERTEX
  5
6C34B
  8
DETAIL
 10
9.6400399999999991
 20
17.515799999999999
 30
0.0000000000001777
 70
    32
  0
VERTEX
  5
6C34C
  8
DETAIL
 10
9.6403100000000013
 20
17.515999999999998
 30
0.0000000000001777
 70
    32
  0
VERTEX
  5
6C34D
  8
DETAIL
 10
9.6405899999999995
 20
17.516200000000001
 30
0.0000000000001777
 70
    32
  0
VERTEX
  5
6C34E
  8
DETAIL
 10
9.6408500000000004
 20
17.516500000000001
 30
0.0000000000001777
 70
    32
  0
VERTEX
  5
6C34F
  8
DETAIL
 10
9.641119999999999
 20
17.5167
 30
0.0000000000001777
 70
    32
  0
VERTEX
  5
6C350
  8
DETAIL
 10
9.6413899999999995
 20
17.5169
 30
0.0000000000001777
 70
    32
  0
VERTEX
  5
6C351
  8
DETAIL
 10
9.6416500000000003
 20
17.517099999999999
 30
0.0000000000001777
 70
    32
  0
VERTEX
  5
6C352
  8
DETAIL
 10
9.6419100000000011
 20
17.517399999999999
 30
0.0000000000001777
 70
    32
  0
VERTEX
  5
6C353
  8
DETAIL
 10
9.6421600000000005
 20
17.517600000000002
 30
0.0000000000001777
 70
    32
  0
VERTEX
  5
6C354
  8
DETAIL
 10
9.6424199999999995
 20
17.517800000000001
 30
0.0000000000001777
 70
    32
  0
VERTEX
  5
6C355
  8
DETAIL
 10
9.6426699999999972
 20
17.518000000000001
 30
0.0000000000001777
 70
    32
  0
VERTEX
  5
6C356
  8
DETAIL
 10
9.6429200000000002
 20
17.5183
 30
0.0000000000001777
 70
    32
  0
VERTEX
  5
6C357
  8
DETAIL
 10
9.6431699999999996
 20
17.5185
 30
0.0000000000001777
 70
    32
  0
VERTEX
  5
6C358
  8
DETAIL
 10
9.6434100000000011
 20
17.518699999999999
 30
0.0000000000001777
 70
    32
  0
VERTEX
  5
6C359
  8
DETAIL
 10
9.6436600000000006
 20
17.518999999999998
 30
0.0000000000001777
 70
    32
  0
VERTEX
  5
6C35A
  8
DETAIL
 10
9.6439000000000004
 20
17.519200000000001
 30
0.0000000000001777
 70
    32
  0
VERTEX
  5
6C35B
  8
DETAIL
 10
9.6441300000000005
 20
17.519400000000001
 30
0.0000000000001777
 70
    32
  0
VERTEX
  5
6C35C
  8
DETAIL
 10
9.6443700000000003
 20
17.5197
 30
0.0000000000001777
 70
    32
  0
VERTEX
  5
6C35D
  8
DETAIL
 10
9.6446000000000005
 20
17.5199
 30
0.0000000000001777
 70
    32
  0
VERTEX
  5
6C35E
  8
DETAIL
 10
9.6448300000000007
 20
17.520099999999999
 30
0.0000000000001777
 70
    32
  0
VERTEX
  5
6C35F
  8
DETAIL
 10
9.6450600000000009
 20
17.520399999999999
 30
0.0000000000001777
 70
    32
  0
VERTEX
  5
6C360
  8
DETAIL
 10
9.6452799999999996
 20
17.520600000000002
 30
0.0000000000001777
 70
    32
  0
VERTEX
  5
6C361
  8
DETAIL
 10
9.6455099999999998
 20
17.520900000000001
 30
0.0000000000001777
 70
    32
  0
VERTEX
  5
6C362
  8
DETAIL
 10
9.6457300000000004
 20
17.521100000000001
 30
0.0000000000001777
 70
    32
  0
VERTEX
  5
6C363
  8
DETAIL
 10
9.6459399999999995
 20
17.5213
 30
0.0000000000001777
 70
    32
  0
VERTEX
  5
6C364
  8
DETAIL
 10
9.6461600000000001
 20
17.521599999999999
 30
0.0000000000001777
 70
    32
  0
VERTEX
  5
6C365
  8
DETAIL
 10
9.6463699999999992
 20
17.521799999999999
 30
0.0000000000001777
 70
    32
  0
VERTEX
  5
6C366
  8
DETAIL
 10
9.6465800000000002
 20
17.522099999999998
 30
0.0000000000001777
 70
    32
  0
VERTEX
  5
6C367
  8
DETAIL
 10
9.6467899999999993
 20
17.522300000000001
 30
0.0000000000001777
 70
    32
  0
VERTEX
  5
6C368
  8
DETAIL
 10
9.6469899999999988
 20
17.522500000000001
 30
0.0000000000001777
 70
    32
  0
VERTEX
  5
6C369
  8
DETAIL
 10
9.6471999999999998
 20
17.5228
 30
0.0000000000001777
 70
    32
  0
VERTEX
  5
6C36A
  8
DETAIL
 10
9.6473899999999997
 20
17.523
 30
0.0000000000001777
 70
    32
  0
VERTEX
  5
6C36B
  8
DETAIL
 10
9.6475899999999992
 20
17.523299999999999
 30
0.0000000000001777
 70
    32
  0
VERTEX
  5
6C36C
  8
DETAIL
 10
9.6477899999999988
 20
17.523499999999999
 30
0.0000000000001777
 70
    32
  0
VERTEX
  5
6C36D
  8
DETAIL
 10
9.6479800000000004
 20
17.523800000000001
 30
0.0000000000001777
 70
    32
  0
VERTEX
  5
6C36E
  8
DETAIL
 10
9.6481700000000004
 20
17.524000000000001
 30
0.0000000000001777
 70
    32
  0
VERTEX
  5
6C36F
  8
DETAIL
 10
9.6483500000000006
 20
17.5243
 30
0.0000000000001777
 70
    32
  0
VERTEX
  5
6C370
  8
DETAIL
 10
9.6485399999999988
 20
17.5245
 30
0.0000000000001777
 70
    32
  0
VERTEX
  5
6C371
  8
DETAIL
 10
9.6487199999999991
 20
17.524799999999999
 30
0.0000000000001777
 70
    32
  0
VERTEX
  5
6C372
  8
DETAIL
 10
9.6488899999999997
 20
17.524999999999999
 30
0.0000000000001777
 70
    32
  0
VERTEX
  5
6C373
  8
DETAIL
 10
9.64907
 20
17.525300000000001
 30
0.0000000000001777
 70
    32
  0
VERTEX
  5
6C374
  8
DETAIL
 10
9.6492399999999972
 20
17.525500000000001
 30
0.0000000000001777
 70
    32
  0
VERTEX
  5
6C375
  8
DETAIL
 10
9.6494100000000014
 20
17.5258
 30
0.0000000000001777
 70
    32
  0
VERTEX
  5
6C376
  8
DETAIL
 10
9.6495800000000003
 20
17.526
 30
0.0000000000001777
 70
    32
  0
VERTEX
  5
6C377
  8
DETAIL
 10
9.6497499999999992
 20
17.526299999999999
 30
0.0000000000001777
 70
    32
  0
VERTEX
  5
6C378
  8
DETAIL
 10
9.6499100000000002
 20
17.526499999999999
 30
0.0000000000001777
 70
    32
  0
VERTEX
  5
6C379
  8
DETAIL
 10
9.6500699999999995
 20
17.526800000000001
 30
0.0000000000001777
 70
    32
  0
VERTEX
  5
6C37A
  8
DETAIL
 10
9.6502199999999991
 20
17.527100000000001
 30
0.0000000000001777
 70
    32
  0
VERTEX
  5
6C37B
  8
DETAIL
 10
9.6503800000000002
 20
17.5273
 30
0.0000000000001777
 70
    32
  0
VERTEX
  5
6C37C
  8
DETAIL
 10
9.6505299999999998
 20
17.5276
 30
0.0000000000001777
 70
    32
  0
VERTEX
  5
6C37D
  8
DETAIL
 10
9.6506799999999995
 20
17.527799999999999
 30
0.0000000000001777
 70
    32
  0
VERTEX
  5
6C37E
  8
DETAIL
 10
9.6508199999999995
 20
17.528099999999998
 30
0.0000000000001777
 70
    32
  0
VERTEX
  5
6C37F
  8
DETAIL
 10
9.6509699999999992
 20
17.528300000000002
 30
0.0000000000001777
 70
    32
  0
VERTEX
  5
6C380
  8
DETAIL
 10
9.6511099999999992
 20
17.528600000000001
 30
0.0000000000001777
 70
    32
  0
VERTEX
  5
6C381
  8
DETAIL
 10
9.6512499999999992
 20
17.5289
 30
0.0000000000001777
 70
    32
  0
VERTEX
  5
6C382
  8
DETAIL
 10
9.6513799999999996
 20
17.5291
 30
0.0000000000001777
 70
    32
  0
VERTEX
  5
6C383
  8
DETAIL
 10
9.65151
 20
17.529399999999999
 30
0.0000000000001777
 70
    32
  0
VERTEX
  5
6C384
  8
DETAIL
 10
9.6516399999999987
 20
17.529599999999999
 30
0.0000000000001777
 70
    32
  0
VERTEX
  5
6C385
  8
DETAIL
 10
9.6517699999999991
 20
17.529900000000001
 30
0.0000000000001777
 70
    32
  0
VERTEX
  5
6C386
  8
DETAIL
 10
9.6518899999999999
 20
17.530200000000001
 30
0.0000000000001777
 70
    32
  0
VERTEX
  5
6C387
  8
DETAIL
 10
9.6520100000000006
 20
17.5304
 30
0.0000000000001777
 70
    32
  0
VERTEX
  5
6C388
  8
DETAIL
 10
9.6521299999999997
 20
17.5307
 30
0.0000000000001777
 70
    32
  0
VERTEX
  5
6C389
  8
DETAIL
 10
9.6522500000000004
 20
17.530899999999999
 30
0.0000000000001777
 70
    32
  0
VERTEX
  5
6C38A
  8
DETAIL
 10
9.6523599999999998
 20
17.531199999999998
 30
0.0000000000001777
 70
    32
  0
VERTEX
  5
6C38B
  8
DETAIL
 10
9.6524699999999992
 20
17.531500000000001
 30
0.0000000000001777
 70
    32
  0
VERTEX
  5
6C38C
  8
DETAIL
 10
9.6525800000000004
 20
17.531700000000001
 30
0.0000000000001777
 70
    32
  0
VERTEX
  5
6C38D
  8
DETAIL
 10
9.6526800000000001
 20
17.532
 30
0.0000000000001777
 70
    32
  0
VERTEX
  5
6C38E
  8
DETAIL
 10
9.6527799999999981
 20
17.532299999999999
 30
0.0000000000001777
 70
    32
  0
VERTEX
  5
6C38F
  8
DETAIL
 10
9.6528799999999997
 20
17.532499999999999
 30
0.0000000000001777
 70
    32
  0
VERTEX
  5
6C390
  8
DETAIL
 10
9.6529799999999994
 20
17.532800000000002
 30
0.0000000000001777
 70
    32
  0
VERTEX
  5
6C391
  8
DETAIL
 10
9.6530699999999996
 20
17.533100000000001
 30
0.0000000000001777
 70
    32
  0
VERTEX
  5
6C392
  8
DETAIL
 10
9.6531599999999997
 20
17.533300000000001
 30
0.0000000000001777
 70
    32
  0
VERTEX
  5
6C393
  8
DETAIL
 10
9.6532499999999999
 20
17.5336
 30
0.0000000000001777
 70
    32
  0
VERTEX
  5
6C394
  8
DETAIL
 10
9.6533300000000004
 20
17.533899999999999
 30
0.0000000000001777
 70
    32
  0
VERTEX
  5
6C395
  8
DETAIL
 10
9.6534099999999992
 20
17.534099999999999
 30
0.0000000000001777
 70
    32
  0
VERTEX
  5
6C396
  8
DETAIL
 10
9.6534899999999997
 20
17.534400000000002
 30
0.0000000000001777
 70
    32
  0
VERTEX
  5
6C397
  8
DETAIL
 10
9.6535700000000002
 20
17.534700000000001
 30
0.0000000000001777
 70
    32
  0
VERTEX
  5
6C398
  8
DETAIL
 10
9.6536399999999993
 20
17.5349
 30
0.0000000000001777
 70
    32
  0
VERTEX
  5
6C399
  8
DETAIL
 10
9.6537100000000002
 20
17.5352
 30
0.0000000000001777
 70
    32
  0
VERTEX
  5
6C39A
  8
DETAIL
 10
9.6537800000000011
 20
17.535499999999999
 30
0.0000000000001777
 70
    32
  0
VERTEX
  5
6C39B
  8
DETAIL
 10
9.6538399999999989
 20
17.535699999999999
 30
0.0000000000001777
 70
    32
  0
VERTEX
  5
6C39C
  8
DETAIL
 10
9.6539099999999998
 20
17.536000000000001
 30
0.0000000000001777
 70
    32
  0
VERTEX
  5
6C39D
  8
DETAIL
 10
9.6539600000000014
 20
17.536300000000001
 30
0.0000000000001777
 70
    32
  0
VERTEX
  5
6C39E
  8
DETAIL
 10
9.6540199999999992
 20
17.5365
 30
0.0000000000001777
 70
    32
  0
VERTEX
  5
6C39F
  8
DETAIL
 10
9.654069999999999
 20
17.536799999999999
 30
0.0000000000001777
 70
    32
  0
VERTEX
  5
6C3A0
  8
DETAIL
 10
9.6541199999999971
 20
17.537099999999999
 30
0.0000000000001777
 70
    32
  0
VERTEX
  5
6C3A1
  8
DETAIL
 10
9.6541700000000006
 20
17.537299999999998
 30
0.0000000000001777
 70
    32
  0
VERTEX
  5
6C3A2
  8
DETAIL
 10
9.6542200000000005
 20
17.537600000000001
 30
0.0000000000001777
 70
    32
  0
VERTEX
  5
6C3A3
  8
DETAIL
 10
9.6542600000000007
 20
17.5379
 30
0.0000000000001777
 70
    32
  0
VERTEX
  5
6C3A4
  8
DETAIL
 10
9.6542999999999992
 20
17.5382
 30
0.0000000000001777
 70
    32
  0
VERTEX
  5
6C3A5
  8
DETAIL
 10
9.6543299999999999
 20
17.538399999999999
 30
0.0000000000001777
 70
    32
  0
VERTEX
  5
6C3A6
  8
DETAIL
 10
9.6543700000000001
 20
17.538699999999999
 30
0.0000000000001777
 70
    32
  0
VERTEX
  5
6C3A7
  8
DETAIL
 10
9.6544000000000008
 20
17.539000000000001
 30
0.0000000000001777
 70
    32
  0
VERTEX
  5
6C3A8
  8
DETAIL
 10
9.65442
 20
17.539200000000001
 30
0.0000000000001777
 70
    32
  0
VERTEX
  5
6C3A9
  8
DETAIL
 10
9.6544500000000006
 20
17.5395
 30
0.0000000000001777
 70
    32
  0
VERTEX
  5
6C3AA
  8
DETAIL
 10
9.6544699999999999
 20
17.5398
 30
0.0000000000001777
 70
    32
  0
VERTEX
  5
6C3AB
  8
DETAIL
 10
9.6544899999999991
 20
17.540099999999999
 30
0.0000000000001777
 70
    32
  0
VERTEX
  5
6C3AC
  8
DETAIL
 10
9.6545000000000005
 20
17.540299999999998
 30
0.0000000000001777
 70
    32
  0
VERTEX
  5
6C3AD
  8
DETAIL
 10
9.6545199999999998
 20
17.540600000000001
 30
0.0000000000001777
 70
    32
  0
VERTEX
  5
6C3AE
  8
DETAIL
 10
9.6545300000000012
 20
17.540900000000001
 30
0.0000000000001777
 70
    32
  0
VERTEX
  5
6C3AF
  8
DETAIL
 10
9.6545300000000012
 20
17.5411
 30
0.0000000000001777
 70
    32
  0
VERTEX
  5
6C3B0
  8
DETAIL
 10
9.654539999999999
 20
17.541399999999999
 30
0.0000000000001777
 70
    32
  0
VERTEX
  5
6C3B1
  8
DETAIL
 10
9.654539999999999
 20
17.541699999999999
 30
0.0000000000001777
 70
    32
  0
SEQEND
  5
6C3B2
  8
DETAIL
  0
LINE
  5
3323E
  8
DETAIL
 10
9.5875857704293672
 20
17.893383557814879
 30
0.0000000000001794
 11
9.3761608428541194
 21
17.771317318965931
 31
0.0000000000001794
210
0.0000000000000006
220
0.8164965809277266
230
0.5773502691896251
1001
ACDBBLOCKREPETAG
1070
     1
1071
      696
1005
3323E
  0
POLYLINE
  5
3323F
  8
DETAIL
 66
     1
 10
0.0
 20
0.0
 30
0.0
 70
     8
  0
VERTEX
  5
6C3B3
  8
DETAIL
 10
9.5875899999999987
 20
17.8934
 30
0.0000000000001785
 70
    32
  0
VERTEX
  5
6C3B4
  8
DETAIL
 10
9.5876999999999981
 20
17.8935
 30
0.0000000000001785
 70
    32
  0
VERTEX
  5
6C3B5
  8
DETAIL
 10
9.5878199999999971
 20
17.8935
 30
0.0000000000001785
 70
    32
  0
VERTEX
  5
6C3B6
  8
DETAIL
 10
9.5879300000000001
 20
17.893599999999999
 30
0.0000000000001785
 70
    32
  0
VERTEX
  5
6C3B7
  8
DETAIL
 10
9.5880399999999995
 20
17.893699999999999
 30
0.0000000000001785
 70
    32
  0
VERTEX
  5
6C3B8
  8
DETAIL
 10
9.5881500000000006
 20
17.893699999999999
 30
0.0000000000001785
 70
    32
  0
VERTEX
  5
6C3B9
  8
DETAIL
 10
9.58826
 20
17.893799999999999
 30
0.0000000000001785
 70
    32
  0
VERTEX
  5
6C3BA
  8
DETAIL
 10
9.5883699999999994
 20
17.893899999999999
 30
0.0000000000001785
 70
    32
  0
VERTEX
  5
6C3BB
  8
DETAIL
 10
9.5884800000000006
 20
17.893999999999998
 30
0.0000000000001785
 70
    32
  0
VERTEX
  5
6C3BC
  8
DETAIL
 10
9.5885800000000003
 20
17.893999999999998
 30
0.0000000000001785
 70
    32
  0
VERTEX
  5
6C3BD
  8
DETAIL
 10
9.5886800000000001
 20
17.894100000000002
 30
0.0000000000001785
 70
    32
  0
VERTEX
  5
6C3BE
  8
DETAIL
 10
9.5887799999999999
 20
17.894200000000001
 30
0.0000000000001785
 70
    32
  0
VERTEX
  5
6C3BF
  8
DETAIL
 10
9.5888799999999996
 20
17.894300000000001
 30
0.0000000000001785
 70
    32
  0
VERTEX
  5
6C3C0
  8
DETAIL
 10
9.5889800000000012
 20
17.894300000000001
 30
0.0000000000001785
 70
    32
  0
VERTEX
  5
6C3C1
  8
DETAIL
 10
9.5890799999999992
 20
17.894400000000001
 30
0.0000000000001785
 70
    32
  0
VERTEX
  5
6C3C2
  8
DETAIL
 10
9.5891699999999993
 20
17.894500000000001
 30
0.0000000000001785
 70
    32
  0
VERTEX
  5
6C3C3
  8
DETAIL
 10
9.5892600000000012
 20
17.894600000000001
 30
0.0000000000001785
 70
    32
  0
VERTEX
  5
6C3C4
  8
DETAIL
 10
9.5893599999999992
 20
17.894600000000001
 30
0.0000000000001785
 70
    32
  0
VERTEX
  5
6C3C5
  8
DETAIL
 10
9.5894499999999994
 20
17.8947
 30
0.0000000000001785
 70
    32
  0
VERTEX
  5
6C3C6
  8
DETAIL
 10
9.5895299999999999
 20
17.8948
 30
0.0000000000001785
 70
    32
  0
VERTEX
  5
6C3C7
  8
DETAIL
 10
9.58962
 20
17.8949
 30
0.0000000000001785
 70
    32
  0
VERTEX
  5
6C3C8
  8
DETAIL
 10
9.5897000000000006
 20
17.895
 30
0.0000000000001785
 70
    32
  0
VERTEX
  5
6C3C9
  8
DETAIL
 10
9.5897899999999971
 20
17.895099999999999
 30
0.0000000000001785
 70
    32
  0
VERTEX
  5
6C3CA
  8
DETAIL
 10
9.5898699999999995
 20
17.895099999999999
 30
0.0000000000001785
 70
    32
  0
VERTEX
  5
6C3CB
  8
DETAIL
 10
9.5899499999999982
 20
17.895199999999999
 30
0.0000000000001785
 70
    32
  0
VERTEX
  5
6C3CC
  8
DETAIL
 10
9.5900199999999991
 20
17.895299999999999
 30
0.0000000000001785
 70
    32
  0
VERTEX
  5
6C3CD
  8
DETAIL
 10
9.5900999999999996
 20
17.895399999999999
 30
0.0000000000001785
 70
    32
  0
VERTEX
  5
6C3CE
  8
DETAIL
 10
9.5901700000000005
 20
17.895499999999998
 30
0.0000000000001785
 70
    32
  0
VERTEX
  5
6C3CF
  8
DETAIL
 10
9.5902399999999997
 20
17.895600000000002
 30
0.0000000000001785
 70
    32
  0
VERTEX
  5
6C3D0
  8
DETAIL
 10
9.5903100000000006
 20
17.895600000000002
 30
0.0000000000001785
 70
    32
  0
VERTEX
  5
6C3D1
  8
DETAIL
 10
9.5903799999999997
 20
17.895700000000001
 30
0.0000000000001785
 70
    32
  0
VERTEX
  5
6C3D2
  8
DETAIL
 10
9.5904500000000006
 20
17.895800000000001
 30
0.0000000000001785
 70
    32
  0
VERTEX
  5
6C3D3
  8
DETAIL
 10
9.5905100000000001
 20
17.895900000000001
 30
0.0000000000001785
 70
    32
  0
VERTEX
  5
6C3D4
  8
DETAIL
 10
9.5905699999999996
 20
17.896000000000001
 30
0.0000000000001785
 70
    32
  0
VERTEX
  5
6C3D5
  8
DETAIL
 10
9.5906399999999987
 20
17.896100000000001
 30
0.0000000000001785
 70
    32
  0
VERTEX
  5
6C3D6
  8
DETAIL
 10
9.5906899999999986
 20
17.8962
 30
0.0000000000001785
 70
    32
  0
VERTEX
  5
6C3D7
  8
DETAIL
 10
9.5907499999999999
 20
17.8963
 30
0.0000000000001785
 70
    32
  0
VERTEX
  5
6C3D8
  8
DETAIL
 10
9.5908100000000012
 20
17.8964
 30
0.0000000000001785
 70
    32
  0
VERTEX
  5
6C3D9
  8
DETAIL
 10
9.5908600000000011
 20
17.8965
 30
0.0000000000001785
 70
    32
  0
VERTEX
  5
6C3DA
  8
DETAIL
 10
9.5909099999999992
 20
17.8965
 30
0.0000000000001785
 70
    32
  0
VERTEX
  5
6C3DB
  8
DETAIL
 10
9.5909600000000008
 20
17.896599999999999
 30
0.0000000000001785
 70
    32
  0
VERTEX
  5
6C3DC
  8
DETAIL
 10
9.5910100000000007
 20
17.896699999999999
 30
0.0000000000001785
 70
    32
  0
VERTEX
  5
6C3DD
  8
DETAIL
 10
9.5910499999999992
 20
17.896799999999999
 30
0.0000000000001785
 70
    32
  0
VERTEX
  5
6C3DE
  8
DETAIL
 10
9.5910899999999994
 20
17.896899999999999
 30
0.0000000000001785
 70
    32
  0
VERTEX
  5
6C3DF
  8
DETAIL
 10
9.5911399999999993
 20
17.896999999999998
 30
0.0000000000001785
 70
    32
  0
VERTEX
  5
6C3E0
  8
DETAIL
 10
9.5911699999999982
 20
17.897099999999998
 30
0.0000000000001785
 70
    32
  0
VERTEX
  5
6C3E1
  8
DETAIL
 10
9.5912100000000002
 20
17.897200000000002
 30
0.0000000000001785
 70
    32
  0
VERTEX
  5
6C3E2
  8
DETAIL
 10
9.5912500000000005
 20
17.897300000000001
 30
0.0000000000001785
 70
    32
  0
VERTEX
  5
6C3E3
  8
DETAIL
 10
9.5912800000000011
 20
17.897400000000001
 30
0.0000000000001785
 70
    32
  0
VERTEX
  5
6C3E4
  8
DETAIL
 10
9.59131
 20
17.897500000000001
 30
0.0000000000001785
 70
    32
  0
VERTEX
  5
6C3E5
  8
DETAIL
 10
9.5913399999999989
 20
17.897600000000001
 30
0.0000000000001785
 70
    32
  0
VERTEX
  5
6C3E6
  8
DETAIL
 10
9.5913699999999995
 20
17.8977
 30
0.0000000000001785
 70
    32
  0
VERTEX
  5
6C3E7
  8
DETAIL
 10
9.5913899999999988
 20
17.8978
 30
0.0000000000001785
 70
    32
  0
VERTEX
  5
6C3E8
  8
DETAIL
 10
9.5914199999999994
 20
17.8978
 30
0.0000000000001785
 70
    32
  0
VERTEX
  5
6C3E9
  8
DETAIL
 10
9.5914399999999986
 20
17.8979
 30
0.0000000000001785
 70
    32
  0
VERTEX
  5
6C3EA
  8
DETAIL
 10
9.5914600000000014
 20
17.898
 30
0.0000000000001785
 70
    32
  0
VERTEX
  5
6C3EB
  8
DETAIL
 10
9.5914699999999993
 20
17.898099999999999
 30
0.0000000000001785
 70
    32
  0
VERTEX
  5
6C3EC
  8
DETAIL
 10
9.5914900000000003
 20
17.898199999999999
 30
0.0000000000001785
 70
    32
  0
VERTEX
  5
6C3ED
  8
DETAIL
 10
9.5914999999999981
 20
17.898299999999999
 30
0.0000000000001785
 70
    32
  0
VERTEX
  5
6C3EE
  8
DETAIL
 10
9.5915100000000013
 20
17.898399999999999
 30
0.0000000000001785
 70
    32
  0
VERTEX
  5
6C3EF
  8
DETAIL
 10
9.5915199999999992
 20
17.898499999999999
 30
0.0000000000001785
 70
    32
  0
VERTEX
  5
6C3F0
  8
DETAIL
 10
9.5915300000000006
 20
17.898599999999998
 30
0.0000000000001785
 70
    32
  0
VERTEX
  5
6C3F1
  8
DETAIL
 10
9.5915400000000002
 20
17.898700000000002
 30
0.0000000000001785
 70
    32
  0
VERTEX
  5
6C3F2
  8
DETAIL
 10
9.5915400000000002
 20
17.898800000000001
 30
0.0000000000001785
 70
    32
  0
VERTEX
  5
6C3F3
  8
DETAIL
 10
9.5915400000000002
 20
17.898900000000001
 30
0.0000000000001785
 70
    32
  0
VERTEX
  5
6C3F4
  8
DETAIL
 10
9.5915400000000002
 20
17.899000000000001
 30
0.0000000000001785
 70
    32
  0
VERTEX
  5
6C3F5
  8
DETAIL
 10
9.5915400000000002
 20
17.899100000000001
 30
0.0000000000001785
 70
    32
  0
VERTEX
  5
6C3F6
  8
DETAIL
 10
9.5915300000000006
 20
17.8992
 30
0.0000000000001785
 70
    32
  0
VERTEX
  5
6C3F7
  8
DETAIL
 10
9.5915199999999992
 20
17.8993
 30
0.0000000000001785
 70
    32
  0
VERTEX
  5
6C3F8
  8
DETAIL
 10
9.5915100000000013
 20
17.8994
 30
0.0000000000001785
 70
    32
  0
VERTEX
  5
6C3F9
  8
DETAIL
 10
9.5914999999999981
 20
17.8995
 30
0.0000000000001785
 70
    32
  0
VERTEX
  5
6C3FA
  8
DETAIL
 10
9.5914900000000003
 20
17.8996
 30
0.0000000000001785
 70
    32
  0
VERTEX
  5
6C3FB
  8
DETAIL
 10
9.5914699999999993
 20
17.899699999999999
 30
0.0000000000001785
 70
    32
  0
VERTEX
  5
6C3FC
  8
DETAIL
 10
9.5914600000000014
 20
17.899799999999999
 30
0.0000000000001785
 70
    32
  0
VERTEX
  5
6C3FD
  8
DETAIL
 10
9.5914399999999986
 20
17.899799999999999
 30
0.0000000000001785
 70
    32
  0
VERTEX
  5
6C3FE
  8
DETAIL
 10
9.5914199999999994
 20
17.899899999999999
 30
0.0000000000001785
 70
    32
  0
VERTEX
  5
6C3FF
  8
DETAIL
 10
9.5913899999999988
 20
17.899999999999999
 30
0.0000000000001785
 70
    32
  0
VERTEX
  5
6C400
  8
DETAIL
 10
9.5913699999999995
 20
17.900099999999998
 30
0.0000000000001785
 70
    32
  0
VERTEX
  5
6C401
  8
DETAIL
 10
9.5913399999999989
 20
17.900200000000002
 30
0.0000000000001785
 70
    32
  0
VERTEX
  5
6C402
  8
DETAIL
 10
9.59131
 20
17.900300000000001
 30
0.0000000000001785
 70
    32
  0
VERTEX
  5
6C403
  8
DETAIL
 10
9.5912800000000011
 20
17.900400000000001
 30
0.0000000000001785
 70
    32
  0
VERTEX
  5
6C404
  8
DETAIL
 10
9.5912500000000005
 20
17.900500000000001
 30
0.0000000000001785
 70
    32
  0
VERTEX
  5
6C405
  8
DETAIL
 10
9.5912100000000002
 20
17.900600000000001
 30
0.0000000000001785
 70
    32
  0
VERTEX
  5
6C406
  8
DETAIL
 10
9.5911699999999982
 20
17.900700000000001
 30
0.0000000000001785
 70
    32
  0
VERTEX
  5
6C407
  8
DETAIL
 10
9.5911399999999993
 20
17.9008
 30
0.0000000000001785
 70
    32
  0
VERTEX
  5
6C408
  8
DETAIL
 10
9.5910899999999994
 20
17.9009
 30
0.0000000000001785
 70
    32
  0
VERTEX
  5
6C409
  8
DETAIL
 10
9.5910499999999992
 20
17.901
 30
0.0000000000001785
 70
    32
  0
VERTEX
  5
6C40A
  8
DETAIL
 10
9.5910100000000007
 20
17.9011
 30
0.0000000000001785
 70
    32
  0
VERTEX
  5
6C40B
  8
DETAIL
 10
9.5909600000000008
 20
17.901199999999999
 30
0.0000000000001785
 70
    32
  0
VERTEX
  5
6C40C
  8
DETAIL
 10
9.5909099999999992
 20
17.901199999999999
 30
0.0000000000001785
 70
    32
  0
VERTEX
  5
6C40D
  8
DETAIL
 10
9.5908600000000011
 20
17.901299999999999
 30
0.0000000000001785
 70
    32
  0
VERTEX
  5
6C40E
  8
DETAIL
 10
9.5908100000000012
 20
17.901399999999999
 30
0.0000000000001785
 70
    32
  0
VERTEX
  5
6C40F
  8
DETAIL
 10
9.5907499999999999
 20
17.901499999999999
 30
0.0000000000001785
 70
    32
  0
VERTEX
  5
6C410
  8
DETAIL
 10
9.5906899999999986
 20
17.901599999999998
 30
0.0000000000001785
 70
    32
  0
VERTEX
  5
6C411
  8
DETAIL
 10
9.5906399999999987
 20
17.901700000000002
 30
0.0000000000001785
 70
    32
  0
VERTEX
  5
6C412
  8
DETAIL
 10
9.5905699999999996
 20
17.901800000000001
 30
0.0000000000001785
 70
    32
  0
VERTEX
  5
6C413
  8
DETAIL
 10
9.5905100000000001
 20
17.901900000000001
 30
0.0000000000001785
 70
    32
  0
VERTEX
  5
6C414
  8
DETAIL
 10
9.5904500000000006
 20
17.902000000000001
 30
0.0000000000001785
 70
    32
  0
VERTEX
  5
6C415
  8
DETAIL
 10
9.5903799999999997
 20
17.902100000000001
 30
0.0000000000001785
 70
    32
  0
VERTEX
  5
6C416
  8
DETAIL
 10
9.5903100000000006
 20
17.902100000000001
 30
0.0000000000001785
 70
    32
  0
VERTEX
  5
6C417
  8
DETAIL
 10
9.5902399999999997
 20
17.902200000000001
 30
0.0000000000001785
 70
    32
  0
VERTEX
  5
6C418
  8
DETAIL
 10
9.5901700000000005
 20
17.9023
 30
0.0000000000001785
 70
    32
  0
VERTEX
  5
6C419
  8
DETAIL
 10
9.5900999999999996
 20
17.9024
 30
0.0000000000001785
 70
    32
  0
VERTEX
  5
6C41A
  8
DETAIL
 10
9.5900199999999991
 20
17.9025
 30
0.0000000000001785
 70
    32
  0
VERTEX
  5
6C41B
  8
DETAIL
 10
9.5899499999999982
 20
17.9026
 30
0.0000000000001785
 70
    32
  0
VERTEX
  5
6C41C
  8
DETAIL
 10
9.5898699999999995
 20
17.902699999999999
 30
0.0000000000001785
 70
    32
  0
VERTEX
  5
6C41D
  8
DETAIL
 10
9.5897899999999971
 20
17.902699999999999
 30
0.0000000000001785
 70
    32
  0
VERTEX
  5
6C41E
  8
DETAIL
 10
9.5897000000000006
 20
17.902799999999999
 30
0.0000000000001785
 70
    32
  0
VERTEX
  5
6C41F
  8
DETAIL
 10
9.58962
 20
17.902899999999999
 30
0.0000000000001785
 70
    32
  0
VERTEX
  5
6C420
  8
DETAIL
 10
9.5895299999999999
 20
17.902999999999999
 30
0.0000000000001785
 70
    32
  0
VERTEX
  5
6C421
  8
DETAIL
 10
9.5894499999999994
 20
17.903099999999998
 30
0.0000000000001785
 70
    32
  0
VERTEX
  5
6C422
  8
DETAIL
 10
9.5893599999999992
 20
17.903099999999998
 30
0.0000000000001785
 70
    32
  0
VERTEX
  5
6C423
  8
DETAIL
 10
9.5892600000000012
 20
17.903199999999998
 30
0.0000000000001785
 70
    32
  0
VERTEX
  5
6C424
  8
DETAIL
 10
9.5891699999999993
 20
17.903300000000002
 30
0.0000000000001785
 70
    32
  0
VERTEX
  5
6C425
  8
DETAIL
 10
9.5890799999999992
 20
17.903400000000001
 30
0.0000000000001785
 70
    32
  0
VERTEX
  5
6C426
  8
DETAIL
 10
9.5889800000000012
 20
17.903500000000001
 30
0.0000000000001785
 70
    32
  0
VERTEX
  5
6C427
  8
DETAIL
 10
9.5888799999999996
 20
17.903500000000001
 30
0.0000000000001785
 70
    32
  0
VERTEX
  5
6C428
  8
DETAIL
 10
9.5887799999999999
 20
17.903600000000001
 30
0.0000000000001785
 70
    32
  0
VERTEX
  5
6C429
  8
DETAIL
 10
9.5886800000000001
 20
17.903700000000001
 30
0.0000000000001785
 70
    32
  0
VERTEX
  5
6C42A
  8
DETAIL
 10
9.5885800000000003
 20
17.9038
 30
0.0000000000001785
 70
    32
  0
VERTEX
  5
6C42B
  8
DETAIL
 10
9.5884800000000006
 20
17.9038
 30
0.0000000000001785
 70
    32
  0
VERTEX
  5
6C42C
  8
DETAIL
 10
9.5883699999999994
 20
17.9039
 30
0.0000000000001785
 70
    32
  0
VERTEX
  5
6C42D
  8
DETAIL
 10
9.58826
 20
17.904
 30
0.0000000000001785
 70
    32
  0
VERTEX
  5
6C42E
  8
DETAIL
 10
9.5881500000000006
 20
17.9041
 30
0.0000000000001785
 70
    32
  0
VERTEX
  5
6C42F
  8
DETAIL
 10
9.5880399999999995
 20
17.9041
 30
0.0000000000001785
 70
    32
  0
VERTEX
  5
6C430
  8
DETAIL
 10
9.5879300000000001
 20
17.904199999999999
 30
0.0000000000001785
 70
    32
  0
VERTEX
  5
6C431
  8
DETAIL
 10
9.5878199999999971
 20
17.904299999999999
 30
0.0000000000001785
 70
    32
  0
VERTEX
  5
6C432
  8
DETAIL
 10
9.5876999999999981
 20
17.904299999999999
 30
0.0000000000001785
 70
    32
  0
VERTEX
  5
6C433
  8
DETAIL
 10
9.5875899999999987
 20
17.904399999999999
 30
0.0000000000001785
 70
    32
  0
SEQEND
  5
6C434
  8
DETAIL
  0
LINE
  5
33240
  8
DETAIL
 10
9.6321334976443609
 20
17.930125903956789
 30
0.0000000000001776
 11
9.6133951679433896
 21
17.940944483653759
 31
0.0000000000001759
210
0.0000000000000006
220
0.8164965809277266
230
0.5773502691896251
1001
ACDBBLOCKREPETAG
1070
     1
1071
      698
1005
33240
  0
POLYLINE
  5
33241
  8
DETAIL
 66
     1
 10
0.0
 20
0.0
 30
0.0
 70
     8
  0
VERTEX
  5
6C435
  8
DETAIL
 10
9.6321300000000001
 20
17.867699999999999
 30
0.0000000000001786
 70
    32
  0
VERTEX
  5
6C436
  8
DETAIL
 10
9.6327899999999982
 20
17.867999999999999
 30
0.0000000000001786
 70
    32
  0
VERTEX
  5
6C437
  8
DETAIL
 10
9.6334400000000002
 20
17.868400000000001
 30
0.0000000000001786
 70
    32
  0
VERTEX
  5
6C438
  8
DETAIL
 10
9.6340899999999987
 20
17.8688
 30
0.0000000000001786
 70
    32
  0
VERTEX
  5
6C439
  8
DETAIL
 10
9.6347199999999997
 20
17.869199999999999
 30
0.0000000000001786
 70
    32
  0
VERTEX
  5
6C43A
  8
DETAIL
 10
9.6353500000000007
 20
17.869599999999998
 30
0.0000000000001786
 70
    32
  0
VERTEX
  5
6C43B
  8
DETAIL
 10
9.6359700000000004
 20
17.870000000000001
 30
0.0000000000001786
 70
    32
  0
VERTEX
  5
6C43C
  8
DETAIL
 10
9.6365800000000004
 20
17.8705
 30
0.0000000000001786
 70
    32
  0
VERTEX
  5
6C43D
  8
DETAIL
 10
9.6371800000000007
 20
17.870899999999999
 30
0.0000000000001786
 70
    32
  0
VERTEX
  5
6C43E
  8
DETAIL
 10
9.6377699999999997
 20
17.871300000000002
 30
0.0000000000001786
 70
    32
  0
VERTEX
  5
6C43F
  8
DETAIL
 10
9.6383500000000009
 20
17.871700000000001
 30
0.0000000000001786
 70
    32
  0
VERTEX
  5
6C440
  8
DETAIL
 10
9.6389199999999988
 20
17.872199999999999
 30
0.0000000000001786
 70
    32
  0
VERTEX
  5
6C441
  8
DETAIL
 10
9.6394899999999986
 20
17.872599999999998
 30
0.0000000000001786
 70
    32
  0
VERTEX
  5
6C442
  8
DETAIL
 10
9.6400399999999991
 20
17.873000000000001
 30
0.0000000000001786
 70
    32
  0
VERTEX
  5
6C443
  8
DETAIL
 10
9.6405899999999995
 20
17.8735
 30
0.0000000000001786
 70
    32
  0
VERTEX
  5
6C444
  8
DETAIL
 10
9.641119999999999
 20
17.873899999999999
 30
0.0000000000001786
 70
    32
  0
VERTEX
  5
6C445
  8
DETAIL
 10
9.6416500000000003
 20
17.874400000000001
 30
0.0000000000001786
 70
    32
  0
VERTEX
  5
6C446
  8
DETAIL
 10
9.6421600000000005
 20
17.8748
 30
0.0000000000001786
 70
    32
  0
VERTEX
  5
6C447
  8
DETAIL
 10
9.6426699999999972
 20
17.875299999999999
 30
0.0000000000001786
 70
    32
  0
VERTEX
  5
6C448
  8
DETAIL
 10
9.6431699999999996
 20
17.875699999999998
 30
0.0000000000001786
 70
    32
  0
VERTEX
  5
6C449
  8
DETAIL
 10
9.6436600000000006
 20
17.876200000000001
 30
0.0000000000001786
 70
    32
  0
VERTEX
  5
6C44A
  8
DETAIL
 10
9.6441300000000005
 20
17.8767
 30
0.0000000000001786
 70
    32
  0
VERTEX
  5
6C44B
  8
DETAIL
 10
9.6446000000000005
 20
17.877099999999999
 30
0.0000000000001786
 70
    32
  0
VERTEX
  5
6C44C
  8
DETAIL
 10
9.6450600000000009
 20
17.877600000000001
 30
0.0000000000001786
 70
    32
  0
VERTEX
  5
6C44D
  8
DETAIL
 10
9.6455099999999998
 20
17.8781
 30
0.0000000000001786
 70
    32
  0
VERTEX
  5
6C44E
  8
DETAIL
 10
9.6459399999999995
 20
17.878599999999999
 30
0.0000000000001786
 70
    32
  0
VERTEX
  5
6C44F
  8
DETAIL
 10
9.6463699999999992
 20
17.879000000000001
 30
0.0000000000001786
 70
    32
  0
VERTEX
  5
6C450
  8
DETAIL
 10
9.6467899999999993
 20
17.8795
 30
0.0000000000001786
 70
    32
  0
VERTEX
  5
6C451
  8
DETAIL
 10
9.6471999999999998
 20
17.879999999999999
 30
0.0000000000001786
 70
    32
  0
VERTEX
  5
6C452
  8
DETAIL
 10
9.6475899999999992
 20
17.880500000000001
 30
0.0000000000001786
 70
    32
  0
VERTEX
  5
6C453
  8
DETAIL
 10
9.6479800000000004
 20
17.881
 30
0.0000000000001786
 70
    32
  0
VERTEX
  5
6C454
  8
DETAIL
 10
9.6483500000000006
 20
17.881499999999999
 30
0.0000000000001786
 70
    32
  0
VERTEX
  5
6C455
  8
DETAIL
 10
9.6487199999999991
 20
17.882000000000001
 30
0.0000000000001786
 70
    32
  0
VERTEX
  5
6C456
  8
DETAIL
 10
9.64907
 20
17.8825
 30
0.0000000000001786
 70
    32
  0
VERTEX
  5
6C457
  8
DETAIL
 10
9.6494100000000014
 20
17.882999999999999
 30
0.0000000000001786
 70
    32
  0
VERTEX
  5
6C458
  8
DETAIL
 10
9.6497499999999992
 20
17.883500000000002
 30
0.0000000000001786
 70
    32
  0
VERTEX
  5
6C459
  8
DETAIL
 10
9.6500699999999995
 20
17.884
 30
0.0000000000001786
 70
    32
  0
VERTEX
  5
6C45A
  8
DETAIL
 10
9.6503800000000002
 20
17.884499999999999
 30
0.0000000000001786
 70
    32
  0
VERTEX
  5
6C45B
  8
DETAIL
 10
9.6506799999999995
 20
17.885000000000002
 30
0.0000000000001786
 70
    32
  0
VERTEX
  5
6C45C
  8
DETAIL
 10
9.6509699999999992
 20
17.8856
 30
0.0000000000001786
 70
    32
  0
VERTEX
  5
6C45D
  8
DETAIL
 10
9.6512499999999992
 20
17.886099999999999
 30
0.0000000000001786
 70
    32
  0
VERTEX
  5
6C45E
  8
DETAIL
 10
9.65151
 20
17.886600000000001
 30
0.0000000000001786
 70
    32
  0
VERTEX
  5
6C45F
  8
DETAIL
 10
9.6517699999999991
 20
17.8871
 30
0.0000000000001786
 70
    32
  0
VERTEX
  5
6C460
  8
DETAIL
 10
9.6520100000000006
 20
17.887599999999999
 30
0.0000000000001786
 70
    32
  0
VERTEX
  5
6C461
  8
DETAIL
 10
9.6522500000000004
 20
17.888200000000001
 30
0.0000000000001786
 70
    32
  0
VERTEX
  5
6C462
  8
DETAIL
 10
9.6524699999999992
 20
17.8887
 30
0.0000000000001786
 70
    32
  0
VERTEX
  5
6C463
  8
DETAIL
 10
9.6526800000000001
 20
17.889199999999999
 30
0.0000000000001786
 70
    32
  0
VERTEX
  5
6C464
  8
DETAIL
 10
9.6528799999999997
 20
17.889700000000001
 30
0.0000000000001786
 70
    32
  0
VERTEX
  5
6C465
  8
DETAIL
 10
9.6530699999999996
 20
17.8903
 30
0.0000000000001786
 70
    32
  0
VERTEX
  5
6C466
  8
DETAIL
 10
9.6532499999999999
 20
17.890799999999999
 30
0.0000000000001786
 70
    32
  0
VERTEX
  5
6C467
  8
DETAIL
 10
9.6534099999999992
 20
17.891300000000001
 30
0.0000000000001786
 70
    32
  0
VERTEX
  5
6C468
  8
DETAIL
 10
9.6535700000000002
 20
17.8919
 30
0.0000000000001786
 70
    32
  0
VERTEX
  5
6C469
  8
DETAIL
 10
9.6537100000000002
 20
17.892399999999999
 30
0.0000000000001786
 70
    32
  0
VERTEX
  5
6C46A
  8
DETAIL
 10
9.6538399999999989
 20
17.893000000000001
 30
0.0000000000001786
 70
    32
  0
VERTEX
  5
6C46B
  8
DETAIL
 10
9.6539600000000014
 20
17.8935
 30
0.0000000000001786
 70
    32
  0
VERTEX
  5
6C46C
  8
DETAIL
 10
9.654069999999999
 20
17.893999999999998
 30
0.0000000000001786
 70
    32
  0
VERTEX
  5
6C46D
  8
DETAIL
 10
9.6541700000000006
 20
17.894600000000001
 30
0.0000000000001786
 70
    32
  0
VERTEX
  5
6C46E
  8
DETAIL
 10
9.6542600000000007
 20
17.895099999999999
 30
0.0000000000001786
 70
    32
  0
VERTEX
  5
6C46F
  8
DETAIL
 10
9.6543299999999999
 20
17.895600000000002
 30
0.0000000000001786
 70
    32
  0
VERTEX
  5
6C470
  8
DETAIL
 10
9.6544000000000008
 20
17.8962
 30
0.0000000000001786
 70
    32
  0
VERTEX
  5
6C471
  8
DETAIL
 10
9.6544500000000006
 20
17.896699999999999
 30
0.0000000000001786
 70
    32
  0
VERTEX
  5
6C472
  8
DETAIL
 10
9.6544899999999991
 20
17.897300000000001
 30
0.0000000000001786
 70
    32
  0
VERTEX
  5
6C473
  8
DETAIL
 10
9.6545199999999998
 20
17.8978
 30
0.0000000000001786
 70
    32
  0
VERTEX
  5
6C474
  8
DETAIL
 10
9.6545300000000012
 20
17.898399999999999
 30
0.0000000000001786
 70
    32
  0
VERTEX
  5
6C475
  8
DETAIL
 10
9.654539999999999
 20
17.898900000000001
 30
0.0000000000001786
 70
    32
  0
VERTEX
  5
6C476
  8
DETAIL
 10
9.6545300000000012
 20
17.8994
 30
0.0000000000001786
 70
    32
  0
VERTEX
  5
6C477
  8
DETAIL
 10
9.6545199999999998
 20
17.899999999999999
 30
0.0000000000001786
 70
    32
  0
VERTEX
  5
6C478
  8
DETAIL
 10
9.6544899999999991
 20
17.900500000000001
 30
0.0000000000001786
 70
    32
  0
VERTEX
  5
6C479
  8
DETAIL
 10
9.6544500000000006
 20
17.9011
 30
0.0000000000001786
 70
    32
  0
VERTEX
  5
6C47A
  8
DETAIL
 10
9.6544000000000008
 20
17.901599999999998
 30
0.0000000000001786
 70
    32
  0
VERTEX
  5
6C47B
  8
DETAIL
 10
9.6543299999999999
 20
17.902100000000001
 30
0.0000000000001786
 70
    32
  0
VERTEX
  5
6C47C
  8
DETAIL
 10
9.6542600000000007
 20
17.902699999999999
 30
0.0000000000001786
 70
    32
  0
VERTEX
  5
6C47D
  8
DETAIL
 10
9.6541700000000006
 20
17.903199999999998
 30
0.0000000000001786
 70
    32
  0
VERTEX
  5
6C47E
  8
DETAIL
 10
9.654069999999999
 20
17.9038
 30
0.0000000000001786
 70
    32
  0
VERTEX
  5
6C47F
  8
DETAIL
 10
9.6539600000000014
 20
17.904299999999999
 30
0.0000000000001786
 70
    32
  0
VERTEX
  5
6C480
  8
DETAIL
 10
9.6538399999999989
 20
17.904800000000002
 30
0.0000000000001786
 70
    32
  0
VERTEX
  5
6C481
  8
DETAIL
 10
9.6537100000000002
 20
17.9054
 30
0.0000000000001786
 70
    32
  0
VERTEX
  5
6C482
  8
DETAIL
 10
9.6535700000000002
 20
17.905899999999999
 30
0.0000000000001786
 70
    32
  0
VERTEX
  5
6C483
  8
DETAIL
 10
9.6534099999999992
 20
17.906400000000001
 30
0.0000000000001786
 70
    32
  0
VERTEX
  5
6C484
  8
DETAIL
 10
9.6532499999999999
 20
17.907
 30
0.0000000000001786
 70
    32
  0
VERTEX
  5
6C485
  8
DETAIL
 10
9.6530699999999996
 20
17.907499999999999
 30
0.0000000000001786
 70
    32
  0
VERTEX
  5
6C486
  8
DETAIL
 10
9.6528799999999997
 20
17.908000000000001
 30
0.0000000000001786
 70
    32
  0
VERTEX
  5
6C487
  8
DETAIL
 10
9.6526800000000001
 20
17.9086
 30
0.0000000000001786
 70
    32
  0
VERTEX
  5
6C488
  8
DETAIL
 10
9.6524699999999992
 20
17.909099999999999
 30
0.0000000000001786
 70
    32
  0
VERTEX
  5
6C489
  8
DETAIL
 10
9.6522500000000004
 20
17.909600000000001
 30
0.0000000000001786
 70
    32
  0
VERTEX
  5
6C48A
  8
DETAIL
 10
9.6520100000000006
 20
17.9102
 30
0.0000000000001786
 70
    32
  0
VERTEX
  5
6C48B
  8
DETAIL
 10
9.6517699999999991
 20
17.910699999999999
 30
0.0000000000001786
 70
    32
  0
VERTEX
  5
6C48C
  8
DETAIL
 10
9.65151
 20
17.911200000000001
 30
0.0000000000001786
 70
    32
  0
VERTEX
  5
6C48D
  8
DETAIL
 10
9.6512499999999992
 20
17.9117
 30
0.0000000000001786
 70
    32
  0
VERTEX
  5
6C48E
  8
DETAIL
 10
9.6509699999999992
 20
17.912199999999999
 30
0.0000000000001786
 70
    32
  0
VERTEX
  5
6C48F
  8
DETAIL
 10
9.6506799999999995
 20
17.912700000000001
 30
0.0000000000001786
 70
    32
  0
VERTEX
  5
6C490
  8
DETAIL
 10
9.6503800000000002
 20
17.9133
 30
0.0000000000001786
 70
    32
  0
VERTEX
  5
6C491
  8
DETAIL
 10
9.6500699999999995
 20
17.913799999999998
 30
0.0000000000001786
 70
    32
  0
VERTEX
  5
6C492
  8
DETAIL
 10
9.6497499999999992
 20
17.914300000000001
 30
0.0000000000001786
 70
    32
  0
VERTEX
  5
6C493
  8
DETAIL
 10
9.6494100000000014
 20
17.9148
 30
0.0000000000001786
 70
    32
  0
VERTEX
  5
6C494
  8
DETAIL
 10
9.64907
 20
17.915299999999998
 30
0.0000000000001786
 70
    32
  0
VERTEX
  5
6C495
  8
DETAIL
 10
9.6487199999999991
 20
17.915800000000001
 30
0.0000000000001786
 70
    32
  0
VERTEX
  5
6C496
  8
DETAIL
 10
9.6483500000000006
 20
17.9163
 30
0.0000000000001786
 70
    32
  0
VERTEX
  5
6C497
  8
DETAIL
 10
9.6479800000000004
 20
17.916799999999999
 30
0.0000000000001786
 70
    32
  0
VERTEX
  5
6C498
  8
DETAIL
 10
9.6475899999999992
 20
17.917300000000001
 30
0.0000000000001786
 70
    32
  0
VERTEX
  5
6C499
  8
DETAIL
 10
9.6471999999999998
 20
17.9178
 30
0.0000000000001786
 70
    32
  0
VERTEX
  5
6C49A
  8
DETAIL
 10
9.6467899999999993
 20
17.918299999999999
 30
0.0000000000001786
 70
    32
  0
VERTEX
  5
6C49B
  8
DETAIL
 10
9.6463699999999992
 20
17.918800000000001
 30
0.0000000000001786
 70
    32
  0
VERTEX
  5
6C49C
  8
DETAIL
 10
9.6459399999999995
 20
17.9192
 30
0.0000000000001786
 70
    32
  0
VERTEX
  5
6C49D
  8
DETAIL
 10
9.6455099999999998
 20
17.919699999999999
 30
0.0000000000001786
 70
    32
  0
VERTEX
  5
6C49E
  8
DETAIL
 10
9.6450600000000009
 20
17.920200000000001
 30
0.0000000000001786
 70
    32
  0
VERTEX
  5
6C49F
  8
DETAIL
 10
9.6446000000000005
 20
17.9207
 30
0.0000000000001786
 70
    32
  0
VERTEX
  5
6C4A0
  8
DETAIL
 10
9.6441300000000005
 20
17.921099999999999
 30
0.0000000000001786
 70
    32
  0
VERTEX
  5
6C4A1
  8
DETAIL
 10
9.6436600000000006
 20
17.921600000000002
 30
0.0000000000001786
 70
    32
  0
VERTEX
  5
6C4A2
  8
DETAIL
 10
9.6431699999999996
 20
17.9221
 30
0.0000000000001786
 70
    32
  0
VERTEX
  5
6C4A3
  8
DETAIL
 10
9.6426699999999972
 20
17.922499999999999
 30
0.0000000000001786
 70
    32
  0
VERTEX
  5
6C4A4
  8
DETAIL
 10
9.6421600000000005
 20
17.922999999999998
 30
0.0000000000001786
 70
    32
  0
VERTEX
  5
6C4A5
  8
DETAIL
 10
9.6416500000000003
 20
17.923400000000001
 30
0.0000000000001786
 70
    32
  0
VERTEX
  5
6C4A6
  8
DETAIL
 10
9.641119999999999
 20
17.9239
 30
0.0000000000001786
 70
    32
  0
VERTEX
  5
6C4A7
  8
DETAIL
 10
9.6405899999999995
 20
17.924299999999999
 30
0.0000000000001786
 70
    32
  0
VERTEX
  5
6C4A8
  8
DETAIL
 10
9.6400399999999991
 20
17.924800000000001
 30
0.0000000000001786
 70
    32
  0
VERTEX
  5
6C4A9
  8
DETAIL
 10
9.6394899999999986
 20
17.9252
 30
0.0000000000001786
 70
    32
  0
VERTEX
  5
6C4AA
  8
DETAIL
 10
9.6389199999999988
 20
17.925599999999999
 30
0.0000000000001786
 70
    32
  0
VERTEX
  5
6C4AB
  8
DETAIL
 10
9.6383500000000009
 20
17.926100000000002
 30
0.0000000000001786
 70
    32
  0
VERTEX
  5
6C4AC
  8
DETAIL
 10
9.6377699999999997
 20
17.926500000000001
 30
0.0000000000001786
 70
    32
  0
VERTEX
  5
6C4AD
  8
DETAIL
 10
9.6371800000000007
 20
17.9269
 30
0.0000000000001786
 70
    32
  0
VERTEX
  5
6C4AE
  8
DETAIL
 10
9.6365800000000004
 20
17.927299999999999
 30
0.0000000000001786
 70
    32
  0
VERTEX
  5
6C4AF
  8
DETAIL
 10
9.6359700000000004
 20
17.927700000000002
 30
0.0000000000001786
 70
    32
  0
VERTEX
  5
6C4B0
  8
DETAIL
 10
9.6353500000000007
 20
17.9282
 30
0.0000000000001785
 70
    32
  0
VERTEX
  5
6C4B1
  8
DETAIL
 10
9.6347199999999997
 20
17.928599999999999
 30
0.0000000000001785
 70
    32
  0
VERTEX
  5
6C4B2
  8
DETAIL
 10
9.6340899999999987
 20
17.928999999999998
 30
0.0000000000001785
 70
    32
  0
VERTEX
  5
6C4B3
  8
DETAIL
 10
9.6334400000000002
 20
17.929400000000001
 30
0.0000000000001785
 70
    32
  0
VERTEX
  5
6C4B4
  8
DETAIL
 10
9.6327899999999982
 20
17.9297
 30
0.0000000000001785
 70
    32
  0
VERTEX
  5
6C4B5
  8
DETAIL
 10
9.6321300000000001
 20
17.930099999999999
 30
0.0000000000001785
 70
    32
  0
SEQEND
  5
6C4B6
  8
DETAIL
  0
LINE
  5
33242
  8
DETAIL
 10
9.4207085700689515
 20
17.745597676666659
 30
0.0000000000001794
 11
9.6321334976442792
 21
17.867663915515578
 31
0.0000000000001803
210
0.0000000000000006
220
0.8164965809277266
230
0.5773502691896251
1001
ACDBBLOCKREPETAG
1070
     1
1071
      700
1005
33242
  0
LINE
  5
33243
  8
DETAIL
 10
9.3761608428541265
 20
17.771317318965931
 30
0.0000000000001785
 11
9.4207085700688822
 21
17.745597676666709
 31
0.0000000000001776
210
0.0000000000000006
220
0.8164965809277266
230
0.5773502691896251
1001
ACDBBLOCKREPETAG
1070
     1
1071
      701
1005
33243
  0
LINE
  5
33244
  8
DETAIL
 10
9.5688474407284403
 20
17.915224841354441
 30
0.0000000000001794
 11
9.5875857704293779
 21
17.904406261657439
 31
0.0000000000001776
210
0.0000000000000006
220
0.8164965809277266
230
0.5773502691896251
1001
ACDBBLOCKREPETAG
1070
     1
1071
      702
1005
33244
  0
LINE
  5
33245
  8
DETAIL
 10
10.127461797864839
 20
18.205081127583782
 30
0.0000000000001767
 11
10.127461797864511
 21
17.847863873428459
 31
0.0000000000001776
210
0.0000000000000006
220
0.8164965809277266
230
0.5773502691896251
1001
ACDBBLOCKREPETAG
1070
     1
1071
      703
1005
33245
  0
LINE
  5
33246
  8
DETAIL
 10
10.172009525079661
 20
18.17936148528452
 30
0.0000000000001767
 11
10.172009525079339
 21
17.82214423112919
 31
0.0000000000001767
210
0.0000000000000006
220
0.8164965809277266
230
0.5773502691896251
1001
ACDBBLOCKREPETAG
1070
     1
1071
      704
1005
33246
  0
LINE
  5
33247
  8
DETAIL
 10
10.17200952507927
 20
17.82214423112886
 30
0.0000000000001785
 11
10.127461797864511
 21
17.847863873428079
 31
0.0000000000001776
210
0.0000000000000006
220
0.8164965809277266
230
0.5773502691896251
1001
ACDBBLOCKREPETAG
1070
     1
1071
      705
1005
33247
  0
LINE
  5
33248
  8
DETAIL
 10
10.38343445265466
 20
17.94421046997774
 30
0.0000000000001776
 11
10.172009525079339
 21
17.822144231128821
 31
0.0000000000001776
210
0.0000000000000006
220
0.8164965809277266
230
0.5773502691896251
1001
ACDBBLOCKREPETAG
1070
     1
1071
      706
1005
33248
  0
POLYLINE
  5
33249
  8
DETAIL
 66
     1
 10
0.0
 20
0.0
 30
0.0
 70
     8
  0
VERTEX
  5
6C4B7
  8
DETAIL
 10
10.3834
 20
17.944199999999999
 30
0.0000000000001768
 70
    32
  0
VERTEX
  5
6C4B8
  8
DETAIL
 10
10.383800000000001
 20
17.944400000000002
 30
0.0000000000001768
 70
    32
  0
VERTEX
  5
6C4B9
  8
DETAIL
 10
10.3841
 20
17.944600000000001
 30
0.0000000000001768
 70
    32
  0
VERTEX
  5
6C4BA
  8
DETAIL
 10
10.384399999999999
 20
17.944800000000001
 30
0.0000000000001768
 70
    32
  0
VERTEX
  5
6C4BB
  8
DETAIL
 10
10.3847
 20
17.945
 30
0.0000000000001768
 70
    32
  0
VERTEX
  5
6C4BC
  8
DETAIL
 10
10.3851
 20
17.9452
 30
0.0000000000001768
 70
    32
  0
VERTEX
  5
6C4BD
  8
DETAIL
 10
10.385400000000001
 20
17.945399999999999
 30
0.0000000000001768
 70
    32
  0
VERTEX
  5
6C4BE
  8
DETAIL
 10
10.3857
 20
17.945599999999999
 30
0.0000000000001768
 70
    32
  0
VERTEX
  5
6C4BF
  8
DETAIL
 10
10.385999999999999
 20
17.945799999999998
 30
0.0000000000001768
 70
    32
  0
VERTEX
  5
6C4C0
  8
DETAIL
 10
10.3863
 20
17.946000000000002
 30
0.0000000000001768
 70
    32
  0
VERTEX
  5
6C4C1
  8
DETAIL
 10
10.3866
 20
17.946200000000001
 30
0.0000000000001768
 70
    32
  0
VERTEX
  5
6C4C2
  8
DETAIL
 10
10.387
 20
17.946400000000001
 30
0.0000000000001768
 70
    32
  0
VERTEX
  5
6C4C3
  8
DETAIL
 10
10.3873
 20
17.9466
 30
0.0000000000001768
 70
    32
  0
VERTEX
  5
6C4C4
  8
DETAIL
 10
10.387600000000001
 20
17.9468
 30
0.0000000000001768
 70
    32
  0
VERTEX
  5
6C4C5
  8
DETAIL
 10
10.3879
 20
17.946999999999999
 30
0.0000000000001768
 70
    32
  0
VERTEX
  5
6C4C6
  8
DETAIL
 10
10.388199999999999
 20
17.947199999999999
 30
0.0000000000001768
 70
    32
  0
VERTEX
  5
6C4C7
  8
DETAIL
 10
10.388500000000001
 20
17.947399999999998
 30
0.0000000000001768
 70
    32
  0
VERTEX
  5
6C4C8
  8
DETAIL
 10
10.3888
 20
17.947600000000001
 30
0.0000000000001768
 70
    32
  0
VERTEX
  5
6C4C9
  8
DETAIL
 10
10.389099999999999
 20
17.947800000000001
 30
0.0000000000001768
 70
    32
  0
VERTEX
  5
6C4CA
  8
DETAIL
 10
10.3894
 20
17.9481
 30
0.0000000000001768
 70
    32
  0
VERTEX
  5
6C4CB
  8
DETAIL
 10
10.3896
 20
17.9483
 30
0.0000000000001768
 70
    32
  0
VERTEX
  5
6C4CC
  8
DETAIL
 10
10.389900000000001
 20
17.948499999999999
 30
0.0000000000001768
 70
    32
  0
VERTEX
  5
6C4CD
  8
DETAIL
 10
10.3902
 20
17.948699999999999
 30
0.0000000000001768
 70
    32
  0
VERTEX
  5
6C4CE
  8
DETAIL
 10
10.390499999999999
 20
17.948899999999998
 30
0.0000000000001768
 70
    32
  0
VERTEX
  5
6C4CF
  8
DETAIL
 10
10.3908
 20
17.949100000000001
 30
0.0000000000001768
 70
    32
  0
VERTEX
  5
6C4D0
  8
DETAIL
 10
10.3911
 20
17.949300000000001
 30
0.0000000000001768
 70
    32
  0
VERTEX
  5
6C4D1
  8
DETAIL
 10
10.391299999999999
 20
17.9496
 30
0.0000000000001768
 70
    32
  0
VERTEX
  5
6C4D2
  8
DETAIL
 10
10.3916
 20
17.9498
 30
0.0000000000001768
 70
    32
  0
VERTEX
  5
6C4D3
  8
DETAIL
 10
10.3919
 20
17.949999999999999
 30
0.0000000000001768
 70
    32
  0
VERTEX
  5
6C4D4
  8
DETAIL
 10
10.392200000000001
 20
17.950199999999999
 30
0.0000000000001768
 70
    32
  0
VERTEX
  5
6C4D5
  8
DETAIL
 10
10.3924
 20
17.950500000000002
 30
0.0000000000001768
 70
    32
  0
VERTEX
  5
6C4D6
  8
DETAIL
 10
10.3927
 20
17.950700000000001
 30
0.0000000000001768
 70
    32
  0
VERTEX
  5
6C4D7
  8
DETAIL
 10
10.392899999999999
 20
17.950900000000001
 30
0.0000000000001768
 70
    32
  0
VERTEX
  5
6C4D8
  8
DETAIL
 10
10.3932
 20
17.9511
 30
0.0000000000001768
 70
    32
  0
VERTEX
  5
6C4D9
  8
DETAIL
 10
10.3935
 20
17.9514
 30
0.0000000000001768
 70
    32
  0
VERTEX
  5
6C4DA
  8
DETAIL
 10
10.393700000000001
 20
17.951599999999999
 30
0.0000000000001768
 70
    32
  0
VERTEX
  5
6C4DB
  8
DETAIL
 10
10.394
 20
17.951799999999999
 30
0.0000000000001768
 70
    32
  0
VERTEX
  5
6C4DC
  8
DETAIL
 10
10.3942
 20
17.952000000000002
 30
0.0000000000001768
 70
    32
  0
VERTEX
  5
6C4DD
  8
DETAIL
 10
10.394500000000001
 20
17.952300000000001
 30
0.0000000000001768
 70
    32
  0
VERTEX
  5
6C4DE
  8
DETAIL
 10
10.3947
 20
17.952500000000001
 30
0.0000000000001768
 70
    32
  0
VERTEX
  5
6C4DF
  8
DETAIL
 10
10.395
 20
17.9527
 30
0.0000000000001768
 70
    32
  0
VERTEX
  5
6C4E0
  8
DETAIL
 10
10.395200000000001
 20
17.952999999999999
 30
0.0000000000001768
 70
    32
  0
VERTEX
  5
6C4E1
  8
DETAIL
 10
10.3954
 20
17.953199999999999
 30
0.0000000000001768
 70
    32
  0
VERTEX
  5
6C4E2
  8
DETAIL
 10
10.3957
 20
17.953399999999998
 30
0.0000000000001768
 70
    32
  0
VERTEX
  5
6C4E3
  8
DETAIL
 10
10.395899999999999
 20
17.953700000000001
 30
0.0000000000001768
 70
    32
  0
VERTEX
  5
6C4E4
  8
DETAIL
 10
10.396100000000001
 20
17.953900000000001
 30
0.0000000000001768
 70
    32
  0
VERTEX
  5
6C4E5
  8
DETAIL
 10
10.3964
 20
17.9541
 30
0.0000000000001768
 70
    32
  0
VERTEX
  5
6C4E6
  8
DETAIL
 10
10.396599999999999
 20
17.9544
 30
0.0000000000001768
 70
    32
  0
VERTEX
  5
6C4E7
  8
DETAIL
 10
10.396800000000001
 20
17.954599999999999
 30
0.0000000000001768
 70
    32
  0
VERTEX
  5
6C4E8
  8
DETAIL
 10
10.397
 20
17.954899999999999
 30
0.0000000000001768
 70
    32
  0
VERTEX
  5
6C4E9
  8
DETAIL
 10
10.3972
 20
17.955100000000002
 30
0.0000000000001768
 70
    32
  0
VERTEX
  5
6C4EA
  8
DETAIL
 10
10.397500000000001
 20
17.955300000000001
 30
0.0000000000001768
 70
    32
  0
VERTEX
  5
6C4EB
  8
DETAIL
 10
10.3977
 20
17.9556
 30
0.0000000000001768
 70
    32
  0
VERTEX
  5
6C4EC
  8
DETAIL
 10
10.3979
 20
17.9558
 30
0.0000000000001768
 70
    32
  0
VERTEX
  5
6C4ED
  8
DETAIL
 10
10.398099999999999
 20
17.956099999999999
 30
0.0000000000001768
 70
    32
  0
VERTEX
  5
6C4EE
  8
DETAIL
 10
10.398300000000001
 20
17.956299999999999
 30
0.0000000000001768
 70
    32
  0
VERTEX
  5
6C4EF
  8
DETAIL
 10
10.3985
 20
17.956600000000002
 30
0.0000000000001768
 70
    32
  0
VERTEX
  5
6C4F0
  8
DETAIL
 10
10.3987
 20
17.956800000000001
 30
0.0000000000001768
 70
    32
  0
VERTEX
  5
6C4F1
  8
DETAIL
 10
10.398899999999999
 20
17.957000000000001
 30
0.0000000000001768
 70
    32
  0
VERTEX
  5
6C4F2
  8
DETAIL
 10
10.399100000000001
 20
17.9573
 30
0.0000000000001768
 70
    32
  0
VERTEX
  5
6C4F3
  8
DETAIL
 10
10.3993
 20
17.9575
 30
0.0000000000001768
 70
    32
  0
VERTEX
  5
6C4F4
  8
DETAIL
 10
10.3995
 20
17.957799999999999
 30
0.0000000000001768
 70
    32
  0
VERTEX
  5
6C4F5
  8
DETAIL
 10
10.399699999999999
 20
17.957999999999998
 30
0.0000000000001768
 70
    32
  0
VERTEX
  5
6C4F6
  8
DETAIL
 10
10.399800000000001
 20
17.958300000000001
 30
0.0000000000001768
 70
    32
  0
VERTEX
  5
6C4F7
  8
DETAIL
 10
10.4
 20
17.958500000000001
 30
0.0000000000001768
 70
    32
  0
VERTEX
  5
6C4F8
  8
DETAIL
 10
10.4002
 20
17.9588
 30
0.0000000000001768
 70
    32
  0
VERTEX
  5
6C4F9
  8
DETAIL
 10
10.400399999999999
 20
17.959
 30
0.0000000000001768
 70
    32
  0
VERTEX
  5
6C4FA
  8
DETAIL
 10
10.400499999999999
 20
17.959299999999999
 30
0.0000000000001768
 70
    32
  0
VERTEX
  5
6C4FB
  8
DETAIL
 10
10.400700000000001
 20
17.959499999999998
 30
0.0000000000001768
 70
    32
  0
VERTEX
  5
6C4FC
  8
DETAIL
 10
10.4009
 20
17.959800000000001
 30
0.0000000000001768
 70
    32
  0
VERTEX
  5
6C4FD
  8
DETAIL
 10
10.401
 20
17.960100000000001
 30
0.0000000000001768
 70
    32
  0
VERTEX
  5
6C4FE
  8
DETAIL
 10
10.401199999999999
 20
17.9603
 30
0.0000000000001768
 70
    32
  0
VERTEX
  5
6C4FF
  8
DETAIL
 10
10.401400000000001
 20
17.960599999999999
 30
0.0000000000001768
 70
    32
  0
VERTEX
  5
6C500
  8
DETAIL
 10
10.4015
 20
17.960799999999999
 30
0.0000000000001768
 70
    32
  0
VERTEX
  5
6C501
  8
DETAIL
 10
10.4017
 20
17.961099999999998
 30
0.0000000000001768
 70
    32
  0
VERTEX
  5
6C502
  8
DETAIL
 10
10.4018
 20
17.961300000000001
 30
0.0000000000001768
 70
    32
  0
VERTEX
  5
6C503
  8
DETAIL
 10
10.401999999999999
 20
17.961600000000001
 30
0.0000000000001768
 70
    32
  0
VERTEX
  5
6C504
  8
DETAIL
 10
10.402100000000001
 20
17.9618
 30
0.0000000000001768
 70
    32
  0
VERTEX
  5
6C505
  8
DETAIL
 10
10.4023
 20
17.9621
 30
0.0000000000001768
 70
    32
  0
VERTEX
  5
6C506
  8
DETAIL
 10
10.4024
 20
17.962399999999999
 30
0.0000000000001768
 70
    32
  0
VERTEX
  5
6C507
  8
DETAIL
 10
10.4025
 20
17.962599999999998
 30
0.0000000000001768
 70
    32
  0
VERTEX
  5
6C508
  8
DETAIL
 10
10.402699999999999
 20
17.962900000000001
 30
0.0000000000001768
 70
    32
  0
VERTEX
  5
6C509
  8
DETAIL
 10
10.402799999999999
 20
17.963100000000001
 30
0.0000000000001768
 70
    32
  0
VERTEX
  5
6C50A
  8
DETAIL
 10
10.402900000000001
 20
17.9634
 30
0.0000000000001768
 70
    32
  0
VERTEX
  5
6C50B
  8
DETAIL
 10
10.4031
 20
17.963699999999999
 30
0.0000000000001768
 70
    32
  0
VERTEX
  5
6C50C
  8
DETAIL
 10
10.4032
 20
17.963899999999999
 30
0.0000000000001768
 70
    32
  0
VERTEX
  5
6C50D
  8
DETAIL
 10
10.4033
 20
17.964200000000002
 30
0.0000000000001768
 70
    32
  0
VERTEX
  5
6C50E
  8
DETAIL
 10
10.4034
 20
17.964400000000001
 30
0.0000000000001768
 70
    32
  0
VERTEX
  5
6C50F
  8
DETAIL
 10
10.403499999999999
 20
17.964700000000001
 30
0.0000000000001768
 70
    32
  0
VERTEX
  5
6C510
  8
DETAIL
 10
10.403700000000001
 20
17.965
 30
0.0000000000001768
 70
    32
  0
VERTEX
  5
6C511
  8
DETAIL
 10
10.4038
 20
17.965199999999999
 30
0.0000000000001768
 70
    32
  0
VERTEX
  5
6C512
  8
DETAIL
 10
10.4039
 20
17.965499999999999
 30
0.0000000000001768
 70
    32
  0
VERTEX
  5
6C513
  8
DETAIL
 10
10.404
 20
17.965800000000002
 30
0.0000000000001768
 70
    32
  0
VERTEX
  5
6C514
  8
DETAIL
 10
10.4041
 20
17.966000000000001
 30
0.0000000000001768
 70
    32
  0
VERTEX
  5
6C515
  8
DETAIL
 10
10.404199999999999
 20
17.9663
 30
0.0000000000001768
 70
    32
  0
VERTEX
  5
6C516
  8
DETAIL
 10
10.404299999999999
 20
17.9666
 30
0.0000000000001768
 70
    32
  0
VERTEX
  5
6C517
  8
DETAIL
 10
10.404400000000001
 20
17.966799999999999
 30
0.0000000000001768
 70
    32
  0
VERTEX
  5
6C518
  8
DETAIL
 10
10.404500000000001
 20
17.967099999999999
 30
0.0000000000001768
 70
    32
  0
VERTEX
  5
6C519
  8
DETAIL
 10
10.404500000000001
 20
17.967400000000001
 30
0.0000000000001768
 70
    32
  0
VERTEX
  5
6C51A
  8
DETAIL
 10
10.4046
 20
17.967600000000001
 30
0.0000000000001768
 70
    32
  0
VERTEX
  5
6C51B
  8
DETAIL
 10
10.4047
 20
17.9679
 30
0.0000000000001768
 70
    32
  0
VERTEX
  5
6C51C
  8
DETAIL
 10
10.4048
 20
17.9682
 30
0.0000000000001768
 70
    32
  0
VERTEX
  5
6C51D
  8
DETAIL
 10
10.4049
 20
17.968399999999999
 30
0.0000000000001768
 70
    32
  0
VERTEX
  5
6C51E
  8
DETAIL
 10
10.4049
 20
17.968699999999998
 30
0.0000000000001768
 70
    32
  0
VERTEX
  5
6C51F
  8
DETAIL
 10
10.404999999999999
 20
17.969000000000001
 30
0.0000000000001768
 70
    32
  0
VERTEX
  5
6C520
  8
DETAIL
 10
10.405099999999999
 20
17.969200000000001
 30
0.0000000000001768
 70
    32
  0
VERTEX
  5
6C521
  8
DETAIL
 10
10.405099999999999
 20
17.9695
 30
0.0000000000001768
 70
    32
  0
VERTEX
  5
6C522
  8
DETAIL
 10
10.405200000000001
 20
17.969799999999999
 30
0.0000000000001768
 70
    32
  0
VERTEX
  5
6C523
  8
DETAIL
 10
10.4053
 20
17.969999999999999
 30
0.0000000000001768
 70
    32
  0
VERTEX
  5
6C524
  8
DETAIL
 10
10.4053
 20
17.970300000000002
 30
0.0000000000001768
 70
    32
  0
VERTEX
  5
6C525
  8
DETAIL
 10
10.4054
 20
17.970600000000001
 30
0.0000000000001768
 70
    32
  0
VERTEX
  5
6C526
  8
DETAIL
 10
10.4054
 20
17.970800000000001
 30
0.0000000000001768
 70
    32
  0
VERTEX
  5
6C527
  8
DETAIL
 10
10.4055
 20
17.9711
 30
0.0000000000001768
 70
    32
  0
VERTEX
  5
6C528
  8
DETAIL
 10
10.4055
 20
17.971399999999999
 30
0.0000000000001768
 70
    32
  0
VERTEX
  5
6C529
  8
DETAIL
 10
10.4056
 20
17.971699999999998
 30
0.0000000000001768
 70
    32
  0
VERTEX
  5
6C52A
  8
DETAIL
 10
10.4056
 20
17.971900000000002
 30
0.0000000000001768
 70
    32
  0
VERTEX
  5
6C52B
  8
DETAIL
 10
10.4056
 20
17.972200000000001
 30
0.0000000000001768
 70
    32
  0
VERTEX
  5
6C52C
  8
DETAIL
 10
10.4057
 20
17.9725
 30
0.0000000000001768
 70
    32
  0
VERTEX
  5
6C52D
  8
DETAIL
 10
10.4057
 20
17.9727
 30
0.0000000000001768
 70
    32
  0
VERTEX
  5
6C52E
  8
DETAIL
 10
10.4057
 20
17.972999999999999
 30
0.0000000000001768
 70
    32
  0
VERTEX
  5
6C52F
  8
DETAIL
 10
10.4057
 20
17.973299999999998
 30
0.0000000000001768
 70
    32
  0
VERTEX
  5
6C530
  8
DETAIL
 10
10.405799999999999
 20
17.973500000000001
 30
0.0000000000001768
 70
    32
  0
VERTEX
  5
6C531
  8
DETAIL
 10
10.405799999999999
 20
17.973800000000001
 30
0.0000000000001768
 70
    32
  0
VERTEX
  5
6C532
  8
DETAIL
 10
10.405799999999999
 20
17.9741
 30
0.0000000000001768
 70
    32
  0
VERTEX
  5
6C533
  8
DETAIL
 10
10.405799999999999
 20
17.974399999999999
 30
0.0000000000001768
 70
    32
  0
VERTEX
  5
6C534
  8
DETAIL
 10
10.405799999999999
 20
17.974599999999999
 30
0.0000000000001768
 70
    32
  0
VERTEX
  5
6C535
  8
DETAIL
 10
10.405799999999999
 20
17.974900000000002
 30
0.0000000000001768
 70
    32
  0
VERTEX
  5
6C536
  8
DETAIL
 10
10.405799999999999
 20
17.975200000000001
 30
0.0000000000001768
 70
    32
  0
VERTEX
  5
6C537
  8
DETAIL
 10
10.405799999999999
 20
17.9754
 30
0.0000000000001768
 70
    32
  0
SEQEND
  5
6C538
  8
DETAIL
  0
LINE
  5
3324A
  8
DETAIL
 10
10.33888672544008
 20
18.327147366432751
 30
0.0000000000001776
 11
10.12746179786483
 21
18.205081127583789
 31
0.0000000000001767
210
0.0000000000000006
220
0.8164965809277266
230
0.5773502691896251
1001
ACDBBLOCKREPETAG
1070
     1
1071
      708
1005
3324A
  0
POLYLINE
  5
3324B
  8
DETAIL
 66
     1
 10
0.0
 20
0.0
 30
0.0
 70
     8
  0
VERTEX
  5
6C539
  8
DETAIL
 10
10.338900000000001
 20
18.327100000000002
 30
0.0000000000001767
 70
    32
  0
VERTEX
  5
6C53A
  8
DETAIL
 10
10.339
 20
18.327200000000001
 30
0.0000000000001767
 70
    32
  0
VERTEX
  5
6C53B
  8
DETAIL
 10
10.3391
 20
18.327300000000001
 30
0.0000000000001767
 70
    32
  0
VERTEX
  5
6C53C
  8
DETAIL
 10
10.3392
 20
18.327400000000001
 30
0.0000000000001767
 70
    32
  0
VERTEX
  5
6C53D
  8
DETAIL
 10
10.3393
 20
18.327400000000001
 30
0.0000000000001767
 70
    32
  0
VERTEX
  5
6C53E
  8
DETAIL
 10
10.339499999999999
 20
18.327500000000001
 30
0.0000000000001767
 70
    32
  0
VERTEX
  5
6C53F
  8
DETAIL
 10
10.339600000000001
 20
18.3276
 30
0.0000000000001767
 70
    32
  0
VERTEX
  5
6C540
  8
DETAIL
 10
10.339700000000001
 20
18.3276
 30
0.0000000000001767
 70
    32
  0
VERTEX
  5
6C541
  8
DETAIL
 10
10.3398
 20
18.3277
 30
0.0000000000001767
 70
    32
  0
VERTEX
  5
6C542
  8
DETAIL
 10
10.3399
 20
18.3278
 30
0.0000000000001767
 70
    32
  0
VERTEX
  5
6C543
  8
DETAIL
 10
10.34
 20
18.3279
 30
0.0000000000001767
 70
    32
  0
VERTEX
  5
6C544
  8
DETAIL
 10
10.3401
 20
18.3279
 30
0.0000000000001767
 70
    32
  0
VERTEX
  5
6C545
  8
DETAIL
 10
10.340199999999999
 20
18.327999999999999
 30
0.0000000000001767
 70
    32
  0
VERTEX
  5
6C546
  8
DETAIL
 10
10.340299999999999
 20
18.328099999999999
 30
0.0000000000001767
 70
    32
  0
VERTEX
  5
6C547
  8
DETAIL
 10
10.340400000000001
 20
18.328199999999999
 30
0.0000000000001767
 70
    32
  0
VERTEX
  5
6C548
  8
DETAIL
 10
10.3405
 20
18.328199999999999
 30
0.0000000000001767
 70
    32
  0
VERTEX
  5
6C549
  8
DETAIL
 10
10.3406
 20
18.328299999999999
 30
0.0000000000001767
 70
    32
  0
VERTEX
  5
6C54A
  8
DETAIL
 10
10.3407
 20
18.328399999999998
 30
0.0000000000001767
 70
    32
  0
VERTEX
  5
6C54B
  8
DETAIL
 10
10.3407
 20
18.328499999999998
 30
0.0000000000001767
 70
    32
  0
VERTEX
  5
6C54C
  8
DETAIL
 10
10.3408
 20
18.328600000000002
 30
0.0000000000001767
 70
    32
  0
VERTEX
  5
6C54D
  8
DETAIL
 10
10.3409
 20
18.328700000000001
 30
0.0000000000001767
 70
    32
  0
VERTEX
  5
6C54E
  8
DETAIL
 10
10.340999999999999
 20
18.328700000000001
 30
0.0000000000001767
 70
    32
  0
VERTEX
  5
6C54F
  8
DETAIL
 10
10.341100000000001
 20
18.328800000000001
 30
0.0000000000001767
 70
    32
  0
VERTEX
  5
6C550
  8
DETAIL
 10
10.341200000000001
 20
18.328900000000001
 30
0.0000000000001767
 70
    32
  0
VERTEX
  5
6C551
  8
DETAIL
 10
10.341200000000001
 20
18.329000000000001
 30
0.0000000000001767
 70
    32
  0
VERTEX
  5
6C552
  8
DETAIL
 10
10.3413
 20
18.3291
 30
0.0000000000001767
 70
    32
  0
VERTEX
  5
6C553
  8
DETAIL
 10
10.3414
 20
18.3292
 30
0.0000000000001767
 70
    32
  0
VERTEX
  5
6C554
  8
DETAIL
 10
10.3415
 20
18.3292
 30
0.0000000000001767
 70
    32
  0
VERTEX
  5
6C555
  8
DETAIL
 10
10.3415
 20
18.3293
 30
0.0000000000001767
 70
    32
  0
VERTEX
  5
6C556
  8
DETAIL
 10
10.3416
 20
18.3294
 30
0.0000000000001767
 70
    32
  0
VERTEX
  5
6C557
  8
DETAIL
 10
10.341699999999999
 20
18.329499999999999
 30
0.0000000000001767
 70
    32
  0
VERTEX
  5
6C558
  8
DETAIL
 10
10.341699999999999
 20
18.329599999999999
 30
0.0000000000001767
 70
    32
  0
VERTEX
  5
6C559
  8
DETAIL
 10
10.341799999999999
 20
18.329699999999999
 30
0.0000000000001767
 70
    32
  0
VERTEX
  5
6C55A
  8
DETAIL
 10
10.341900000000001
 20
18.329799999999999
 30
0.0000000000001767
 70
    32
  0
VERTEX
  5
6C55B
  8
DETAIL
 10
10.341900000000001
 20
18.329899999999999
 30
0.0000000000001767
 70
    32
  0
VERTEX
  5
6C55C
  8
DETAIL
 10
10.342000000000001
 20
18.329899999999999
 30
0.0000000000001767
 70
    32
  0
VERTEX
  5
6C55D
  8
DETAIL
 10
10.3421
 20
18.329999999999998
 30
0.0000000000001767
 70
    32
  0
VERTEX
  5
6C55E
  8
DETAIL
 10
10.3421
 20
18.330100000000002
 30
0.0000000000001767
 70
    32
  0
VERTEX
  5
6C55F
  8
DETAIL
 10
10.3422
 20
18.330200000000001
 30
0.0000000000001767
 70
    32
  0
VERTEX
  5
6C560
  8
DETAIL
 10
10.3422
 20
18.330300000000001
 30
0.0000000000001767
 70
    32
  0
VERTEX
  5
6C561
  8
DETAIL
 10
10.3423
 20
18.330400000000001
 30
0.0000000000001767
 70
    32
  0
VERTEX
  5
6C562
  8
DETAIL
 10
10.3423
 20
18.330500000000001
 30
0.0000000000001767
 70
    32
  0
VERTEX
  5
6C563
  8
DETAIL
 10
10.3424
 20
18.3306
 30
0.0000000000001767
 70
    32
  0
VERTEX
  5
6C564
  8
DETAIL
 10
10.3424
 20
18.3307
 30
0.0000000000001767
 70
    32
  0
VERTEX
  5
6C565
  8
DETAIL
 10
10.3424
 20
18.3308
 30
0.0000000000001767
 70
    32
  0
VERTEX
  5
6C566
  8
DETAIL
 10
10.342499999999999
 20
18.3309
 30
0.0000000000001767
 70
    32
  0
VERTEX
  5
6C567
  8
DETAIL
 10
10.342499999999999
 20
18.331
 30
0.0000000000001767
 70
    32
  0
VERTEX
  5
6C568
  8
DETAIL
 10
10.342499999999999
 20
18.331
 30
0.0000000000001767
 70
    32
  0
VERTEX
  5
6C569
  8
DETAIL
 10
10.342599999999999
 20
18.331099999999999
 30
0.0000000000001767
 70
    32
  0
VERTEX
  5
6C56A
  8
DETAIL
 10
10.342599999999999
 20
18.331199999999999
 30
0.0000000000001767
 70
    32
  0
VERTEX
  5
6C56B
  8
DETAIL
 10
10.342599999999999
 20
18.331299999999999
 30
0.0000000000001767
 70
    32
  0
VERTEX
  5
6C56C
  8
DETAIL
 10
10.342700000000001
 20
18.331399999999999
 30
0.0000000000001767
 70
    32
  0
VERTEX
  5
6C56D
  8
DETAIL
 10
10.342700000000001
 20
18.331499999999998
 30
0.0000000000001767
 70
    32
  0
VERTEX
  5
6C56E
  8
DETAIL
 10
10.342700000000001
 20
18.331600000000002
 30
0.0000000000001767
 70
    32
  0
VERTEX
  5
6C56F
  8
DETAIL
 10
10.342700000000001
 20
18.331700000000001
 30
0.0000000000001767
 70
    32
  0
VERTEX
  5
6C570
  8
DETAIL
 10
10.3428
 20
18.331800000000001
 30
0.0000000000001767
 70
    32
  0
VERTEX
  5
6C571
  8
DETAIL
 10
10.3428
 20
18.331900000000001
 30
0.0000000000001767
 70
    32
  0
VERTEX
  5
6C572
  8
DETAIL
 10
10.3428
 20
18.332000000000001
 30
0.0000000000001767
 70
    32
  0
VERTEX
  5
6C573
  8
DETAIL
 10
10.3428
 20
18.332100000000001
 30
0.0000000000001767
 70
    32
  0
VERTEX
  5
6C574
  8
DETAIL
 10
10.3428
 20
18.3322
 30
0.0000000000001767
 70
    32
  0
VERTEX
  5
6C575
  8
DETAIL
 10
10.3428
 20
18.3323
 30
0.0000000000001767
 70
    32
  0
VERTEX
  5
6C576
  8
DETAIL
 10
10.3428
 20
18.3324
 30
0.0000000000001767
 70
    32
  0
VERTEX
  5
6C577
  8
DETAIL
 10
10.3428
 20
18.3325
 30
0.0000000000001767
 70
    32
  0
VERTEX
  5
6C578
  8
DETAIL
 10
10.3428
 20
18.332599999999999
 30
0.0000000000001767
 70
    32
  0
VERTEX
  5
6C579
  8
DETAIL
 10
10.3428
 20
18.332699999999999
 30
0.0000000000001767
 70
    32
  0
VERTEX
  5
6C57A
  8
DETAIL
 10
10.3428
 20
18.332799999999999
 30
0.0000000000001767
 70
    32
  0
VERTEX
  5
6C57B
  8
DETAIL
 10
10.3428
 20
18.332799999999999
 30
0.0000000000001767
 70
    32
  0
VERTEX
  5
6C57C
  8
DETAIL
 10
10.3428
 20
18.332899999999999
 30
0.0000000000001767
 70
    32
  0
VERTEX
  5
6C57D
  8
DETAIL
 10
10.3428
 20
18.332999999999998
 30
0.0000000000001767
 70
    32
  0
VERTEX
  5
6C57E
  8
DETAIL
 10
10.3428
 20
18.333100000000002
 30
0.0000000000001767
 70
    32
  0
VERTEX
  5
6C57F
  8
DETAIL
 10
10.3428
 20
18.333200000000001
 30
0.0000000000001767
 70
    32
  0
VERTEX
  5
6C580
  8
DETAIL
 10
10.3428
 20
18.333300000000001
 30
0.0000000000001767
 70
    32
  0
VERTEX
  5
6C581
  8
DETAIL
 10
10.3428
 20
18.333400000000001
 30
0.0000000000001767
 70
    32
  0
VERTEX
  5
6C582
  8
DETAIL
 10
10.3428
 20
18.333500000000001
 30
0.0000000000001767
 70
    32
  0
VERTEX
  5
6C583
  8
DETAIL
 10
10.342700000000001
 20
18.333600000000001
 30
0.0000000000001767
 70
    32
  0
VERTEX
  5
6C584
  8
DETAIL
 10
10.342700000000001
 20
18.3337
 30
0.0000000000001767
 70
    32
  0
VERTEX
  5
6C585
  8
DETAIL
 10
10.342700000000001
 20
18.3338
 30
0.0000000000001767
 70
    32
  0
VERTEX
  5
6C586
  8
DETAIL
 10
10.342700000000001
 20
18.3339
 30
0.0000000000001767
 70
    32
  0
VERTEX
  5
6C587
  8
DETAIL
 10
10.342599999999999
 20
18.334
 30
0.0000000000001767
 70
    32
  0
VERTEX
  5
6C588
  8
DETAIL
 10
10.342599999999999
 20
18.334099999999999
 30
0.0000000000001767
 70
    32
  0
VERTEX
  5
6C589
  8
DETAIL
 10
10.342599999999999
 20
18.334199999999999
 30
0.0000000000001767
 70
    32
  0
VERTEX
  5
6C58A
  8
DETAIL
 10
10.342499999999999
 20
18.334299999999999
 30
0.0000000000001767
 70
    32
  0
VERTEX
  5
6C58B
  8
DETAIL
 10
10.342499999999999
 20
18.334399999999999
 30
0.0000000000001767
 70
    32
  0
VERTEX
  5
6C58C
  8
DETAIL
 10
10.342499999999999
 20
18.334499999999998
 30
0.0000000000001767
 70
    32
  0
VERTEX
  5
6C58D
  8
DETAIL
 10
10.3424
 20
18.334599999999998
 30
0.0000000000001767
 70
    32
  0
VERTEX
  5
6C58E
  8
DETAIL
 10
10.3424
 20
18.334599999999998
 30
0.0000000000001767
 70
    32
  0
VERTEX
  5
6C58F
  8
DETAIL
 10
10.3424
 20
18.334700000000002
 30
0.0000000000001767
 70
    32
  0
VERTEX
  5
6C590
  8
DETAIL
 10
10.3423
 20
18.334800000000001
 30
0.0000000000001767
 70
    32
  0
VERTEX
  5
6C591
  8
DETAIL
 10
10.3423
 20
18.334900000000001
 30
0.0000000000001767
 70
    32
  0
VERTEX
  5
6C592
  8
DETAIL
 10
10.3422
 20
18.335000000000001
 30
0.0000000000001767
 70
    32
  0
VERTEX
  5
6C593
  8
DETAIL
 10
10.3422
 20
18.335100000000001
 30
0.0000000000001767
 70
    32
  0
VERTEX
  5
6C594
  8
DETAIL
 10
10.3421
 20
18.3352
 30
0.0000000000001767
 70
    32
  0
VERTEX
  5
6C595
  8
DETAIL
 10
10.3421
 20
18.3353
 30
0.0000000000001767
 70
    32
  0
VERTEX
  5
6C596
  8
DETAIL
 10
10.342000000000001
 20
18.3354
 30
0.0000000000001767
 70
    32
  0
VERTEX
  5
6C597
  8
DETAIL
 10
10.341900000000001
 20
18.3355
 30
0.0000000000001767
 70
    32
  0
VERTEX
  5
6C598
  8
DETAIL
 10
10.341900000000001
 20
18.335599999999999
 30
0.0000000000001767
 70
    32
  0
VERTEX
  5
6C599
  8
DETAIL
 10
10.341799999999999
 20
18.335599999999999
 30
0.0000000000001767
 70
    32
  0
VERTEX
  5
6C59A
  8
DETAIL
 10
10.341699999999999
 20
18.335699999999999
 30
0.0000000000001767
 70
    32
  0
VERTEX
  5
6C59B
  8
DETAIL
 10
10.341699999999999
 20
18.335799999999999
 30
0.0000000000001767
 70
    32
  0
VERTEX
  5
6C59C
  8
DETAIL
 10
10.3416
 20
18.335899999999999
 30
0.0000000000001767
 70
    32
  0
VERTEX
  5
6C59D
  8
DETAIL
 10
10.3415
 20
18.335999999999999
 30
0.0000000000001767
 70
    32
  0
VERTEX
  5
6C59E
  8
DETAIL
 10
10.3415
 20
18.336099999999998
 30
0.0000000000001767
 70
    32
  0
VERTEX
  5
6C59F
  8
DETAIL
 10
10.3414
 20
18.336200000000002
 30
0.0000000000001767
 70
    32
  0
VERTEX
  5
6C5A0
  8
DETAIL
 10
10.3413
 20
18.336200000000002
 30
0.0000000000001767
 70
    32
  0
VERTEX
  5
6C5A1
  8
DETAIL
 10
10.341200000000001
 20
18.336300000000001
 30
0.0000000000001767
 70
    32
  0
VERTEX
  5
6C5A2
  8
DETAIL
 10
10.341200000000001
 20
18.336400000000001
 30
0.0000000000001767
 70
    32
  0
VERTEX
  5
6C5A3
  8
DETAIL
 10
10.341100000000001
 20
18.336500000000001
 30
0.0000000000001767
 70
    32
  0
VERTEX
  5
6C5A4
  8
DETAIL
 10
10.340999999999999
 20
18.336600000000001
 30
0.0000000000001767
 70
    32
  0
VERTEX
  5
6C5A5
  8
DETAIL
 10
10.3409
 20
18.3367
 30
0.0000000000001767
 70
    32
  0
VERTEX
  5
6C5A6
  8
DETAIL
 10
10.3408
 20
18.3367
 30
0.0000000000001767
 70
    32
  0
VERTEX
  5
6C5A7
  8
DETAIL
 10
10.3407
 20
18.3368
 30
0.0000000000001767
 70
    32
  0
VERTEX
  5
6C5A8
  8
DETAIL
 10
10.3407
 20
18.3369
 30
0.0000000000001767
 70
    32
  0
VERTEX
  5
6C5A9
  8
DETAIL
 10
10.3406
 20
18.337
 30
0.0000000000001767
 70
    32
  0
VERTEX
  5
6C5AA
  8
DETAIL
 10
10.3405
 20
18.3371
 30
0.0000000000001767
 70
    32
  0
VERTEX
  5
6C5AB
  8
DETAIL
 10
10.340400000000001
 20
18.3371
 30
0.0000000000001767
 70
    32
  0
VERTEX
  5
6C5AC
  8
DETAIL
 10
10.340299999999999
 20
18.337199999999999
 30
0.0000000000001767
 70
    32
  0
VERTEX
  5
6C5AD
  8
DETAIL
 10
10.340199999999999
 20
18.337299999999999
 30
0.0000000000001767
 70
    32
  0
VERTEX
  5
6C5AE
  8
DETAIL
 10
10.3401
 20
18.337399999999999
 30
0.0000000000001767
 70
    32
  0
VERTEX
  5
6C5AF
  8
DETAIL
 10
10.34
 20
18.337499999999999
 30
0.0000000000001767
 70
    32
  0
VERTEX
  5
6C5B0
  8
DETAIL
 10
10.3399
 20
18.337499999999999
 30
0.0000000000001767
 70
    32
  0
VERTEX
  5
6C5B1
  8
DETAIL
 10
10.3398
 20
18.337599999999998
 30
0.0000000000001767
 70
    32
  0
VERTEX
  5
6C5B2
  8
DETAIL
 10
10.339700000000001
 20
18.337700000000002
 30
0.0000000000001767
 70
    32
  0
VERTEX
  5
6C5B3
  8
DETAIL
 10
10.339600000000001
 20
18.337700000000002
 30
0.0000000000001767
 70
    32
  0
VERTEX
  5
6C5B4
  8
DETAIL
 10
10.339499999999999
 20
18.337800000000001
 30
0.0000000000001767
 70
    32
  0
VERTEX
  5
6C5B5
  8
DETAIL
 10
10.3393
 20
18.337900000000001
 30
0.0000000000001767
 70
    32
  0
VERTEX
  5
6C5B6
  8
DETAIL
 10
10.3392
 20
18.338000000000001
 30
0.0000000000001767
 70
    32
  0
VERTEX
  5
6C5B7
  8
DETAIL
 10
10.3391
 20
18.338000000000001
 30
0.0000000000001767
 70
    32
  0
VERTEX
  5
6C5B8
  8
DETAIL
 10
10.339
 20
18.338100000000001
 30
0.0000000000001767
 70
    32
  0
VERTEX
  5
6C5B9
  8
DETAIL
 10
10.338900000000001
 20
18.338200000000001
 30
0.0000000000001767
 70
    32
  0
SEQEND
  5
6C5BA
  8
DETAIL
  0
LINE
  5
3324C
  8
DETAIL
 10
10.383434452655059
 20
18.36388971257465
 30
0.0000000000001776
 11
10.36469612295376
 21
18.374708292271809
 31
0.0000000000001767
210
0.0000000000000006
220
0.8164965809277266
230
0.5773502691896251
1001
ACDBBLOCKREPETAG
1070
     1
1071
      710
1005
3324C
  0
POLYLINE
  5
3324D
  8
DETAIL
 66
     1
 10
0.0
 20
0.0
 30
0.0
 70
     8
  0
VERTEX
  5
6C5BB
  8
DETAIL
 10
10.3834
 20
18.301400000000001
 30
0.0000000000001768
 70
    32
  0
VERTEX
  5
6C5BC
  8
DETAIL
 10
10.3841
 20
18.3018
 30
0.0000000000001768
 70
    32
  0
VERTEX
  5
6C5BD
  8
DETAIL
 10
10.3847
 20
18.302199999999999
 30
0.0000000000001768
 70
    32
  0
VERTEX
  5
6C5BE
  8
DETAIL
 10
10.385400000000001
 20
18.302600000000002
 30
0.0000000000001768
 70
    32
  0
VERTEX
  5
6C5BF
  8
DETAIL
 10
10.385999999999999
 20
18.303000000000001
 30
0.0000000000001768
 70
    32
  0
VERTEX
  5
6C5C0
  8
DETAIL
 10
10.3866
 20
18.3034
 30
0.0000000000001768
 70
    32
  0
VERTEX
  5
6C5C1
  8
DETAIL
 10
10.3873
 20
18.303799999999999
 30
0.0000000000001768
 70
    32
  0
VERTEX
  5
6C5C2
  8
DETAIL
 10
10.3879
 20
18.304200000000002
 30
0.0000000000001768
 70
    32
  0
VERTEX
  5
6C5C3
  8
DETAIL
 10
10.388500000000001
 20
18.304600000000001
 30
0.0000000000001768
 70
    32
  0
VERTEX
  5
6C5C4
  8
DETAIL
 10
10.389099999999999
 20
18.305099999999999
 30
0.0000000000001768
 70
    32
  0
VERTEX
  5
6C5C5
  8
DETAIL
 10
10.3896
 20
18.305499999999999
 30
0.0000000000001768
 70
    32
  0
VERTEX
  5
6C5C6
  8
DETAIL
 10
10.3902
 20
18.305900000000001
 30
0.0000000000001768
 70
    32
  0
VERTEX
  5
6C5C7
  8
DETAIL
 10
10.3908
 20
18.3063
 30
0.0000000000001768
 70
    32
  0
VERTEX
  5
6C5C8
  8
DETAIL
 10
10.391299999999999
 20
18.306799999999999
 30
0.0000000000001768
 70
    32
  0
VERTEX
  5
6C5C9
  8
DETAIL
 10
10.3919
 20
18.307200000000002
 30
0.0000000000001768
 70
    32
  0
VERTEX
  5
6C5CA
  8
DETAIL
 10
10.3924
 20
18.307700000000001
 30
0.0000000000001768
 70
    32
  0
VERTEX
  5
6C5CB
  8
DETAIL
 10
10.392899999999999
 20
18.3081
 30
0.0000000000001768
 70
    32
  0
VERTEX
  5
6C5CC
  8
DETAIL
 10
10.3935
 20
18.308599999999998
 30
0.0000000000001768
 70
    32
  0
VERTEX
  5
6C5CD
  8
DETAIL
 10
10.394
 20
18.309000000000001
 30
0.0000000000001768
 70
    32
  0
VERTEX
  5
6C5CE
  8
DETAIL
 10
10.394500000000001
 20
18.3095
 30
0.0000000000001768
 70
    32
  0
VERTEX
  5
6C5CF
  8
DETAIL
 10
10.395
 20
18.309999999999999
 30
0.0000000000001768
 70
    32
  0
VERTEX
  5
6C5D0
  8
DETAIL
 10
10.3954
 20
18.310400000000001
 30
0.0000000000001768
 70
    32
  0
VERTEX
  5
6C5D1
  8
DETAIL
 10
10.395899999999999
 20
18.3109
 30
0.0000000000001768
 70
    32
  0
VERTEX
  5
6C5D2
  8
DETAIL
 10
10.3964
 20
18.311399999999999
 30
0.0000000000001768
 70
    32
  0
VERTEX
  5
6C5D3
  8
DETAIL
 10
10.396800000000001
 20
18.311800000000002
 30
0.0000000000001768
 70
    32
  0
VERTEX
  5
6C5D4
  8
DETAIL
 10
10.3972
 20
18.3123
 30
0.0000000000001768
 70
    32
  0
VERTEX
  5
6C5D5
  8
DETAIL
 10
10.3977
 20
18.312799999999999
 30
0.0000000000001768
 70
    32
  0
VERTEX
  5
6C5D6
  8
DETAIL
 10
10.398099999999999
 20
18.313300000000002
 30
0.0000000000001768
 70
    32
  0
VERTEX
  5
6C5D7
  8
DETAIL
 10
10.3985
 20
18.313800000000001
 30
0.0000000000001768
 70
    32
  0
VERTEX
  5
6C5D8
  8
DETAIL
 10
10.398899999999999
 20
18.314299999999999
 30
0.0000000000001768
 70
    32
  0
VERTEX
  5
6C5D9
  8
DETAIL
 10
10.3993
 20
18.314800000000002
 30
0.0000000000001768
 70
    32
  0
VERTEX
  5
6C5DA
  8
DETAIL
 10
10.399699999999999
 20
18.315300000000001
 30
0.0000000000001768
 70
    32
  0
VERTEX
  5
6C5DB
  8
DETAIL
 10
10.4
 20
18.315799999999999
 30
0.0000000000001768
 70
    32
  0
VERTEX
  5
6C5DC
  8
DETAIL
 10
10.400399999999999
 20
18.316299999999998
 30
0.0000000000001768
 70
    32
  0
VERTEX
  5
6C5DD
  8
DETAIL
 10
10.400700000000001
 20
18.316800000000001
 30
0.0000000000001768
 70
    32
  0
VERTEX
  5
6C5DE
  8
DETAIL
 10
10.401
 20
18.317299999999999
 30
0.0000000000001768
 70
    32
  0
VERTEX
  5
6C5DF
  8
DETAIL
 10
10.401400000000001
 20
18.317799999999998
 30
0.0000000000001768
 70
    32
  0
VERTEX
  5
6C5E0
  8
DETAIL
 10
10.4017
 20
18.318300000000001
 30
0.0000000000001768
 70
    32
  0
VERTEX
  5
6C5E1
  8
DETAIL
 10
10.401999999999999
 20
18.3188
 30
0.0000000000001768
 70
    32
  0
VERTEX
  5
6C5E2
  8
DETAIL
 10
10.4023
 20
18.319299999999998
 30
0.0000000000001768
 70
    32
  0
VERTEX
  5
6C5E3
  8
DETAIL
 10
10.4025
 20
18.319800000000001
 30
0.0000000000001768
 70
    32
  0
VERTEX
  5
6C5E4
  8
DETAIL
 10
10.402799999999999
 20
18.320399999999999
 30
0.0000000000001768
 70
    32
  0
VERTEX
  5
6C5E5
  8
DETAIL
 10
10.4031
 20
18.320900000000002
 30
0.0000000000001768
 70
    32
  0
VERTEX
  5
6C5E6
  8
DETAIL
 10
10.4033
 20
18.321400000000001
 30
0.0000000000001768
 70
    32
  0
VERTEX
  5
6C5E7
  8
DETAIL
 10
10.403499999999999
 20
18.321899999999999
 30
0.0000000000001768
 70
    32
  0
VERTEX
  5
6C5E8
  8
DETAIL
 10
10.4038
 20
18.322500000000002
 30
0.0000000000001768
 70
    32
  0
VERTEX
  5
6C5E9
  8
DETAIL
 10
10.404
 20
18.323
 30
0.0000000000001768
 70
    32
  0
VERTEX
  5
6C5EA
  8
DETAIL
 10
10.404199999999999
 20
18.323499999999999
 30
0.0000000000001768
 70
    32
  0
VERTEX
  5
6C5EB
  8
DETAIL
 10
10.404400000000001
 20
18.324000000000002
 30
0.0000000000001768
 70
    32
  0
VERTEX
  5
6C5EC
  8
DETAIL
 10
10.404500000000001
 20
18.3246
 30
0.0000000000001768
 70
    32
  0
VERTEX
  5
6C5ED
  8
DETAIL
 10
10.4047
 20
18.325099999999999
 30
0.0000000000001768
 70
    32
  0
VERTEX
  5
6C5EE
  8
DETAIL
 10
10.4049
 20
18.325600000000001
 30
0.0000000000001768
 70
    32
  0
VERTEX
  5
6C5EF
  8
DETAIL
 10
10.404999999999999
 20
18.3262
 30
0.0000000000001768
 70
    32
  0
VERTEX
  5
6C5F0
  8
DETAIL
 10
10.405099999999999
 20
18.326699999999999
 30
0.0000000000001768
 70
    32
  0
VERTEX
  5
6C5F1
  8
DETAIL
 10
10.4053
 20
18.327300000000001
 30
0.0000000000001768
 70
    32
  0
VERTEX
  5
6C5F2
  8
DETAIL
 10
10.4054
 20
18.3278
 30
0.0000000000001768
 70
    32
  0
VERTEX
  5
6C5F3
  8
DETAIL
 10
10.4055
 20
18.328299999999999
 30
0.0000000000001768
 70
    32
  0
VERTEX
  5
6C5F4
  8
DETAIL
 10
10.4056
 20
18.328900000000001
 30
0.0000000000001768
 70
    32
  0
VERTEX
  5
6C5F5
  8
DETAIL
 10
10.4056
 20
18.3294
 30
0.0000000000001768
 70
    32
  0
VERTEX
  5
6C5F6
  8
DETAIL
 10
10.4057
 20
18.329999999999998
 30
0.0000000000001768
 70
    32
  0
VERTEX
  5
6C5F7
  8
DETAIL
 10
10.4057
 20
18.330500000000001
 30
0.0000000000001768
 70
    32
  0
VERTEX
  5
6C5F8
  8
DETAIL
 10
10.405799999999999
 20
18.331
 30
0.0000000000001768
 70
    32
  0
VERTEX
  5
6C5F9
  8
DETAIL
 10
10.405799999999999
 20
18.331600000000002
 30
0.0000000000001768
 70
    32
  0
VERTEX
  5
6C5FA
  8
DETAIL
 10
10.405799999999999
 20
18.332100000000001
 30
0.0000000000001768
 70
    32
  0
VERTEX
  5
6C5FB
  8
DETAIL
 10
10.405799999999999
 20
18.332699999999999
 30
0.0000000000001768
 70
    32
  0
VERTEX
  5
6C5FC
  8
DETAIL
 10
10.405799999999999
 20
18.333200000000001
 30
0.0000000000001768
 70
    32
  0
VERTEX
  5
6C5FD
  8
DETAIL
 10
10.405799999999999
 20
18.3337
 30
0.0000000000001768
 70
    32
  0
VERTEX
  5
6C5FE
  8
DETAIL
 10
10.405799999999999
 20
18.334299999999999
 30
0.0000000000001768
 70
    32
  0
VERTEX
  5
6C5FF
  8
DETAIL
 10
10.4057
 20
18.334800000000001
 30
0.0000000000001768
 70
    32
  0
VERTEX
  5
6C600
  8
DETAIL
 10
10.4057
 20
18.3354
 30
0.0000000000001768
 70
    32
  0
VERTEX
  5
6C601
  8
DETAIL
 10
10.4056
 20
18.335899999999999
 30
0.0000000000001768
 70
    32
  0
VERTEX
  5
6C602
  8
DETAIL
 10
10.4056
 20
18.336400000000001
 30
0.0000000000001768
 70
    32
  0
VERTEX
  5
6C603
  8
DETAIL
 10
10.4055
 20
18.337
 30
0.0000000000001768
 70
    32
  0
VERTEX
  5
6C604
  8
DETAIL
 10
10.4054
 20
18.337499999999999
 30
0.0000000000001768
 70
    32
  0
VERTEX
  5
6C605
  8
DETAIL
 10
10.4053
 20
18.338100000000001
 30
0.0000000000001768
 70
    32
  0
VERTEX
  5
6C606
  8
DETAIL
 10
10.405099999999999
 20
18.3386
 30
0.0000000000001768
 70
    32
  0
VERTEX
  5
6C607
  8
DETAIL
 10
10.404999999999999
 20
18.339099999999998
 30
0.0000000000001768
 70
    32
  0
VERTEX
  5
6C608
  8
DETAIL
 10
10.4049
 20
18.339700000000001
 30
0.0000000000001768
 70
    32
  0
VERTEX
  5
6C609
  8
DETAIL
 10
10.4047
 20
18.340199999999999
 30
0.0000000000001768
 70
    32
  0
VERTEX
  5
6C60A
  8
DETAIL
 10
10.404500000000001
 20
18.340699999999998
 30
0.0000000000001768
 70
    32
  0
VERTEX
  5
6C60B
  8
DETAIL
 10
10.404400000000001
 20
18.3413
 30
0.0000000000001768
 70
    32
  0
VERTEX
  5
6C60C
  8
DETAIL
 10
10.404199999999999
 20
18.341799999999999
 30
0.0000000000001768
 70
    32
  0
VERTEX
  5
6C60D
  8
DETAIL
 10
10.404
 20
18.342300000000002
 30
0.0000000000001768
 70
    32
  0
VERTEX
  5
6C60E
  8
DETAIL
 10
10.4038
 20
18.3429
 30
0.0000000000001768
 70
    32
  0
VERTEX
  5
6C60F
  8
DETAIL
 10
10.403499999999999
 20
18.343399999999999
 30
0.0000000000001768
 70
    32
  0
VERTEX
  5
6C610
  8
DETAIL
 10
10.4033
 20
18.343900000000001
 30
0.0000000000001768
 70
    32
  0
VERTEX
  5
6C611
  8
DETAIL
 10
10.4031
 20
18.3444
 30
0.0000000000001768
 70
    32
  0
VERTEX
  5
6C612
  8
DETAIL
 10
10.402799999999999
 20
18.344999999999999
 30
0.0000000000001768
 70
    32
  0
VERTEX
  5
6C613
  8
DETAIL
 10
10.4025
 20
18.345500000000001
 30
0.0000000000001768
 70
    32
  0
VERTEX
  5
6C614
  8
DETAIL
 10
10.4023
 20
18.346
 30
0.0000000000001768
 70
    32
  0
VERTEX
  5
6C615
  8
DETAIL
 10
10.401999999999999
 20
18.346499999999999
 30
0.0000000000001768
 70
    32
  0
VERTEX
  5
6C616
  8
DETAIL
 10
10.4017
 20
18.347000000000001
 30
0.0000000000001768
 70
    32
  0
VERTEX
  5
6C617
  8
DETAIL
 10
10.401400000000001
 20
18.3475
 30
0.0000000000001768
 70
    32
  0
VERTEX
  5
6C618
  8
DETAIL
 10
10.401
 20
18.347999999999999
 30
0.0000000000001768
 70
    32
  0
VERTEX
  5
6C619
  8
DETAIL
 10
10.400700000000001
 20
18.348600000000001
 30
0.0000000000001768
 70
    32
  0
VERTEX
  5
6C61A
  8
DETAIL
 10
10.400399999999999
 20
18.3491
 30
0.0000000000001768
 70
    32
  0
VERTEX
  5
6C61B
  8
DETAIL
 10
10.4
 20
18.349599999999999
 30
0.0000000000001768
 70
    32
  0
VERTEX
  5
6C61C
  8
DETAIL
 10
10.399699999999999
 20
18.350100000000001
 30
0.0000000000001768
 70
    32
  0
VERTEX
  5
6C61D
  8
DETAIL
 10
10.3993
 20
18.3506
 30
0.0000000000001768
 70
    32
  0
VERTEX
  5
6C61E
  8
DETAIL
 10
10.398899999999999
 20
18.351099999999999
 30
0.0000000000001768
 70
    32
  0
VERTEX
  5
6C61F
  8
DETAIL
 10
10.3985
 20
18.351500000000001
 30
0.0000000000001768
 70
    32
  0
VERTEX
  5
6C620
  8
DETAIL
 10
10.398099999999999
 20
18.352
 30
0.0000000000001768
 70
    32
  0
VERTEX
  5
6C621
  8
DETAIL
 10
10.3977
 20
18.352499999999999
 30
0.0000000000001768
 70
    32
  0
VERTEX
  5
6C622
  8
DETAIL
 10
10.3972
 20
18.353000000000002
 30
0.0000000000001768
 70
    32
  0
VERTEX
  5
6C623
  8
DETAIL
 10
10.396800000000001
 20
18.3535
 30
0.0000000000001768
 70
    32
  0
VERTEX
  5
6C624
  8
DETAIL
 10
10.3964
 20
18.353999999999999
 30
0.0000000000001768
 70
    32
  0
VERTEX
  5
6C625
  8
DETAIL
 10
10.395899999999999
 20
18.354399999999998
 30
0.0000000000001768
 70
    32
  0
VERTEX
  5
6C626
  8
DETAIL
 10
10.3954
 20
18.354900000000001
 30
0.0000000000001768
 70
    32
  0
VERTEX
  5
6C627
  8
DETAIL
 10
10.395
 20
18.355399999999999
 30
0.0000000000001768
 70
    32
  0
VERTEX
  5
6C628
  8
DETAIL
 10
10.394500000000001
 20
18.355799999999999
 30
0.0000000000001768
 70
    32
  0
VERTEX
  5
6C629
  8
DETAIL
 10
10.394
 20
18.356300000000001
 30
0.0000000000001768
 70
    32
  0
VERTEX
  5
6C62A
  8
DETAIL
 10
10.3935
 20
18.3567
 30
0.0000000000001768
 70
    32
  0
VERTEX
  5
6C62B
  8
DETAIL
 10
10.392899999999999
 20
18.357199999999999
 30
0.0000000000001768
 70
    32
  0
VERTEX
  5
6C62C
  8
DETAIL
 10
10.3924
 20
18.357600000000001
 30
0.0000000000001768
 70
    32
  0
VERTEX
  5
6C62D
  8
DETAIL
 10
10.3919
 20
18.3581
 30
0.0000000000001768
 70
    32
  0
VERTEX
  5
6C62E
  8
DETAIL
 10
10.391299999999999
 20
18.358499999999999
 30
0.0000000000001768
 70
    32
  0
VERTEX
  5
6C62F
  8
DETAIL
 10
10.3908
 20
18.359000000000002
 30
0.0000000000001768
 70
    32
  0
VERTEX
  5
6C630
  8
DETAIL
 10
10.3902
 20
18.359400000000001
 30
0.0000000000001768
 70
    32
  0
VERTEX
  5
6C631
  8
DETAIL
 10
10.3896
 20
18.3598
 30
0.0000000000001768
 70
    32
  0
VERTEX
  5
6C632
  8
DETAIL
 10
10.389099999999999
 20
18.360299999999999
 30
0.0000000000001768
 70
    32
  0
VERTEX
  5
6C633
  8
DETAIL
 10
10.388500000000001
 20
18.360700000000001
 30
0.0000000000001768
 70
    32
  0
VERTEX
  5
6C634
  8
DETAIL
 10
10.3879
 20
18.3611
 30
0.0000000000001768
 70
    32
  0
VERTEX
  5
6C635
  8
DETAIL
 10
10.3873
 20
18.361499999999999
 30
0.0000000000001768
 70
    32
  0
VERTEX
  5
6C636
  8
DETAIL
 10
10.3866
 20
18.361899999999999
 30
0.0000000000001767
 70
    32
  0
VERTEX
  5
6C637
  8
DETAIL
 10
10.385999999999999
 20
18.362300000000001
 30
0.0000000000001767
 70
    32
  0
VERTEX
  5
6C638
  8
DETAIL
 10
10.385400000000001
 20
18.3627
 30
0.0000000000001767
 70
    32
  0
VERTEX
  5
6C639
  8
DETAIL
 10
10.3847
 20
18.363099999999999
 30
0.0000000000001767
 70
    32
  0
VERTEX
  5
6C63A
  8
DETAIL
 10
10.3841
 20
18.363499999999998
 30
0.0000000000001767
 70
    32
  0
VERTEX
  5
6C63B
  8
DETAIL
 10
10.3834
 20
18.363900000000001
 30
0.0000000000001767
 70
    32
  0
SEQEND
  5
6C63C
  8
DETAIL
  0
LINE
  5
3324E
  8
DETAIL
 10
10.172009525079661
 20
18.17936148528452
 30
0.0000000000001767
 11
10.38343445265499
 21
18.30142772413344
 31
0.0000000000001767
210
0.0000000000000006
220
0.8164965809277266
230
0.5773502691896251
1001
ACDBBLOCKREPETAG
1070
     1
1071
      712
1005
3324E
  0
LINE
  5
3324F
  8
DETAIL
 10
10.127461797864839
 20
18.205081127583782
 30
0.0000000000001767
 11
10.17200952507959
 21
18.179361485284559
 31
0.0000000000001785
210
0.0000000000000006
220
0.8164965809277266
230
0.5773502691896251
1001
ACDBBLOCKREPETAG
1070
     1
1071
      713
1005
3324F
  0
LINE
  5
33250
  8
DETAIL
 10
10.320148395738819
 20
18.348988649972469
 30
0.0000000000001767
 11
10.33888672544008
 21
18.338170070275289
 31
0.0000000000001776
210
0.0000000000000006
220
0.8164965809277266
230
0.5773502691896251
1001
ACDBBLOCKREPETAG
1070
     1
1071
      714
1005
33250
  0
LINE
  5
33251
  8
DETAIL
 10
9.0262431582995717
 20
17.403578666487171
 30
0.0000000000001767
 11
9.2554768786032771
 21
17.561305049871461
 31
0.0000000000001767
210
0.0000000000000006
220
0.8164965809277266
230
0.5773502691896251
1001
ACDBBLOCKREPETAG
1070
     1
1071
      715
1005
33251
  0
LINE
  5
33252
  8
GRID
 10
9.0165439977924677
 20
17.40827746745094
 30
0.0000000000001776
 11
9.0262431582991596
 21
17.403578666487181
 31
0.0000000000001785
210
0.0000000000000006
220
0.8164965809277266
230
0.5773502691896251
1001
ACDBBLOCKREPETAG
1070
     1
1071
      716
1005
33252
  0
LINE
  5
33253
  8
DETAIL
 10
9.0262431582993354
 20
17.531156257257258
 30
0.0000000000001767
 11
9.0262431582993354
 21
17.403578666487299
 31
0.0000000000001776
210
0.0000000000000006
220
0.8164965809277266
230
0.5773502691896251
1001
ACDBBLOCKREPETAG
1070
     1
1071
      717
1005
33253
  0
LINE
  5
33254
  8
DETAIL
 10
9.0338327724122465
 20
17.53637836150844
 30
0.0000000000001776
 11
9.0262431582993354
 21
17.531156257257258
 31
0.0000000000001767
210
0.0000000000000006
220
0.8164965809277266
230
0.5773502691896251
1001
ACDBBLOCKREPETAG
1070
     1
1071
      718
1005
33254
  0
LINE
  5
33255
  8
DETAIL
 10
9.0023421207116652
 20
17.542735220031659
 30
0.0000000000001803
 11
9.0262431582992022
 21
17.53115625725712
 31
0.0000000000001776
210
0.0000000000000006
220
0.8164965809277266
230
0.5773502691896251
1001
ACDBBLOCKREPETAG
1070
     1
1071
      719
1005
33255
  0
LINE
  5
33256
  8
DETAIL
 10
9.0338327724122465
 20
17.56091635626796
 30
0.0000000000001759
 11
9.0023421207117291
 21
17.542735220031709
 31
0.0000000000001785
210
0.0000000000000006
220
0.8164965809277266
230
0.5773502691896251
1001
ACDBBLOCKREPETAG
1070
     1
1071
      720
1005
33256
  0
LINE
  5
33257
  8
DETAIL
 10
7.2312948769832186
 20
16.814057324178592
 30
0.0000000000001772
 11
9.0338327724122394
 21
17.854753063329039
 31
0.0000000000001776
210
0.0000000000000006
220
0.8164965809277266
230
0.5773502691896251
1001
ACDBBLOCKREPETAG
1070
     1
1071
      721
1005
33257
  0
LINE
  5
33258
  8
DETAIL
 10
7.2758426041977202
 20
16.175965246183718
 30
0.0000000000001781
 11
7.8047241546874524
 21
16.481315151728388
 31
0.0000000000001794
210
0.0000000000000006
220
0.8164965809277266
230
0.5773502691896251
1001
ACDBBLOCKREPETAG
1070
     1
1071
      722
1005
33258
  0
LINE
  5
33259
  8
DETAIL
 10
8.0035979368963979
 20
16.596134983421479
 30
0.0000000000001767
 11
8.5560251096981617
 21
16.915078960346239
 31
0.0000000000001794
210
0.0000000000000006
220
0.8164965809277266
230
0.5773502691896251
1001
ACDBBLOCKREPETAG
1070
     1
1071
      723
1005
33259
  0
LINE
  5
3325A
  8
DETAIL
 10
8.7548988919071018
 20
17.02989879203934
 30
0.0000000000001794
 11
9.0338327724122465
 21
17.190941343035082
 31
0.0000000000001776
210
0.0000000000000006
220
0.8164965809277266
230
0.5773502691896251
1001
ACDBBLOCKREPETAG
1070
     1
1071
      724
1005
3325A
  0
LINE
  5
3325B
  8
DETAIL
 10
9.0023421207117256
 20
17.542735220031709
 30
0.0000000000001803
 11
8.9964886459681832
 21
17.539355714812832
 31
0.0000000000001776
210
0.0000000000000006
220
0.8164965809277266
230
0.5773502691896251
1001
ACDBBLOCKREPETAG
1070
     1
1071
      725
1005
3325B
  0
LINE
  5
3325C
  8
DETAIL
 10
8.4009919479231652
 20
17.00458739803025
 30
0.0000000000001767
 11
8.4009919479231652
 21
17.31036536758744
 31
0.0000000000001767
210
0.0000000000000006
220
0.8164965809277266
230
0.5773502691896251
1001
ACDBBLOCKREPETAG
1070
     1
1071
      726
1005
3325C
  0
LINE
  5
3325D
  8
DETAIL
 10
8.4455396751379848
 20
17.336085009886681
 30
0.0000000000001776
 11
8.7103511646922769
 21
17.183196025108192
 31
0.0000000000001767
210
0.0000000000000006
220
0.8164965809277266
230
0.5773502691896251
1001
ACDBBLOCKREPETAG
1070
     1
1071
      727
1005
3325D
  0
LINE
  5
3325E
  8
DETAIL
 10
8.4455396751379848
 20
17.336085009886681
 30
0.0000000000001776
 11
8.4900874023528132
 21
17.361804652185938
 31
0.0000000000001794
210
0.0000000000000006
220
0.8164965809277266
230
0.5773502691896251
1001
ACDBBLOCKREPETAG
1070
     1
1071
      728
1005
3325E
  0
LINE
  5
3325F
  8
DETAIL
 10
8.7548988919071018
 20
17.208915667407449
 30
0.0000000000001776
 11
8.4900874023528132
 21
17.361804652185938
 31
0.0000000000001794
210
0.0000000000000006
220
0.8164965809277266
230
0.5773502691896251
1001
ACDBBLOCKREPETAG
1070
     1
1071
      729
1005
3325F
  0
LINE
  5
33260
  8
DETAIL
 10
8.7103511646922769
 20
17.183196025108192
 30
0.0000000000001767
 11
8.7103511646922769
 21
16.825978770952311
 31
0.0000000000001776
210
0.0000000000000006
220
0.8164965809277266
230
0.5773502691896251
1001
ACDBBLOCKREPETAG
1070
     1
1071
      730
1005
33260
  0
LINE
  5
33261
  8
DETAIL
 10
8.7103511646922769
 20
17.183196025108192
 30
0.0000000000001767
 11
8.7548988919071018
 21
17.208915667407449
 31
0.0000000000001776
210
0.0000000000000006
220
0.8164965809277266
230
0.5773502691896251
1001
ACDBBLOCKREPETAG
1070
     1
1071
      731
1005
33261
  0
LINE
  5
33262
  8
DETAIL
 10
8.7548988919071018
 20
16.851698413251569
 30
0.0000000000001767
 11
8.7548988919071018
 21
17.208915667407449
 31
0.0000000000001776
210
0.0000000000000006
220
0.8164965809277266
230
0.5773502691896251
1001
ACDBBLOCKREPETAG
1070
     1
1071
      732
1005
33262
  0
LINE
  5
33263
  8
DETAIL
 10
8.7103511646922769
 20
16.825978770952311
 30
0.0000000000001776
 11
8.4455396751379848
 21
16.978867755731169
 31
0.0000000000001767
210
0.0000000000000006
220
0.8164965809277266
230
0.5773502691896251
1001
ACDBBLOCKREPETAG
1070
     1
1071
      733
1005
33263
  0
LINE
  5
33264
  8
DETAIL
 10
8.7103511646922769
 20
16.825978770952311
 30
0.0000000000001776
 11
8.7548988919071018
 21
16.851698413251569
 31
0.0000000000001767
210
0.0000000000000006
220
0.8164965809277266
230
0.5773502691896251
1001
ACDBBLOCKREPETAG
1070
     1
1071
      734
1005
33264
  0
LINE
  5
33265
  8
DETAIL
 10
7.6496909929124541
 20
16.570823589412392
 30
0.0000000000001776
 11
7.6496909929124568
 21
16.87660155896959
 31
0.0000000000001776
210
0.0000000000000006
220
0.8164965809277266
230
0.5773502691896251
1001
ACDBBLOCKREPETAG
1070
     1
1071
      735
1005
33265
  0
LINE
  5
33266
  8
DETAIL
 10
7.2312948769832186
 20
16.201684888482792
 30
0.0000000000001767
 11
7.275842604197968
 21
16.175965246183569
 31
0.0000000000001763
210
0.0000000000000006
220
0.8164965809277266
230
0.5773502691896251
1001
ACDBBLOCKREPETAG
1070
     1
1071
      736
1005
33266
  0
LINE
  5
33267
  8
DETAIL
 10
7.2312948769832186
 20
16.814057324178592
 30
0.0000000000001772
 11
7.2312948769832186
 21
16.201684888482792
 31
0.0000000000001767
210
0.0000000000000006
220
0.8164965809277266
230
0.5773502691896251
1001
ACDBBLOCKREPETAG
1070
     1
1071
      737
1005
33267
  0
LINE
  5
33268
  8
DETAIL
 10
7.2312948769832186
 20
16.814057324178592
 30
0.0000000000001772
 11
7.275842604197968
 21
16.788337681879369
 31
0.0000000000001759
210
0.0000000000000006
220
0.8164965809277266
230
0.5773502691896251
1001
ACDBBLOCKREPETAG
1070
     1
1071
      738
1005
33268
  0
LINE
  5
33269
  8
DETAIL
 10
7.2758426041977202
 20
16.175965246183718
 30
0.0000000000001781
 11
7.2758426041977202
 21
16.788337681879511
 31
0.0000000000001794
210
0.0000000000000006
220
0.8164965809277266
230
0.5773502691896251
1001
ACDBBLOCKREPETAG
1070
     1
1071
      739
1005
33269
  0
LINE
  5
3326A
  8
DETAIL
 10
8.1807281855833764
 20
16.825978770952489
 30
0.0000000000001803
 11
8.1807281855833764
 21
17.183196025108359
 31
0.0000000000001776
210
0.0000000000000006
220
0.8164965809277266
230
0.5773502691896251
1001
ACDBBLOCKREPETAG
1070
     1
1071
      740
1005
3326A
  0
LINE
  5
3326B
  8
DETAIL
 10
7.4294272305726681
 20
16.392214962334641
 30
0.0000000000001785
 11
7.4294272305726681
 21
16.749432216490511
 31
0.0000000000001767
210
0.0000000000000006
220
0.8164965809277266
230
0.5773502691896251
1001
ACDBBLOCKREPETAG
1070
     1
1071
      741
1005
3326B
  0
LINE
  5
3326C
  8
DETAIL
 10
7.6942387201269611
 20
16.545103947113319
 30
0.0000000000001776
 11
7.4294272305726681
 21
16.392214962334641
 31
0.0000000000001785
210
0.0000000000000006
220
0.8164965809277266
230
0.5773502691896251
1001
ACDBBLOCKREPETAG
1070
     1
1071
      742
1005
3326C
  0
LINE
  5
3326D
  8
DETAIL
 10
7.4294272305729878
 20
16.44365424693299
 30
0.0000000000001767
 11
7.6496909929124541
 21
16.570823589412392
 31
0.0000000000001776
210
0.0000000000000006
220
0.8164965809277266
230
0.5773502691896251
1001
ACDBBLOCKREPETAG
1070
     1
1071
      743
1005
3326D
  0
LINE
  5
3326E
  8
DETAIL
 10
7.6942387201269611
 20
16.545103947113319
 30
0.0000000000001776
 11
7.6496909929124541
 21
16.570823589412392
 31
0.0000000000001776
210
0.0000000000000006
220
0.8164965809277266
230
0.5773502691896251
1001
ACDBBLOCKREPETAG
1070
     1
1071
      744
1005
3326E
  0
LINE
  5
3326F
  8
DETAIL
 10
7.4294272305726681
 20
16.749432216490511
 30
0.0000000000001767
 11
7.6942387201269611
 21
16.902321201269189
 31
0.0000000000001794
210
0.0000000000000006
220
0.8164965809277266
230
0.5773502691896251
1001
ACDBBLOCKREPETAG
1070
     1
1071
      745
1005
3326F
  0
LINE
  5
33270
  8
DETAIL
 10
8.4455396751376668
 20
16.978867755731169
 30
0.0000000000001776
 11
8.1807281855833764
 21
16.825978770952489
 31
0.0000000000001803
210
0.0000000000000006
220
0.8164965809277266
230
0.5773502691896251
1001
ACDBBLOCKREPETAG
1070
     1
1071
      746
1005
33270
  0
LINE
  5
33271
  8
DETAIL
 10
8.1807281855836962
 20
16.877418055550841
 30
0.0000000000001767
 11
8.4009919479231652
 21
17.00458739803025
 31
0.0000000000001767
210
0.0000000000000006
220
0.8164965809277266
230
0.5773502691896251
1001
ACDBBLOCKREPETAG
1070
     1
1071
      747
1005
33271
  0
LINE
  5
33272
  8
DETAIL
 10
8.4455396751379848
 20
16.978867755730981
 30
0.0000000000001776
 11
8.4009919479231652
 21
17.00458739803025
 31
0.0000000000001767
210
0.0000000000000006
220
0.8164965809277266
230
0.5773502691896251
1001
ACDBBLOCKREPETAG
1070
     1
1071
      748
1005
33272
  0
LINE
  5
33273
  8
DETAIL
 10
8.1807281855833764
 20
17.183196025108359
 30
0.0000000000001776
 11
8.4455396751376668
 21
17.33608500988705
 31
0.0000000000001785
210
0.0000000000000006
220
0.8164965809277266
230
0.5773502691896251
1001
ACDBBLOCKREPETAG
1070
     1
1071
      749
1005
33273
  0
LINE
  5
33274
  8
DETAIL
 10
8.9964886459682631
 20
17.53935571481286
 30
0.0000000000001776
 11
9.0165439977927235
 21
17.52555644432779
 31
0.0000000000001776
210
0.0000000000000006
220
0.8164965809277266
230
0.5773502691896251
1001
ACDBBLOCKREPETAG
1070
     1
1071
      750
1005
33274
  0
LINE
  5
33275
  8
DETAIL
 10
8.9964886459681797
 20
17.539355714812832
 30
0.0000000000001785
 11
8.7433538880768253
 21
17.393208294202999
 31
0.0000000000001767
210
0.0000000000000006
220
0.8164965809277266
230
0.5773502691896251
1001
ACDBBLOCKREPETAG
1070
     1
1071
      751
1005
33275
  0
LINE
  5
33276
  8
DETAIL
 10
8.7433538880767898
 20
17.393208294203031
 30
0.0000000000001767
 11
9.0165439977924677
 21
17.525556444327709
 31
0.0000000000001776
210
0.0000000000000006
220
0.8164965809277266
230
0.5773502691896251
1001
ACDBBLOCKREPETAG
1070
     1
1071
      752
1005
33276
  0
LINE
  5
33277
  8
DETAIL
 10
9.0165439977924677
 20
17.525556444327709
 30
0.0000000000001776
 11
9.0165439977924677
 21
17.397978853557749
 31
0.0000000000001767
210
0.0000000000000006
220
0.8164965809277266
230
0.5773502691896251
1001
ACDBBLOCKREPETAG
1070
     1
1071
      753
1005
33277
  0
LINE
  5
33278
  8
DETAIL
 10
9.0165439977926969
 20
17.397978853557621
 30
0.0000000000001794
 11
8.7433538880770172
 21
17.265630703432919
 31
0.0000000000001785
210
0.0000000000000006
220
0.8164965809277266
230
0.5773502691896251
1001
ACDBBLOCKREPETAG
1070
     1
1071
      754
1005
33278
  0
LINE
  5
33279
  8
DETAIL
 10
7.6942387201272791
 20
16.902321201268819
 30
0.0000000000001785
 11
7.9590502096815712
 21
16.74943221649033
 31
0.0000000000001794
210
0.0000000000000006
220
0.8164965809277266
230
0.5773502691896251
1001
ACDBBLOCKREPETAG
1070
     1
1071
      755
1005
33279
  0
LINE
  5
3327A
  8
DETAIL
 10
7.6942387201269611
 20
16.902321201269011
 30
0.0000000000001794
 11
7.738786447341786
 21
16.928040843568269
 31
0.0000000000001776
210
0.0000000000000006
220
0.8164965809277266
230
0.5773502691896251
1001
ACDBBLOCKREPETAG
1070
     1
1071
      756
1005
3327A
  0
LINE
  5
3327B
  8
DETAIL
 10
8.0035979368963979
 20
16.775151858789599
 30
0.0000000000001776
 11
7.7387864473421049
 21
16.928040843568091
 31
0.0000000000001794
210
0.0000000000000006
220
0.8164965809277266
230
0.5773502691896251
1001
ACDBBLOCKREPETAG
1070
     1
1071
      757
1005
3327B
  0
LINE
  5
3327C
  8
DETAIL
 10
7.9590502096815712
 20
16.74943221649033
 30
0.0000000000001794
 11
7.9590502096815712
 21
16.39221496233445
 31
0.0000000000001776
210
0.0000000000000006
220
0.8164965809277266
230
0.5773502691896251
1001
ACDBBLOCKREPETAG
1070
     1
1071
      758
1005
3327C
  0
LINE
  5
3327D
  8
DETAIL
 10
7.9590502096815712
 20
16.74943221649033
 30
0.0000000000001794
 11
8.0035979368963979
 21
16.775151858789599
 31
0.0000000000001776
210
0.0000000000000006
220
0.8164965809277266
230
0.5773502691896251
1001
ACDBBLOCKREPETAG
1070
     1
1071
      759
1005
3327D
  0
LINE
  5
3327E
  8
DETAIL
 10
8.0035979368963979
 20
16.417934604633722
 30
0.0000000000001767
 11
8.0035979368963979
 21
16.775151858789599
 31
0.0000000000001776
210
0.0000000000000006
220
0.8164965809277266
230
0.5773502691896251
1001
ACDBBLOCKREPETAG
1070
     1
1071
      760
1005
3327E
  0
LINE
  5
3327F
  8
DETAIL
 10
7.9590502096815712
 20
16.39221496233445
 30
0.0000000000001776
 11
7.6942387201269611
 21
16.5451039471135
 31
0.0000000000001767
210
0.0000000000000006
220
0.8164965809277266
230
0.5773502691896251
1001
ACDBBLOCKREPETAG
1070
     1
1071
      761
1005
3327F
  0
LINE
  5
33280
  8
DETAIL
 10
7.9590502096815712
 20
16.39221496233445
 30
0.0000000000001776
 11
8.0035979368963979
 21
16.417934604633722
 31
0.0000000000001767
210
0.0000000000000006
220
0.8164965809277266
230
0.5773502691896251
1001
ACDBBLOCKREPETAG
1070
     1
1071
      762
1005
33280
  0
LINE
  5
33281
  8
GRID
 10
9.2989978153581632
 20
17.515498733953599
 30
0.0000000000001776
 11
9.3308176205115512
 21
17.497127560882738
 31
0.0000000000001803
210
0.0000000000000006
220
0.8164965809277266
230
0.5773502691896251
1001
ACDBBLOCKREPETAG
1070
     1
1071
      763
1005
33281
  0
LINE
  5
33282
  8
GRID
 10
9.0656525775656345
 20
17.34403445195823
 30
0.0000000000001767
 11
9.0338327724122465
 21
17.362405625029101
 31
0.0000000000001767
210
0.0000000000000006
220
0.8164965809277266
230
0.5773502691896251
1001
ACDBBLOCKREPETAG
1070
     1
1071
      764
1005
33282
  0
LINE
  5
33283
  8
GRID
 10
9.0338327724122394
 20
17.51549873395297
 30
0.0000000000001776
 11
9.0656525775656345
 21
17.497127560882099
 31
0.0000000000001767
210
0.0000000000000006
220
0.8164965809277266
230
0.5773502691896251
1001
ACDBBLOCKREPETAG
1070
     1
1071
      765
1005
33283
  0
LINE
  5
33284
  8
GRID
 10
9.0656525775656345
 20
18.083576230133311
 30
0.0000000000001776
 11
9.0939368488130921
 21
18.06724629851476
 31
0.0000000000001794
210
0.0000000000000006
220
0.8164965809277266
230
0.5773502691896251
1001
ACDBBLOCKREPETAG
1070
     1
1071
      766
1005
33284
  0
LINE
  5
33285
  8
GRID
 10
10.31413798809845
 20
18.312858676266451
 30
0.0000000000001767
 11
10.31413798809845
 21
18.345518539503718
 31
0.0000000000001785
210
0.0000000000000006
220
0.8164965809277266
230
0.5773502691896251
1001
ACDBBLOCKREPETAG
1070
     1
1071
      767
1005
33285
  0
LINE
  5
33286
  8
GRID
 10
10.370706530593321
 20
18.378178402740801
 30
0.0000000000001785
 11
10.370706530593321
 21
18.371238181803172
 31
0.0000000000001767
210
0.0000000000000006
220
0.8164965809277266
230
0.5773502691896251
1001
ACDBBLOCKREPETAG
1070
     1
1071
      768
1005
33286
  0
LINE
  5
33287
  8
GRID
 10
10.31413798809846
 20
18.345518539503718
 30
0.0000000000001767
 11
10.370706530593321
 21
18.378178402740801
 31
0.0000000000001776
210
0.0000000000000006
220
0.8164965809277266
230
0.5773502691896251
1001
ACDBBLOCKREPETAG
1070
     1
1071
      769
1005
33287
  0
LINE
  5
33288
  8
GRID
 10
9.6194055755829382
 20
17.944414594122382
 30
0.0000000000001767
 11
9.6194055755829382
 21
17.93747437318514
 31
0.0000000000001803
210
0.0000000000000006
220
0.8164965809277266
230
0.5773502691896251
1001
ACDBBLOCKREPETAG
1070
     1
1071
      770
1005
33288
  0
LINE
  5
33289
  8
GRID
 10
9.5628370330883925
 20
17.911754730885502
 30
0.0000000000001794
 11
9.6194055755829382
 21
17.944414594122382
 31
0.0000000000001767
210
0.0000000000000006
220
0.8164965809277266
230
0.5773502691896251
1001
ACDBBLOCKREPETAG
1070
     1
1071
      771
1005
33289
  0
LINE
  5
3328A
  8
GRID
 10
9.5628370330883925
 20
17.87909486764897
 30
0.0000000000001785
 11
9.5628370330883925
 21
17.911754730885502
 31
0.0000000000001794
210
0.0000000000000006
220
0.8164965809277266
230
0.5773502691896251
1001
ACDBBLOCKREPETAG
1070
     1
1071
      772
1005
3328A
  0
LINE
  5
3328B
  8
GRID
 10
9.0656525775656291
 20
17.05315754500252
 30
0.0000000000001776
 11
9.0656525775656345
 21
17.34403445195823
 31
0.0000000000001759
210
0.0000000000000006
220
0.8164965809277266
230
0.5773502691896251
1001
ACDBBLOCKREPETAG
1070
     1
1071
      773
1005
3328B
  0
LINE
  5
3328C
  8
GRID
 10
9.3308176205115512
 20
17.497127560882731
 30
0.0000000000001759
 11
9.0656525775656345
 21
17.34403445195823
 31
0.0000000000001759
210
0.0000000000000006
220
0.8164965809277266
230
0.5773502691896251
1001
ACDBBLOCKREPETAG
1070
     1
1071
      774
1005
3328C
  0
LINE
  5
3328D
  8
GRID
 10
9.3308176205115512
 20
17.6502206698066
 30
0.0000000000001776
 11
9.3308176205115512
 21
17.497127560882738
 31
0.0000000000001803
210
0.0000000000000006
220
0.8164965809277266
230
0.5773502691896251
1001
ACDBBLOCKREPETAG
1070
     1
1071
      775
1005
3328D
  0
LINE
  5
3328E
  8
GRID
 10
9.0656525775656345
 20
17.497127560882092
 30
0.0000000000001776
 11
9.3308176205115512
 21
17.6502206698066
 31
0.0000000000001776
210
0.0000000000000006
220
0.8164965809277266
230
0.5773502691896251
1001
ACDBBLOCKREPETAG
1070
     1
1071
      776
1005
3328E
  0
LINE
  5
3328F
  8
GRID
 10
9.0656525775656345
 20
17.497127560882092
 30
0.0000000000001776
 11
9.0656525775656345
 21
18.083576230133311
 31
0.0000000000001776
210
0.0000000000000006
220
0.8164965809277266
230
0.5773502691896251
1001
ACDBBLOCKREPETAG
1070
     1
1071
      777
1005
3328F
  0
LINE
  5
33290
  8
GRID
 10
9.3812343340091822
 20
16.8709563329685
 30
0.0000000000001776
 11
9.0656525775656291
 21
17.05315754500252
 31
0.0000000000001794
210
0.0000000000000006
220
0.8164965809277266
230
0.5773502691896251
1001
ACDBBLOCKREPETAG
1070
     1
1071
      778
1005
33290
  0
LINE
  5
33291
  8
GRID
 10
9.0656525775656345
 20
17.05315754500252
 30
0.0000000000001794
 11
14.1171533362942
 21
19.96964286786605
 31
0.0000000000001794
210
0.0000000000000006
220
0.8164965809277266
230
0.5773502691896251
1001
ACDBBLOCKREPETAG
1070
     1
1071
      779
1005
33291
  0
LINE
  5
33292
  8
GRID
 10
14.37779227122957
 20
20.12012282711229
 30
0.0000000000001785
 11
17.5509339518042
 21
21.952137030568871
 31
0.0000000000001785
210
0.0000000000000006
220
0.8164965809277266
230
0.5773502691896251
1001
ACDBBLOCKREPETAG
1070
     1
1071
      780
1005
33292
  0
LINE
  5
33293
  8
GRID
 10
9.3812343340091928
 20
16.830131503922111
 30
0.0000000000001785
 11
9.3812343340091822
 21
16.8709563329685
 31
0.0000000000001776
210
0.0000000000000006
220
0.8164965809277266
230
0.5773502691896251
1001
ACDBBLOCKREPETAG
1070
     1
1071
      781
1005
33293
  0
LINE
  5
33294
  8
GRID
 10
9.3812343340091982
 20
16.87095633296849
 30
0.0000000000001812
 11
14.083212210797249
 21
19.585644525855731
 31
0.0000000000001803
210
0.0000000000000006
220
0.8164965809277266
230
0.5773502691896251
1001
ACDBBLOCKREPETAG
1070
     1
1071
      782
1005
33294
  0
LINE
  5
33295
  8
GRID
 10
14.69337402767313
 20
19.93792161507826
 30
0.0000000000001812
 11
17.566516586456491
 21
21.596731244811998
 31
0.0000000000001788
210
0.0000000000000006
220
0.8164965809277266
230
0.5773502691896251
1001
ACDBBLOCKREPETAG
1070
     1
1071
      783
1005
33295
  0
LINE
  5
33296
  8
GRID
 10
17.566516586456491
 20
21.596731244811998
 30
0.0000000000001788
 11
17.866515708247761
 21
21.76993581853484
 31
0.0000000000001785
210
0.0000000000000006
220
0.8164965809277266
230
0.5773502691896251
1001
ACDBBLOCKREPETAG
1070
     1
1071
      944
1005
33296
  0
LINE
  5
33297
  8
GRID
 10
8.8950630666034982
 20
17.11082261603104
 30
0.0000000000001785
 11
9.3812343340091822
 21
16.8301315039221
 31
0.0000000000001803
210
0.0000000000000006
220
0.8164965809277266
230
0.5773502691896251
1001
ACDBBLOCKREPETAG
1070
     1
1071
      784
1005
33297
  0
LINE
  5
33298
  8
GRID
 10
9.3812343340091982
 20
16.8301315039221
 30
0.0000000000001785
 11
14.07889823482202
 21
19.54232902161878
 31
0.0000000000001794
210
0.0000000000000006
220
0.8164965809277266
230
0.5773502691896251
1001
ACDBBLOCKREPETAG
1070
     1
1071
      785
1005
33298
  0
LINE
  5
33299
  8
GRID
 10
14.728729366732461
 20
19.91750920055507
 30
0.0000000000001821
 11
17.604045095454751
 21
21.577573510538041
 31
0.0000000000001804
210
0.0000000000000006
220
0.8164965809277266
230
0.5773502691896251
1001
ACDBBLOCKREPETAG
1070
     1
1071
      786
1005
33299
  0
LINE
  5
3329A
  8
GRID
 10
17.604045095454751
 20
21.577573510538041
 30
0.0000000000001804
 11
17.866515708247761
 21
21.729110989488461
 31
0.0000000000001803
210
0.0000000000000006
220
0.8164965809277266
230
0.5773502691896251
1001
ACDBBLOCKREPETAG
1070
     1
1071
      945
1005
3329A
  0
LINE
  5
3329B
  8
GRID
 10
13.286859090380201
 20
19.577943581858129
 30
0.0000000000001776
 11
13.286859090380201
 21
19.993234155332491
 31
0.0000000000001803
210
0.0000000000000006
220
0.8164965809277266
230
0.5773502691896251
1001
ACDBBLOCKREPETAG
1070
     1
1071
      787
1005
3329B
  0
LINE
  5
3329C
  8
GRID
 10
13.286859090380201
 20
19.993234155332491
 30
0.0000000000001803
 11
13.329727438989631
 21
20.017984207941861
 31
0.0000000000001803
210
0.0000000000000006
220
0.8164965809277266
230
0.5773502691896251
1001
ACDBBLOCKREPETAG
1070
     1
1071
      788
1005
3329C
  0
LINE
  5
3329D
  8
GRID
 10
13.329727438989631
 20
20.017984207941861
 30
0.0000000000001803
 11
13.329727438989631
 21
19.602693634467489
 31
0.0000000000001776
210
0.0000000000000006
220
0.8164965809277266
230
0.5773502691896251
1001
ACDBBLOCKREPETAG
1070
     1
1071
      789
1005
3329D
  0
LINE
  5
3329E
  8
GRID
 10
13.329727438989631
 20
19.602693634467489
 30
0.0000000000001776
 11
13.297907633836241
 21
19.621064807538371
 31
0.0000000000001812
210
0.0000000000000006
220
0.8164965809277266
230
0.5773502691896251
1001
ACDBBLOCKREPETAG
1070
     1
1071
      790
1005
3329E
  0
LINE
  5
3329F
  8
GRID
 10
13.329727438989631
 20
19.602693634467489
 30
0.0000000000001776
 11
13.286859090380201
 21
19.577943581858129
 31
0.0000000000001776
210
0.0000000000000006
220
0.8164965809277266
230
0.5773502691896251
1001
ACDBBLOCKREPETAG
1070
     1
1071
      791
1005
3329F
  0
LINE
  5
332A0
  8
GRID
 10
9.0338327724122394
 20
17.071528718073392
 30
0.0000000000001759
 11
8.9304184056628273
 21
17.13123503055424
 31
0.0000000000001794
210
0.0000000000000006
220
0.8164965809277266
230
0.5773502691896251
1001
ACDBBLOCKREPETAG
1070
     1
1071
      792
1005
332A0
  0
LINE
  5
332A1
  8
GRID
 10
13.286859090380201
 20
19.891417031690789
 30
0.0000000000001803
 11
13.297907633836241
 21
19.897795911229281
 31
0.0000000000001812
210
0.0000000000000006
220
0.8164965809277266
230
0.5773502691896251
1001
ACDBBLOCKREPETAG
1070
     1
1071
      793
1005
332A1
  0
LINE
  5
332A2
  8
GRID
 10
9.0338327724122394
 20
18.101947403204171
 30
0.0000000000001776
 11
9.0338327724122394
 21
17.51549873395297
 31
0.0000000000001776
210
0.0000000000000006
220
0.8164965809277266
230
0.5773502691896251
1001
ACDBBLOCKREPETAG
1070
     1
1071
      794
1005
332A2
  0
LINE
  5
332A3
  8
GRID
 10
9.2989978153581632
 20
17.515498733953599
 30
0.0000000000001776
 11
9.2989978153581632
 21
17.631849496735722
 31
0.0000000000001785
210
0.0000000000000006
220
0.8164965809277266
230
0.5773502691896251
1001
ACDBBLOCKREPETAG
1070
     1
1071
      795
1005
332A3
  0
LINE
  5
332A4
  8
GRID
 10
9.0338327724122394
 20
17.362405625029101
 30
0.0000000000001767
 11
9.2989978153581632
 21
17.515498733953599
 31
0.0000000000001776
210
0.0000000000000006
220
0.8164965809277266
230
0.5773502691896251
1001
ACDBBLOCKREPETAG
1070
     1
1071
      796
1005
332A4
  0
LINE
  5
332A5
  8
GRID
 10
9.0338327724122394
 20
17.362405625029101
 30
0.0000000000001776
 11
9.0338327724122394
 21
17.071528718073392
 31
0.0000000000001759
210
0.0000000000000006
220
0.8164965809277266
230
0.5773502691896251
1001
ACDBBLOCKREPETAG
1070
     1
1071
      797
1005
332A5
  0
LINE
  5
332A6
  8
GRID
 10
13.29790763383623
 20
19.621064807538371
 30
0.0000000000001794
 11
13.297907633836241
 21
19.99961303487099
 31
0.0000000000001794
210
0.0000000000000006
220
0.8164965809277266
230
0.5773502691896251
1001
ACDBBLOCKREPETAG
1070
     1
1071
      798
1005
332A6
  0
LINE
  5
332A7
  8
GRID
 10
13.286859090380201
 20
19.614685927999862
 30
0.0000000000001803
 11
13.29790763383623
 21
19.621064807538371
 31
0.0000000000001794
210
0.0000000000000006
220
0.8164965809277266
230
0.5773502691896251
1001
ACDBBLOCKREPETAG
1070
     1
1071
      799
1005
332A7
  0
LINE
  5
332A8
  8
GRID
 10
9.00554850116478
 20
18.118277334822729
 30
0.0000000000001785
 11
9.0338327724122394
 21
18.101947403204171
 31
0.0000000000001776
210
0.0000000000000006
220
0.8164965809277266
230
0.5773502691896251
1001
ACDBBLOCKREPETAG
1070
     1
1071
      800
1005
332A8
  0
LINE
  5
332A9
  8
GRID
 10
9.0055485011647747
 20
18.271778692037149
 30
0.0000000000001776
 11
9.00554850116478
 21
18.118277334822722
 31
0.0000000000001776
210
0.0000000000000006
220
0.8164965809277266
230
0.5773502691896251
1001
ACDBBLOCKREPETAG
1070
     1
1071
      801
1005
332A9
  0
LINE
  5
332AA
  8
GRID
 10
9.0939368488130921
 20
18.22074765572917
 30
0.0000000000001776
 11
9.0055485011647747
 21
18.271778692037149
 31
0.0000000000001776
210
0.0000000000000006
220
0.8164965809277266
230
0.5773502691896251
1001
ACDBBLOCKREPETAG
1070
     1
1071
      802
1005
332AA
  0
LINE
  5
332AB
  8
GRID
 10
17.49082987540335
 20
23.170758177603499
 30
0.0000000000001767
 11
9.0055485011647747
 21
18.271778692037149
 31
0.0000000000001741
210
0.0000000000000006
220
0.8164965809277266
230
0.5773502691896251
1001
ACDBBLOCKREPETAG
1070
     1
1071
      803
1005
332AB
  0
LINE
  5
332AC
  8
GRID
 10
9.0939368488130992
 20
18.06724629851475
 30
0.0000000000001776
 11
17.579218223051669
 21
22.9662257840811
 31
0.0000000000001803
210
0.0000000000000006
220
0.8164965809277266
230
0.5773502691896251
1001
ACDBBLOCKREPETAG
1070
     1
1071
      804
1005
332AC
  0
LINE
  5
332AD
  8
GRID
 10
9.0939368488130921
 20
18.06724629851476
 30
0.0000000000001794
 11
9.0939368488130921
 21
18.220747655729159
 31
0.0000000000001759
210
0.0000000000000006
220
0.8164965809277266
230
0.5773502691896251
1001
ACDBBLOCKREPETAG
1070
     1
1071
      805
1005
332AD
  0
LINE
  5
332AE
  8
GRID
 10
9.0939368488130921
 20
18.220747655729159
 30
0.0000000000001759
 11
17.579218223051662
 21
23.11972714129551
 31
0.0000000000001803
210
0.0000000000000006
220
0.8164965809277266
230
0.5773502691896251
1001
ACDBBLOCKREPETAG
1070
     1
1071
      806
1005
332AE
  0
LINE
  5
332AF
  8
GRID
 10
17.866515708247761
 20
21.729110989488461
 30
0.0000000000001803
 11
17.866515708247761
 21
21.76993581853484
 31
0.0000000000001785
210
0.0000000000000006
220
0.8164965809277266
230
0.5773502691896251
1001
ACDBBLOCKREPETAG
1070
     1
1071
      807
1005
332AF
  0
LINE
  5
332B0
  8
GRID
 10
17.866515708247761
 20
21.76993581853484
 30
0.0000000000001785
 11
17.550933951804211
 21
21.952137030568871
 31
0.0000000000001821
210
0.0000000000000006
220
0.8164965809277266
230
0.5773502691896251
1001
ACDBBLOCKREPETAG
1070
     1
1071
      808
1005
332B0
  0
LINE
  5
332B1
  8
GRID
 10
17.550933951804211
 20
21.95213703056886
 30
0.0000000000001803
 11
17.550933951804211
 21
22.14071644636094
 31
0.00000000000018
210
0.0000000000000006
220
0.8164965809277266
230
0.5773502691896251
1001
ACDBBLOCKREPETAG
1070
     1
1071
      809
1005
332B1
  0
LINE
  5
332B2
  8
GRID
 10
17.550933951804211
 20
22.14071644636094
 30
0.00000000000018
 11
17.550933951804211
 21
22.94989585246255
 31
0.0000000000001785
210
0.0000000000000006
220
0.8164965809277266
230
0.5773502691896251
1001
ACDBBLOCKREPETAG
1070
     1
1071
      946
1005
332B2
  0
LINE
  5
332B3
  8
GRID
 10
17.579218223051669
 20
22.9662257840811
 30
0.0000000000001785
 11
17.579218223051669
 21
23.11972714129551
 31
0.0000000000001821
210
0.0000000000000006
220
0.8164965809277266
230
0.5773502691896251
1001
ACDBBLOCKREPETAG
1070
     1
1071
      810
1005
332B3
  0
LINE
  5
332B4
  8
GRID
 10
17.579218223051669
 20
23.11972714129551
 30
0.0000000000001767
 11
17.49082987540336
 21
23.170758177603499
 31
0.0000000000001785
210
0.0000000000000006
220
0.8164965809277266
230
0.5773502691896251
1001
ACDBBLOCKREPETAG
1070
     1
1071
      811
1005
332B4
  0
LINE
  5
332B5
  8
GRID
 10
21.52869036486711
 20
19.6946860862971
 30
0.0000000000001856
 11
21.52869036486711
 21
20.632186086297111
 31
0.0000000000001856
210
0.0000000000000006
220
0.8164965809277266
230
0.5773502691896251
1001
ACDBBLOCKREPETAG
1070
     1
1071
      812
1005
332B5
  0
LINE
  5
332B6
  8
GRID
 10
20.716791548819199
 20
19.2259360862971
 30
0.0000000000001856
 11
21.52869036486711
 21
19.6946860862971
 31
0.0000000000001856
210
0.0000000000000006
220
0.8164965809277266
230
0.5773502691896251
1001
ACDBBLOCKREPETAG
1070
     1
1071
      813
1005
332B6
  0
LINE
  5
332B7
  8
GRID
 10
20.716791548819199
 20
19.266760915343479
 30
0.0000000000001856
 11
20.716791548819199
 21
19.2259360862971
 31
0.0000000000001856
210
0.0000000000000006
220
0.8164965809277266
230
0.5773502691896251
1001
ACDBBLOCKREPETAG
1070
     1
1071
      814
1005
332B7
  0
LINE
  5
332B8
  8
GRID
 10
20.716791548819199
 20
19.2259360862971
 30
0.0000000000001856
 11
17.123840572254121
 21
21.300327299802081
 31
0.0000000000001803
210
0.0000000000000006
220
0.8164965809277266
230
0.5773502691896251
1001
ACDBBLOCKREPETAG
1070
     1
1071
      815
1005
332B8
  0
LINE
  5
332B9
  8
GRID
 10
15.68749456762988
 20
22.12960205222133
 30
0.0000000000001785
 11
12.938616955767181
 21
23.716667281399602
 31
0.000000000000175
210
0.0000000000000006
220
0.8164965809277266
230
0.5773502691896251
1001
ACDBBLOCKREPETAG
1070
     1
1071
      816
1005
332B9
  0
LINE
  5
332BA
  8
GRID
 10
12.93861695576717
 20
23.757492110445991
 30
0.000000000000175
 11
12.938616955767181
 21
23.716667281399602
 31
0.000000000000175
210
0.0000000000000006
220
0.8164965809277266
230
0.5773502691896251
1001
ACDBBLOCKREPETAG
1070
     1
1071
      817
1005
332BA
  0
LINE
  5
332BB
  8
GRID
 10
21.49687055971372
 20
19.717139742272611
 30
0.0000000000001856
 11
20.716791548819199
 21
19.266760915343479
 31
0.0000000000001856
210
0.0000000000000006
220
0.8164965809277266
230
0.5773502691896251
1001
ACDBBLOCKREPETAG
1070
     1
1071
      818
1005
332BB
  0
LINE
  5
332BC
  8
GRID
 10
20.716791548819199
 20
19.266760915343479
 30
0.0000000000001856
 11
17.159195911313439
 21
21.320739714325271
 31
0.0000000000001785
210
0.0000000000000006
220
0.8164965809277266
230
0.5773502691896251
1001
ACDBBLOCKREPETAG
1070
     1
1071
      819
1005
332BC
  0
LINE
  5
332BD
  8
GRID
 10
15.722849906689209
 20
22.150014466744519
 30
0.0000000000001767
 11
12.93861695576717
 21
23.757492110445991
 31
0.000000000000175
210
0.0000000000000006
220
0.8164965809277266
230
0.5773502691896251
1001
ACDBBLOCKREPETAG
1070
     1
1071
      820
1005
332BD
  0
LINE
  5
332BE
  8
GRID
 10
13.7186959666617
 20
24.20787093737512
 30
0.000000000000175
 11
12.93861695576717
 21
23.757492110445991
 31
0.0000000000001749
210
0.0000000000000006
220
0.8164965809277266
230
0.5773502691896251
1001
ACDBBLOCKREPETAG
1070
     1
1071
      821
1005
332BE
  0
LINE
  5
332BF
  8
GRID
 10
21.49687055971372
 20
20.613814913226221
 30
0.0000000000001856
 11
21.49687055971372
 21
19.717139742272611
 31
0.0000000000001856
210
0.0000000000000006
220
0.8164965809277266
230
0.5773502691896251
1001
ACDBBLOCKREPETAG
1070
     1
1071
      822
1005
332BF
  0
LINE
  5
332C0
  8
GRID
 10
21.49687055971372
 20
19.717139742272611
 30
0.0000000000001856
 11
17.550933951804211
 21
21.995327305054371
 31
0.0000000000001817
210
0.0000000000000006
220
0.8164965809277266
230
0.5773502691896251
1001
ACDBBLOCKREPETAG
1070
     1
1071
      823
1005
332C0
  0
LINE
  5
332C1
  8
GRID
 10
16.502928917583741
 20
22.600393293673651
 30
0.0000000000001803
 11
13.7186959666617
 21
24.20787093737512
 31
0.000000000000175
210
0.0000000000000006
220
0.8164965809277266
230
0.5773502691896251
1001
ACDBBLOCKREPETAG
1070
     1
1071
      824
1005
332C1
  0
LINE
  5
332C2
  8
GRID
 10
13.7186959666617
 20
25.10454610832873
 30
0.0000000000001732
 11
13.7186959666617
 21
24.20787093737512
 31
0.000000000000175
210
0.0000000000000006
220
0.8164965809277266
230
0.5773502691896251
1001
ACDBBLOCKREPETAG
1070
     1
1071
      825
1005
332C2
  0
LINE
  5
332C3
  8
GRID
 10
21.52869036486711
 20
20.632186086297111
 30
0.0000000000001856
 11
17.550933951804211
 21
22.928744822149721
 31
0.0000000000001802
210
0.0000000000000006
220
0.8164965809277266
230
0.5773502691896251
1001
ACDBBLOCKREPETAG
1070
     1
1071
      826
1005
332C3
  0
LINE
  5
332C5
  8
GRID
 10
17.311292199725699
 20
23.06710205222133
 30
0.0000000000001811
 11
13.75051577181509
 21
25.122917281399602
 31
0.000000000000175
210
0.0000000000000006
220
0.8164965809277266
230
0.5773502691896251
1001
ACDBBLOCKREPETAG
1070
     1
1071
      827
1005
332C5
  0
LINE
  5
332C6
  8
GRID
 10
21.52869036486711
 20
20.632186086297111
 30
0.0000000000001856
 11
21.49687055971372
 21
20.613814913226221
 31
0.0000000000001856
210
0.0000000000000006
220
0.8164965809277266
230
0.5773502691896251
1001
ACDBBLOCKREPETAG
1070
     1
1071
      828
1005
332C6
  0
LINE
  5
332C7
  8
GRID
 10
21.49687055971372
 20
20.613814913226221
 30
0.0000000000001856
 11
17.550933951804211
 21
22.892002476007988
 31
0.0000000000001802
210
0.0000000000000006
220
0.8164965809277266
230
0.5773502691896251
1001
ACDBBLOCKREPETAG
1070
     1
1071
      829
1005
332C7
  0
POLYLINE
  5
332CE
  8
GRID
 66
     1
 10
0.0
 20
0.0
 30
0.0
 70
     1
1001
ACDBBLOCKREPETAG
1070
     1
1071
      894
1005
332CE
  0
VERTEX
  5
6CAF0
  8
GRID
 10
3.4656021899772811
 20
14.53122847129849
 30
0.0
 42
0.0587518675354915
  0
VERTEX
  5
6CAF1
  8
GRID
 10
3.4411436738285341
 20
14.474368868926501
 30
0.0
 42
0.0723410840578492
  0
VERTEX
  5
6CAF2
  8
GRID
 10
3.4338955689662072
 20
14.42453429747435
 30
0.0
 42
0.1066170543910642
  0
VERTEX
  5
6CAF3
  8
GRID
 10
3.443826417893304
 20
14.378491180479029
 30
0.0
 42
0.1568512196707582
  0
VERTEX
  5
6CAF4
  8
GRID
 10
3.4656021899772811
 20
14.354451776001881
 30
0.0
 42
0.1568512196708073
  0
VERTEX
  5
6CAF5
  8
GRID
 10
3.4973088109883559
 20
14.34761310642871
 30
0.0
 42
0.1066170543910275
  0
VERTEX
  5
6CAF6
  8
GRID
 10
3.5421487444392592
 20
14.36203429747435
 30
0.0
 42
0.072341084057813
  0
VERTEX
  5
6CAF7
  8
GRID
 10
3.5816826968723761
 20
14.3932286261405
 30
0.0
 42
0.0587518675354579
  0
VERTEX
  5
6CAF8
  8
GRID
 10
3.6186952989012351
 20
14.44284012365018
 30
0.0
 42
0.058751867535318
  0
VERTEX
  5
6CAF9
  8
GRID
 10
3.6431538150500189
 20
14.49969972602223
 30
0.0
 42
0.0723410840575392
  0
VERTEX
  5
6CAFA
  8
GRID
 10
3.6504019199123121
 20
14.54953429747435
 30
0.0
 42
0.1066170543910802
  0
VERTEX
  5
6CAFB
  8
GRID
 10
3.6404710709852122
 20
14.59557741446964
 30
0.0
 42
0.1568512196708335
  0
VERTEX
  5
6CAFC
  8
GRID
 10
3.6186952989012351
 20
14.61961681894682
 30
0.0
 42
0.1568512196707762
  0
VERTEX
  5
6CAFD
  8
GRID
 10
3.5869886778901541
 20
14.626455488519991
 30
0.0
 42
0.1066170543909677
  0
VERTEX
  5
6CAFE
  8
GRID
 10
3.5421487444392592
 20
14.61203429747435
 30
0.0
 42
0.0723410840575026
  0
VERTEX
  5
6CAFF
  8
GRID
 10
3.5026147920061259
 20
14.58083996880822
 30
0.0
 42
0.0587518675352278
  0
SEQEND
  5
6CB00
  8
GRID
  0
POLYLINE
  5
332E0
  8
GRID
 66
     1
 10
0.0
 20
0.0
 30
0.0
1001
ACDBBLOCKREPETAG
1070
     1
1071
      895
1005
332E0
  0
VERTEX
  5
6CB01
  8
GRID
 10
3.4513361827532649
 20
14.36648467281047
 30
0.0
 42
0.0671392340915746
  0
VERTEX
  5
6CB02
  8
GRID
 10
3.4654890058349519
 20
14.36598427949958
 30
0.0
 42
0.1066170543910275
  0
VERTEX
  5
6CB03
  8
GRID
 10
3.5103289392858552
 20
14.38040547054522
 30
0.0
 42
0.072341084057813
  0
VERTEX
  5
6CB04
  8
GRID
 10
3.5498628917189721
 20
14.41159979921137
 30
0.0
 42
0.0587518675354579
  0
VERTEX
  5
6CB05
  8
GRID
 10
3.5868754937478311
 20
14.461211296721061
 30
0.0
 42
0.058751867535318
  0
VERTEX
  5
6CB06
  8
GRID
 10
3.6113340098966149
 20
14.5180708990931
 30
0.0
 42
0.0723410840575392
  0
VERTEX
  5
6CB07
  8
GRID
 10
3.6185821147589081
 20
14.567905470545231
 30
0.0
 42
0.1066170543910802
  0
VERTEX
  5
6CB08
  8
GRID
 10
3.6086512658318082
 20
14.61394858754052
 30
0.0
 42
0.0671392340917021
  0
VERTEX
  5
6CB09
  8
GRID
 10
3.6011415009718482
 20
14.625955095209109
 30
0.0
 42
0.1568512196707762
  0
SEQEND
  5
6CB0A
  8
GRID
  0
POLYLINE
  5
332EB
  8
GRID
 66
     1
 10
0.0
 20
0.0
 30
0.0
 70
     1
1001
ACDBBLOCKREPETAG
1070
     1
1071
      896
1005
332EB
  0
VERTEX
  5
6CB0B
  8
GRID
 10
15.214862294864711
 20
21.314666955634191
 30
0.0
 42
0.0587518675354915
  0
VERTEX
  5
6CB0C
  8
GRID
 10
15.19040377871597
 20
21.25780735326218
 30
0.0
 42
0.0723410840578492
  0
VERTEX
  5
6CB0D
  8
GRID
 10
15.183155673853641
 20
21.207972781810032
 30
0.0
 42
0.1066170543910642
  0
VERTEX
  5
6CB0E
  8
GRID
 10
15.193086522780741
 20
21.161929664814739
 30
0.0
 42
0.1568512196707582
  0
VERTEX
  5
6CB0F
  8
GRID
 10
15.214862294864711
 20
21.13789026033756
 30
0.0
 42
0.1568512196708073
  0
VERTEX
  5
6CB10
  8
GRID
 10
15.2465689158758
 20
21.13105159076439
 30
0.0
 42
0.1066170543910275
  0
VERTEX
  5
6CB11
  8
GRID
 10
15.2914088493267
 20
21.145472781810032
 30
0.0
 42
0.072341084057813
  0
VERTEX
  5
6CB12
  8
GRID
 10
15.33094280175982
 20
21.176667110476171
 30
0.0
 42
0.0587518675354579
  0
VERTEX
  5
6CB13
  8
GRID
 10
15.367955403788679
 20
21.22627860798589
 30
0.0
 42
0.058751867535318
  0
VERTEX
  5
6CB14
  8
GRID
 10
15.39241391993745
 20
21.283138210357901
 30
0.0
 42
0.0723410840575392
  0
VERTEX
  5
6CB15
  8
GRID
 10
15.399662024799751
 20
21.332972781810032
 30
0.0
 42
0.1066170543910802
  0
VERTEX
  5
6CB16
  8
GRID
 10
15.38973117587264
 20
21.379015898805338
 30
0.0
 42
0.1568512196708335
  0
VERTEX
  5
6CB17
  8
GRID
 10
15.367955403788679
 20
21.403055303282532
 30
0.0
 42
0.1568512196707762
  0
VERTEX
  5
6CB18
  8
GRID
 10
15.33624878277759
 20
21.409893972855699
 30
0.0
 42
0.1066170543909677
  0
VERTEX
  5
6CB19
  8
GRID
 10
15.2914088493267
 20
21.395472781810032
 30
0.0
 42
0.0723410840575026
  0
VERTEX
  5
6CB1A
  8
GRID
 10
15.25187489689357
 20
21.36427845314391
 30
0.0
 42
0.0587518675352278
  0
SEQEND
  5
6CB1B
  8
GRID
  0
POLYLINE
  5
332FD
  8
GRID
 66
     1
 10
0.0
 20
0.0
 30
0.0
1001
ACDBBLOCKREPETAG
1070
     1
1071
      897
1005
332FD
  0
VERTEX
  5
6CB1C
  8
GRID
 10
15.20059628764071
 20
21.149923157146159
 30
0.0
 42
0.0671392340915746
  0
VERTEX
  5
6CB1D
  8
GRID
 10
15.214749110722391
 20
21.149422763835261
 30
0.0
 42
0.1066170543910275
  0
VERTEX
  5
6CB1E
  8
GRID
 10
15.259589044173291
 20
21.1638439548809
 30
0.0
 42
0.072341084057813
  0
VERTEX
  5
6CB1F
  8
GRID
 10
15.29912299660641
 20
21.195038283547049
 30
0.0
 42
0.0587518675354579
  0
VERTEX
  5
6CB20
  8
GRID
 10
15.336135598635259
 20
21.244649781056768
 30
0.0
 42
0.058751867535318
  0
VERTEX
  5
6CB21
  8
GRID
 10
15.36059411478406
 20
21.30150938342878
 30
0.0
 42
0.0723410840575392
  0
VERTEX
  5
6CB22
  8
GRID
 10
15.36784221964635
 20
21.35134395488091
 30
0.0
 42
0.1066170543910802
  0
VERTEX
  5
6CB23
  8
GRID
 10
15.35791137071925
 20
21.397387071876231
 30
0.0
 42
0.0671392340917021
  0
VERTEX
  5
6CB24
  8
GRID
 10
15.35040160585929
 20
21.409393579544808
 30
0.0
 42
0.1568512196707762
  0
SEQEND
  5
6CB25
  8
GRID
  0
LINE
  5
33308
  8
GRID
 10
17.5509339518042
 20
21.98749133252387
 30
0.0000000000001833
 11
17.5509339518042
 21
22.14071644636094
 31
0.0000000000001844
210
-0.0000000000000018
220
0.8164965809277222
230
0.5773502691896315
1001
ACDBBLOCKREPETAG
1070
     1
1071
      898
1005
33308
  0
LINE
  5
33387
  8
GRID
 10
17.279472394572299
 20
23.048730879150462
 30
0.0000000000001793
 11
13.7186959666617
 21
25.10454610832873
 31
0.0000000000001732
210
0.0000000000000006
220
0.8164965809277266
230
0.5773502691896251
1001
ACDBBLOCKREPETAG
1070
     1
1071
      830
1005
33387
  0
LINE
  5
33388
  8
GRID
 10
13.75051577181509
 20
25.122917281399602
 30
0.000000000000175
 11
13.7186959666617
 21
25.10454610832873
 31
0.0000000000001732
210
0.0000000000000006
220
0.8164965809277266
230
0.5773502691896251
1001
ACDBBLOCKREPETAG
1070
     1
1071
      831
1005
33388
  0
LINE
  5
33389
  8
GRID
 10
2.646999929309362
 20
14.60066896242113
 30
0.0000000000001756
 11
6.8896406164286574
 21
17.0501587052043
 31
0.0000000000001759
210
0.0000000000000006
220
0.8164965809277266
230
0.5773502691896251
1001
ACDBBLOCKREPETAG
1070
     1
1071
      832
1005
33389
  0
LINE
  5
3338A
  8
GRID
 10
6.420740432153357
 20
15.927261576075621
 30
0.0000000000001772
 11
6.395991694812202
 21
15.9129728859096
 31
0.0000000000001767
210
0.0000000000000006
220
0.8164965809277266
230
0.5773502691896251
1001
ACDBBLOCKREPETAG
1070
     1
1071
      833
1005
3338A
  0
LINE
  5
3338B
  8
GRID
 10
5.6694394771432908
 20
15.493497767458139
 30
0.0000000000001763
 11
5.6446907398018116
 21
15.47920907729193
 31
0.0000000000001772
210
0.0000000000000006
220
0.8164965809277266
230
0.5773502691896251
1001
ACDBBLOCKREPETAG
1070
     1
1071
      834
1005
3338B
  0
LINE
  5
3338C
  8
GRID
 10
2.6752842005568311
 20
13.764821412525411
 30
0.000000000000175
 11
2.359702444113271
 21
13.582620200491389
 31
0.0000000000001732
210
0.0000000000000006
220
0.8164965809277266
230
0.5773502691896251
1001
ACDBBLOCKREPETAG
1070
     1
1071
      835
1005
3338C
  0
LINE
  5
3338D
  8
GRID
 10
6.9780289640769748
 20
16.99912766889631
 30
0.0000000000001759
 11
2.7353882769576821
 21
14.549637926113141
 31
0.000000000000175
210
0.0000000000000006
220
0.8164965809277266
230
0.5773502691896251
1001
ACDBBLOCKREPETAG
1070
     1
1071
      836
1005
3338D
  0
LINE
  5
3338E
  8
GRID
 10
6.9780289640769748
 20
16.845626311681901
 30
0.0000000000001772
 11
2.7353882769576781
 21
14.39613656889872
 31
0.0000000000001745
210
0.0000000000000006
220
0.8164965809277266
230
0.5773502691896251
1001
ACDBBLOCKREPETAG
1070
     1
1071
      837
1005
3338E
  0
LINE
  5
3338F
  8
GRID
 10
7.2653264492730729
 20
15.649336346135639
 30
0.0000000000001785
 11
3.022685762153777
 21
13.19984660335246
 31
0.0000000000001763
210
0.0000000000000006
220
0.8164965809277266
230
0.5773502691896251
1001
ACDBBLOCKREPETAG
1070
     1
1071
      838
1005
3338F
  0
LINE
  5
33390
  8
GRID
 10
7.2653264492730729
 20
15.60851151708925
 30
0.0000000000001799
 11
3.022685762153777
 21
13.15902177430608
 31
0.0000000000001776
210
0.0000000000000006
220
0.8164965809277266
230
0.5773502691896251
1001
ACDBBLOCKREPETAG
1070
     1
1071
      839
1005
33390
  0
LINE
  5
33391
  8
GRID
 10
2.70710400571022
 20
13.382047815386491
 30
0.0000000000001747
 11
3.022685762153777
 21
13.19984660335246
 31
0.0000000000001763
210
0.0000000000000006
220
0.8164965809277266
230
0.5773502691896251
1001
ACDBBLOCKREPETAG
1070
     1
1071
      840
1005
33391
  0
LINE
  5
33392
  8
GRID
 10
3.0226857621537722
 20
13.19984660335246
 30
0.0000000000001763
 11
3.022685762153777
 21
13.15902177430609
 31
0.0000000000001805
210
0.0000000000000006
220
0.8164965809277266
230
0.5773502691896251
1001
ACDBBLOCKREPETAG
1070
     1
1071
      841
1005
33392
  0
LINE
  5
33393
  8
GRID
 10
3.022685762153777
 20
13.15902177430608
 30
0.0000000000001732
 11
2.359702444113267
 21
13.54179537144501
 31
0.0000000000001756
210
0.0000000000000006
220
0.8164965809277266
230
0.5773502691896251
1001
ACDBBLOCKREPETAG
1070
     1
1071
      842
1005
33393
  0
LINE
  5
33394
  8
GRID
 10
2.359702444113267
 20
13.54179537144501
 30
0.0000000000001756
 11
2.359702444113267
 21
13.582620200491389
 31
0.0000000000001781
210
0.0000000000000006
220
0.8164965809277266
230
0.5773502691896251
1001
ACDBBLOCKREPETAG
1070
     1
1071
      843
1005
33394
  0
LINE
  5
33395
  8
GRID
 10
2.359702444113271
 20
13.582620200491389
 30
0.0000000000001732
 11
2.6752842005568311
 21
13.400418988457361
 31
0.0000000000001772
210
0.0000000000000006
220
0.8164965809277266
230
0.5773502691896251
1001
ACDBBLOCKREPETAG
1070
     1
1071
      844
1005
33395
  0
LINE
  5
33396
  8
GRID
 10
2.675284200556816
 20
13.400418988457361
 30
0.0000000000001741
 11
2.6752842005568191
 21
14.43083767358817
 31
0.0000000000001792
210
0.0000000000000006
220
0.8164965809277266
230
0.5773502691896251
1001
ACDBBLOCKREPETAG
1070
     1
1071
      845
1005
33396
  0
LINE
  5
33397
  8
GRID
 10
2.6752842005568271
 20
14.43083767358816
 30
0.0000000000001752
 11
2.6469999293093651
 21
14.44716760520671
 31
0.0000000000001734
210
0.0000000000000006
220
0.8164965809277266
230
0.5773502691896251
1001
ACDBBLOCKREPETAG
1070
     1
1071
      846
1005
33397
  0
LINE
  5
33398
  8
GRID
 10
2.6469999293093651
 20
14.44716760520671
 30
0.0000000000001734
 11
2.646999929309362
 21
14.60066896242113
 31
0.0000000000001756
210
0.0000000000000006
220
0.8164965809277266
230
0.5773502691896251
1001
ACDBBLOCKREPETAG
1070
     1
1071
      847
1005
33398
  0
LINE
  5
33399
  8
GRID
 10
2.646999929309362
 20
14.60066896242113
 30
0.0000000000001756
 11
2.7353882769576821
 21
14.549637926113141
 31
0.000000000000175
210
0.0000000000000006
220
0.8164965809277266
230
0.5773502691896251
1001
ACDBBLOCKREPETAG
1070
     1
1071
      848
1005
33399
  0
LINE
  5
3339A
  8
GRID
 10
2.7353882769576821
 20
14.549637926113141
 30
0.000000000000175
 11
2.7353882769576781
 21
14.39613656889872
 31
0.0000000000001765
210
0.0000000000000006
220
0.8164965809277266
230
0.5773502691896251
1001
ACDBBLOCKREPETAG
1070
     1
1071
      849
1005
3339A
  0
LINE
  5
3339B
  8
GRID
 10
2.7353882769576838
 20
14.39613656889872
 30
0.0000000000001745
 11
2.707104005710228
 21
14.412466500517279
 31
0.0000000000001761
210
0.0000000000000006
220
0.8164965809277266
230
0.5773502691896251
1001
ACDBBLOCKREPETAG
1070
     1
1071
      850
1005
3339B
  0
LINE
  5
3339C
  8
GRID
 10
6.949744692829511
 20
15.83153755816967
 30
0.0000000000001781
 11
2.70710400571022
 21
13.382047815386491
 31
0.0000000000001747
210
0.0000000000000006
220
0.8164965809277266
230
0.5773502691896251
1001
ACDBBLOCKREPETAG
1070
     1
1071
      851
1005
3339C
  0
LINE
  5
3339D
  8
GRID
 10
2.707104005710212
 20
14.41246650051729
 30
0.0000000000001767
 11
2.707104005710212
 21
13.3820478153865
 31
0.0000000000001781
210
0.0000000000000006
220
0.8164965809277266
230
0.5773502691896251
1001
ACDBBLOCKREPETAG
1070
     1
1071
      852
1005
3339D
  0
LINE
  5
3339E
  8
GRID
 10
6.949744692829511
 20
16.27550757404925
 30
0.0000000000001776
 11
6.949744692829511
 21
16.829296380063351
 31
0.0000000000001772
210
0.0000000000000006
220
0.8164965809277266
230
0.5773502691896251
1001
ACDBBLOCKREPETAG
1070
     1
1071
      853
1005
3339E
  0
LINE
  5
3339F
  8
GRID
 10
6.9780289640769677
 20
16.845626311681912
 30
0.0000000000001759
 11
6.9780289640769748
 21
16.999127668896321
 31
0.0000000000001781
210
0.0000000000000006
220
0.8164965809277266
230
0.5773502691896251
1001
ACDBBLOCKREPETAG
1070
     1
1071
      854
1005
3339F
  0
LINE
  5
333A0
  8
GRID
 10
6.9780289640769677
 20
16.999127668896321
 30
0.0000000000001763
 11
6.8896406164286486
 21
17.0501587052043
 31
0.0000000000001781
210
0.0000000000000006
220
0.8164965809277266
230
0.5773502691896251
1001
ACDBBLOCKREPETAG
1070
     1
1071
      855
1005
333A0
  0
LINE
  5
333A1
  8
GRID
 10
7.2653264492730596
 20
15.60851151708926
 30
0.0000000000001781
 11
7.2653264492730596
 21
15.64933634613565
 31
0.0000000000001759
210
0.0000000000000006
220
0.8164965809277266
230
0.5773502691896251
1001
ACDBBLOCKREPETAG
1070
     1
1071
      856
1005
333A1
  0
LINE
  5
333A2
  8
GRID
 10
7.2653264492730596
 20
15.64933634613565
 30
0.0000000000001759
 11
6.949744692829503
 21
15.83153755816967
 31
0.0000000000001799
210
0.0000000000000006
220
0.8164965809277266
230
0.5773502691896251
1001
ACDBBLOCKREPETAG
1070
     1
1071
      857
1005
333A2
  0
LINE
  5
333A3
  8
GRID
 10
6.949744692829503
 20
15.83153755816967
 30
0.0000000000001763
 11
6.949744692829511
 21
16.122414465125381
 31
0.0000000000001759
210
0.0000000000000006
220
0.8164965809277266
230
0.5773502691896251
1001
ACDBBLOCKREPETAG
1070
     1
1071
      858
1005
333A3
  0
LINE
  5
333A4
  8
GRID
 10
6.6845796498835881
 20
16.122414465124741
 30
0.000000000000175
 11
6.6845796498835881
 21
15.969321356200879
 31
0.0000000000001776
210
0.0000000000000006
220
0.8164965809277266
230
0.5773502691896251
1001
ACDBBLOCKREPETAG
1070
     1
1071
      859
1005
333A4
  0
LINE
  5
333A5
  8
GRID
 10
6.9497446928295004
 20
16.122414465125381
 30
0.0000000000001767
 11
6.917924887676107
 21
16.140785638196249
 31
0.0000000000001776
210
0.0000000000000006
220
0.8164965809277266
230
0.5773502691896251
1001
ACDBBLOCKREPETAG
1070
     1
1071
      860
1005
333A5
  0
LINE
  5
333A6
  8
GRID
 10
6.6845796498835881
 20
15.96932135620087
 30
0.0000000000001776
 11
6.949744692829503
 21
16.122414465125381
 31
0.0000000000001767
210
0.0000000000000006
220
0.8164965809277266
230
0.5773502691896251
1001
ACDBBLOCKREPETAG
1070
     1
1071
      861
1005
333A6
  0
LINE
  5
333A7
  8
GRID
 10
6.917924887676115
 20
16.140785638196249
 30
0.0000000000001759
 11
6.6845796498835881
 21
16.006063702342619
 31
0.0000000000001767
210
0.0000000000000006
220
0.8164965809277266
230
0.5773502691896251
1001
ACDBBLOCKREPETAG
1070
     1
1071
      862
1005
333A7
  0
LINE
  5
333A8
  8
GRID
 10
6.949744692829503
 20
16.275507574049239
 30
0.0000000000001772
 11
6.6845796498835881
 21
16.122414465124741
 31
0.0000000000001767
210
0.0000000000000006
220
0.8164965809277266
230
0.5773502691896251
1001
ACDBBLOCKREPETAG
1070
     1
1071
      863
1005
333A8
  0
LINE
  5
333A9
  8
GRID
 10
5.644690739801816
 20
15.64961191373291
 30
0.0000000000001781
 11
5.644690739801816
 21
15.24136362326905
 31
0.0000000000001759
210
0.0000000000000006
220
0.8164965809277266
230
0.5773502691896251
1001
ACDBBLOCKREPETAG
1070
     1
1071
      864
1005
333A9
  0
LINE
  5
333AA
  8
GRID
 10
5.7012592822966894
 20
15.68227177696998
 30
0.0000000000001781
 11
5.644690739801816
 21
15.649611913732899
 31
0.0000000000001776
210
0.0000000000000006
220
0.8164965809277266
230
0.5773502691896251
1001
ACDBBLOCKREPETAG
1070
     1
1071
      865
1005
333AA
  0
LINE
  5
333AB
  8
GRID
 10
5.6694394771432961
 20
15.663900603899121
 30
0.0000000000001794
 11
5.6694394771432961
 21
15.292394659577001
 31
0.0000000000001763
210
0.0000000000000006
220
0.8164965809277266
230
0.5773502691896251
1001
ACDBBLOCKREPETAG
1070
     1
1071
      866
1005
333AB
  0
LINE
  5
333AC
  8
GRID
 10
5.7012592822966894
 20
15.27402348650612
 30
0.0000000000001794
 11
5.7012592822966894
 21
15.682271776969991
 31
0.0000000000001785
210
0.0000000000000006
220
0.8164965809277266
230
0.5773502691896251
1001
ACDBBLOCKREPETAG
1070
     1
1071
      867
1005
333AC
  0
LINE
  5
333AD
  8
GRID
 10
5.6694394771432961
 20
15.292394659577001
 30
0.0000000000001763
 11
5.6446907398018116
 21
15.27810596941079
 31
0.0000000000001741
210
0.0000000000000006
220
0.8164965809277266
230
0.5773502691896251
1001
ACDBBLOCKREPETAG
1070
     1
1071
      868
1005
333AD
  0
LINE
  5
333AE
  8
GRID
 10
5.7012592822966894
 20
15.27402348650612
 30
0.0000000000001794
 11
5.6694394771432961
 21
15.292394659577001
 31
0.0000000000001763
210
0.0000000000000006
220
0.8164965809277266
230
0.5773502691896251
1001
ACDBBLOCKREPETAG
1070
     1
1071
      869
1005
333AE
  0
LINE
  5
333AF
  8
GRID
 10
5.6446907398018116
 20
15.24136362326905
 30
0.0000000000001772
 11
5.7012592822966841
 21
15.27402348650612
 31
0.0000000000001754
210
0.0000000000000006
220
0.8164965809277266
230
0.5773502691896251
1001
ACDBBLOCKREPETAG
1070
     1
1071
      870
1005
333AF
  0
LINE
  5
333B0
  8
GRID
 10
6.420740432153357
 20
16.097664412515851
 30
0.0000000000001754
 11
6.420740432153357
 21
15.72615846819374
 31
0.0000000000001767
210
0.0000000000000006
220
0.8164965809277266
230
0.5773502691896251
1001
ACDBBLOCKREPETAG
1070
     1
1071
      871
1005
333B0
  0
LINE
  5
333B1
  8
GRID
 10
6.4525602373067521
 20
15.707787295122859
 30
0.0000000000001767
 11
6.4525602373067539
 21
16.116035585586719
 31
0.0000000000001741
210
0.0000000000000006
220
0.8164965809277266
230
0.5773502691896251
1001
ACDBBLOCKREPETAG
1070
     1
1071
      872
1005
333B1
  0
LINE
  5
333B2
  8
GRID
 10
6.420740432153357
 20
15.72615846819374
 30
0.0000000000001767
 11
6.395991694812202
 21
15.711869778027721
 31
0.0000000000001772
210
0.0000000000000006
220
0.8164965809277266
230
0.5773502691896251
1001
ACDBBLOCKREPETAG
1070
     1
1071
      873
1005
333B2
  0
LINE
  5
333B3
  8
GRID
 10
6.4525602373067521
 20
15.707787295122859
 30
0.0000000000001767
 11
6.420740432153357
 21
15.72615846819374
 31
0.0000000000001767
210
0.0000000000000006
220
0.8164965809277266
230
0.5773502691896251
1001
ACDBBLOCKREPETAG
1070
     1
1071
      874
1005
333B3
  0
LINE
  5
333B4
  8
GRID
 10
6.3959916948121931
 20
15.67512743188597
 30
0.0000000000001754
 11
6.4525602373067468
 21
15.707787295122859
 31
0.0000000000001767
210
0.0000000000000006
220
0.8164965809277266
230
0.5773502691896251
1001
ACDBBLOCKREPETAG
1070
     1
1071
      875
1005
333B4
  0
LINE
  5
333B5
  8
GRID
 10
6.395991694812202
 20
16.083375722349832
 30
0.0000000000001772
 11
6.395991694812202
 21
15.67512743188597
 31
0.0000000000001767
210
0.0000000000000006
220
0.8164965809277266
230
0.5773502691896251
1001
ACDBBLOCKREPETAG
1070
     1
1071
      876
1005
333B5
  0
LINE
  5
333B6
  8
GRID
 10
6.4525602373067468
 20
16.116035585586719
 30
0.0000000000001759
 11
6.395991694812202
 21
16.083375722349832
 31
0.0000000000001741
210
0.0000000000000006
220
0.8164965809277266
230
0.5773502691896251
1001
ACDBBLOCKREPETAG
1070
     1
1071
      877
1005
333B6
  0
LINE
  5
333B7
  8
DETAIL
 10
9.6545398288832889
 20
17.54167765558045
 30
0.0000000000001767
 11
9.6545398288836068
 21
17.898894909736139
 31
0.0000000000001767
210
0.0000000000000006
220
0.8164965809277266
230
0.5773502691896251
1001
ACDBBLOCKREPETAG
1070
     1
1071
      878
1005
333B7
  0
LINE
  5
333B8
  8
DETAIL
 10
10.40584078389398
 20
17.975441464198301
 30
0.0000000000001776
 11
10.405840783894311
 21
18.332658718354001
 31
0.0000000000001785
210
0.0000000000000006
220
0.8164965809277266
230
0.5773502691896251
1001
ACDBBLOCKREPETAG
1070
     1
1071
      879
1005
333B8
  0
POLYLINE
  5
333BB
  8
DIM
 66
     1
 10
0.0
 20
0.0
 30
0.0
1001
ACDBBLOCKREPETAG
1070
     1
1071
      882
1005
333BB
  0
VERTEX
  5
6CB26
  8
DIM
 10
7.5618722325916341
 20
16.096217360344578
 30
0.0
 42
0.0723410840576599
  0
VERTEX
  5
6CB27
  8
DIM
 10
7.7431340158111821
 20
16.023993866074051
 30
0.0
 42
0.0587518675353761
  0
VERTEX
  5
6CB28
  8
DIM
 10
7.9813100418679657
 20
15.995910355252621
 30
0.0
 42
0.058751867535376
  0
VERTEX
  5
6CB29
  8
DIM
 10
8.2194860679247554
 20
16.023993866074051
 30
0.0
 42
0.0723410840576587
  0
VERTEX
  5
6CB2A
  8
DIM
 10
8.400747851144299
 20
16.096217360344578
 30
0.0
 42
0.1066170543910072
  0
VERTEX
  5
6CB2B
  8
DIM
 10
8.5360066079661863
 20
16.218739690867089
 30
0.0
 42
0.1568512196707755
  0
VERTEX
  5
6CB2C
  8
DIM
 10
8.5744846803186139
 20
16.338379892438571
 30
0.0
 42
0.1568512196707817
  0
VERTEX
  5
6CB2D
  8
DIM
 10
8.5360066079661827
 20
16.458020094010049
 30
0.0
 42
0.106617054391011
  0
VERTEX
  5
6CB2E
  8
DIM
 10
8.4007478511443026
 20
16.58054242453257
 30
0.0
 42
0.0723410840576595
  0
SEQEND
  5
6CB2F
  8
DIM
  0
SOLID
  5
333C6
  8
DIM
 10
8.5371189375337622
 20
16.366909473169571
 30
-0.0000000000000568
 11
8.400747851144299
 21
16.58054242453257
 31
-0.0000000000000568
 12
8.5990338900628771
 22
16.422685660720909
 32
-0.0000000000000568
 13
8.5990338900628771
 23
16.422685660720909
 33
-0.0000000000000568
1001
ACDBBLOCKREPETAG
1070
     1
1071
      883
1005
333C6
1001
ACAD
1000
DSTYLE
1002
{
1070
   147
1040
0.09
1070
    77
1070
     0
1002
}
  0
POLYLINE
  5
333C7
  8
DIM
 66
     1
 10
0.0
 20
0.0
 30
0.0
1001
ACDBBLOCKREPETAG
1070
     1
1071
      884
1005
333C7
  0
VERTEX
  5
6CB30
  8
DIM
 10
9.6705574689452547
 20
18.062937653445449
 30
0.0
 42
0.0723410840576599
  0
VERTEX
  5
6CB31
  8
DIM
 10
9.8518192521648
 20
17.990714159174932
 30
0.0
 42
0.0587518675353761
  0
VERTEX
  5
6CB32
  8
DIM
 10
10.089995278221579
 20
17.962630648353521
 30
0.0
 42
0.058751867535376
  0
VERTEX
  5
6CB33
  8
DIM
 10
10.328171304278371
 20
17.990714159174932
 30
0.0
 42
0.0723410840576587
  0
VERTEX
  5
6CB34
  8
DIM
 10
10.50943308749792
 20
18.062937653445449
 30
0.0
 42
0.1066170543910072
  0
VERTEX
  5
6CB35
  8
DIM
 10
10.6446918443198
 20
18.185459983967981
 30
0.0
 42
0.1568512196707755
  0
VERTEX
  5
6CB36
  8
DIM
 10
10.68316991667222
 20
18.305100185539452
 30
0.0
 42
0.1568512196707817
  0
VERTEX
  5
6CB37
  8
DIM
 10
10.6446918443198
 20
18.424740387110941
 30
0.0
 42
0.106617054391011
  0
VERTEX
  5
6CB38
  8
DIM
 10
10.50943308749792
 20
18.547262717633451
 30
0.0
 42
0.0723410840576595
  0
SEQEND
  5
6CB39
  8
DIM
  0
SOLID
  5
333D2
  8
DIM
 10
9.895474769781714
 20
17.94611163367437
 30
-0.0000000000000568
 11
9.6705574689452547
 21
18.062937653445449
 31
-0.0000000000000568
 12
9.9212065977703645
 22
18.025372705284639
 32
-0.0000000000000568
 13
9.9212065977703645
 23
18.025372705284639
 33
-0.0000000000000568
1001
ACDBBLOCKREPETAG
1070
     1
1071
      885
1005
333D2
1001
ACAD
1000
DSTYLE
1002
{
1070
   147
1040
0.09
1070
    77
1070
     0
1002
}
  0
INSERT
  5
333D7
  8
0
  2
*U534
 10
0.0
 20
0.0
 30
0.0
1001
ACDBBLOCKREPETAG
1070
     1
1071
      890
1005
333D7
  0
INSERT
  5
333D8
  8
0
  2
*U535
 10
0.0
 20
0.0
 30
0.0
1001
ACDBBLOCKREPETAG
1070
     1
1071
      891
1005
333D8
1001
ACAD
1000
DSTYLE
1002
{
1070
   147
1040
0.09
1070
    77
1070
     0
1002
}
  0
INSERT
  5
333EE
  8
HATCH
  6
CONTINUOUS
  2
*U536
 10
0.0
 20
0.0
 30
0.0
1001
ACAD
1002
{
1000
R14_HATCH_DATA
1000
333EE
1011
1.0
1021
0.0
1031
0.0
1021
0.0
1031
0.0
1011
0.0
1021
0.0
1031
0.0
1021
1.0
1031
0.0
1011
0.0
1021
0.0
1031
0.0
1021
0.0
1031
1.0
1040
0.0
1010
0.0
1020
0.0
1030
1.0
1000
SOLID
1070
     1
1070
     1
1071
        1
1071
        7
1070
     0
1070
     1
1071
       12
1040
2.7353882769576821
1040
14.549637926113149
1040
2.646999929309362
1040
14.60066896242113
1040
2.6469999293093651
1040
14.447167605206721
1040
2.6752842005568191
1040
14.43083767358816
1040
2.675284200556816
1040
13.400418988457361
1040
2.359702444113267
1040
13.582620200491389
1040
2.359702444113267
1040
13.54179537144501
1040
3.022685762153777
1040
13.15902177430608
1040
3.022685762153773
1040
13.19984660335246
1040
2.707104005710212
1040
13.3820478153865
1040
2.7071040057102129
1040
14.41246650051729
1040
2.7353882769576781
1040
14.39613656889872
1071
       12
1005
33399
1005
33398
1005
33397
1005
33396
1005
33395
1005
33394
1005
33393
1005
33392
1005
33391
1005
3339D
1005
3339B
1005
3339A
1070
     0
1070
     1
1040
0.0028716804561917
1071
        1
1040
2.68786581678556
1040
14.473831557013479
1040
0.0
1002
}
  0
INSERT
  5
3340B
  8
HATCH
  6
CONTINUOUS
  2
*U537
 10
0.0
 20
0.0
 30
0.0
1001
ACAD
1002
{
1000
R14_HATCH_DATA
1000
3340B
1011
1.0
1021
0.0
1031
0.0
1021
0.0
1031
0.0
1011
0.0
1021
0.0
1031
0.0
1021
1.0
1031
0.0
1011
0.0
1021
0.0
1031
0.0
1021
0.0
1031
1.0
1040
0.0
1010
0.0
1020
0.0
1030
1.0
1000
SOLID
1070
     1
1070
     1
1071
        3
1071
        7
1070
     0
1070
     1
1071
        8
1040
9.0939368488130921
1040
18.22074765572917
1040
9.0055485011647747
1040
18.271778692037149
1040
9.00554850116478
1040
18.118277334822729
1040
9.0338327724122394
1040
18.101947403204171
1040
9.0338327724122394
1040
17.51549873395297
1040
9.0656525775656345
1040
17.497127560882099
1040
9.0656525775656345
1040
18.083576230133311
1040
9.0939368488130956
1040
18.06724629851476
1071
        8
1005
332AA
1005
332A9
1005
332A8
1005
332A2
1005
33283
1005
3328F
1005
33284
1005
332AD
1071
        7
1070
     0
1070
     1
1071
        4
1040
9.3308176205115512
1040
17.6502206698066
1040
9.2989978153581632
1040
17.631849496735722
1040
9.2989978153581596
1040
17.51549873395361
1040
9.3308176205115512
1040
17.497127560882738
1071
        4
1005
3328E
1005
332A3
1005
33281
1005
3328D
1071
        7
1070
     0
1070
     1
1071
        8
1040
9.0656525775656345
1040
17.34403445195823
1040
9.0338327724122394
1040
17.362405625029101
1040
9.0338327724122394
1040
17.071528718073392
1040
8.9304184056628291
1040
17.13123503055423
1040
8.8950630666034982
1040
17.11082261603104
1040
9.3812343340091928
1040
16.8301315039221
1040
9.3812343340091822
1040
16.8709563329685
1040
9.0656525775656291
1040
17.05315754500252
1071
        8
1005
33282
1005
332A5
1005
332A0
1005
3325A
1005
33297
1005
33293
1005
33290
1005
3328B
1070
     0
1070
     1
1040
0.0025241351717402
1071
        3
1040
9.0334107595143394
1040
18.159265078774212
1040
0.0
1040
9.3290465933245628
1040
17.558093035230339
1040
0.0
1040
9.0562733044349528
1040
17.169376205718091
1040
0.0
1002
}
  0
INSERT
  5
33418
  8
HATCH
  6
CONTINUOUS
  2
*U538
 10
0.0
 20
0.0
 30
0.0
1001
ACAD
1002
{
1000
R14_HATCH_DATA
1000
33418
1011
1.0
1021
0.0
1031
0.0
1021
0.0
1031
0.0
1011
0.0
1021
0.0
1031
0.0
1021
1.0
1031
0.0
1011
0.0
1021
0.0
1031
0.0
1021
0.0
1031
1.0
1040
0.0
1010
0.0
1020
0.0
1030
1.0
1000
SOLID
1070
     1
1070
     1
1071
        1
1071
        7
1070
     0
1070
     1
1071
       12
1040
17.225664832458381
1040
18.475902837269071
1040
17.137276484810069
1040
18.424871800961078
1040
17.13727648481008
1040
18.271370443746662
1040
17.165560756057531
1040
18.287700375365208
1040
17.165560756057541
1040
17.257281690234429
1040
16.84997899961397
1040
17.075080478200402
1040
16.84997899961397
1040
17.034255649154019
1040
17.512962317654491
1040
17.417029246292952
1040
17.512962317654491
1040
17.457854075339331
1040
17.19738056121092
1040
17.275652863305311
1040
17.197380561210931
1040
18.306071548436101
1040
17.225664832458381
1040
18.322401480054651
1071
       12
1005
331F6
1005
331F5
1005
331F4
1005
331F3
1005
331F2
1005
331F1
1005
331F0
1005
331EF
1005
331EE
1005
331ED
1005
331EC
1005
331F7
1070
     0
1070
     1
1040
0.0045205603791311
1071
        1
1040
17.190446846517759
1040
18.351035675723079
1040
0.0
1002
}
  0
INSERT
  5
3341F
  8
HATCH
  6
CONTINUOUS
  2
*U539
 10
0.0
 20
0.0
 30
0.0
1001
ACAD
1002
{
1000
R14_HATCH_DATA
1000
3341F
1011
1.0
1021
0.0
1031
0.0
1021
0.0
1031
0.0
1011
0.0
1021
0.0
1031
0.0
1021
1.0
1031
0.0
1011
0.0
1021
0.0
1031
0.0
1021
0.0
1031
1.0
1040
0.0
1010
0.0
1020
0.0
1030
1.0
1000
SOLID
1070
     1
1070
     1
1071
        1
1071
        7
1070
     0
1070
     1
1071
        6
1040
21.52869036486711
1040
20.632186086297111
1040
21.49687055971372
1040
20.613814913226221
1040
21.49687055971372
1040
19.717139742272611
1040
20.716791548819199
1040
19.266760915343479
1040
20.716791548819199
1040
19.2259360862971
1040
21.52869036486711
1040
19.6946860862971
1071
        6
1005
332C6
1005
332BF
1005
332BB
1005
332B7
1005
332B6
1005
332B5
1070
     0
1070
     1
1040
0.0035473556670927
1071
        1
1040
21.51838507239431
1040
19.86395428353098
1040
0.0
1002
}
  0
INSERT
  5
33456
  8
HATCH
  6
CONTINUOUS
  2
*U540
 10
0.0
 20
0.0
 30
0.0
1001
ACAD
1002
{
1000
R14_HATCH_DATA
1000
33456
1011
1.0
1021
0.0
1031
0.0
1021
0.0
1031
0.0
1011
0.0
1021
0.0
1031
0.0
1021
1.0
1031
0.0
1011
0.0
1021
0.0
1031
0.0
1021
0.0
1031
1.0
1040
0.0
1010
0.0
1020
0.0
1030
1.0
1000
SOLID
1070
     1
1070
     1
1071
        4
1071
        7
1070
     0
1070
     1
1071
        8
1040
11.837157606426301
1040
21.400797714297429
1040
11.865441877673771
1040
21.417127645915979
1040
11.865441877673771
1040
21.570629003130389
1040
11.777053530025441
1040
21.51959796682241
1040
11.777053530025441
1040
21.366096609608
1040
11.805337801272911
1040
21.382426541226561
1040
11.805337801272911
1040
20.952132843077639
1040
11.83715760642631
1040
20.97050401614851
1071
        8
1005
33222
1005
33220
1005
3320D
1005
3320C
1005
3320B
1005
3320F
1005
3320E
1005
33229
1071
        7
1070
     0
1070
     1
1071
        4
1040
11.87109873192326
1040
20.950908098206249
1040
11.839278926769859
1040
20.93253692513537
1040
11.839278926769859
1040
20.835373832004969
1040
11.87109873192326
1040
20.85374500507584
1071
        4
1005
331FD
1005
331FE
1005
331FF
1005
33227
1071
        7
1070
     0
1070
     1
1071
        4
1040
11.815237296209521
1040
20.52428863467151
1040
11.78341749105612
1040
20.542659807742389
1040
11.78341749105612
1040
20.40548838214653
1040
11.815237296209521
1040
20.423859555217401
1071
        4
1005
33208
1005
33207
1005
33206
1005
33223
1071
        7
1070
     0
1070
     1
1071
        5
1040
11.581084690267179
1040
20.49875605541785
1040
11.53076823813818
1040
20.5278062725992
1040
11.53076823813818
1040
20.510530667282879
1040
11.215186481694611
1040
20.328329455248848
1040
11.215186481694611
1040
20.28750462620247
1071
        5
1005
3321A
1005
3321F
1005
3321E
1005
3321D
1005
33232
1070
     0
1070
     1
1040
0.002615648376223
1071
        4
1040
11.826560089890741
1040
21.38708229221788
1040
0.0
1040
11.857967082189591
1040
20.89534040058955
1040
0.0
1040
11.805622055839491
1040
20.476836594978629
1040
0.0
1040
11.525576629213051
1040
20.476836594978629
1040
0.0
1002
}
  0
INSERT
  5
33457
  8
0
  2
*U541
 10
0.0
 20
0.0
 30
0.0
1001
ACAD
1000
DSTYLE
1002
{
1070
   147
1040
0.09
1070
    77
1070
     0
1002
}
  0
INSERT
  5
33458
  8
0
  2
*U542
 10
0.0
 20
0.0
 30
0.0
  0
INSERT
  5
33459
  8
0
  2
*U543
 10
0.0
 20
0.0
 30
0.0
1001
ACAD
1000
DSTYLE
1002
{
1070
   147
1040
0.09
1070
    77
1070
     0
1002
}
  0
INSERT
  5
3345A
  8
0
  2
*U544
 10
0.0
 20
0.0
 30
0.0
  0
INSERT
  5
3345B
  8
0
  2
*U545
 10
0.0
 20
0.0
 30
0.0
1001
ACAD
1000
DSTYLE
1002
{
1070
   147
1040
0.09
1070
    77
1070
     0
1002
}
  0
INSERT
  5
3345C
  8
0
  2
*U546
 10
0.0
 20
0.0
 30
0.0
  0
INSERT
  5
3345D
  8
0
  2
*U547
 10
0.0
 20
0.0
 30
0.0
1001
ACAD
1000
DSTYLE
1002
{
1070
   147
1040
0.09
1070
    77
1070
     0
1002
}
  0
INSERT
  5
3345E
  8
0
  2
*U548
 10
0.0
 20
0.0
 30
0.0
  0
VIEWPORT
  5
5D
 67
     1
  8
0
 10
5.1028366720533187
 20
3.8825525951487041
 30
0.0
 40
15.022140662638821
 41
7.835077286788092
 68
     1
 69
     1
1001
ACAD
1000
MVIEW
1002
{
1070
    16
1010
0.0
1020
0.0
1030
0.0
1010
0.0
1020
0.0
1030
1.0
1040
0.0
1040
7.835077286788092
1040
5.1028366720533187
1040
3.8825525951487041
1040
50.0
1040
0.0
1040
0.0
1070
     0
1070
   100
1070
     1
1070
     1
1070
     0
1070
     0
1070
     0
1070
     0
1040
0.0
1040
0.0
1040
0.0
1040
0.5
1040
0.5
1040
0.5
1040
0.5
1070
     0
1002
{
1002
}
1002
}
  0
ENDSEC
  0
EOF
