  0
SECTION
  2
HEADER
  9
$ACADVER
  1
AC1015
  9
$ACADMAINTVER
 70
    20
  9
$DWGCODEPAGE
  3
ANSI_1252
  9
$INSBASE
 10
1.235102848601107
 20
11.24774640129371
 30
0.0
  9
$EXTMIN
 10
-1.47649291377924
 20
10.54105286962987
 30
0.0
  9
$EXTMAX
 10
12.65353450548207
 20
21.48252698906679
 30
0.0
  9
$LIMMIN
 10
0.0
 20
0.0
  9
$LIMMAX
 10
12.0
 20
9.0
  9
$ORTHOMODE
 70
     0
  9
$REGENMODE
 70
     1
  9
$FILLMODE
 70
     1
  9
$QTEXTMODE
 70
     0
  9
$MIRRTEXT
 70
     0
  9
$LTSCALE
 40
1.0
  9
$ATTMODE
 70
     1
  9
$TEXTSIZE
 40
0.25
  9
$TRACEWID
 40
0.05
  9
$TEXTSTYLE
  7
STD
  9
$CLAYER
  8
0
  9
$CELTYPE
  6
BYLAYER
  9
$CECOLOR
 62
   256
  9
$CELTSCALE
 40
1.0
  9
$DISPSILH
 70
     0
  9
$DIMSCALE
 40
1.0
  9
$DIMASZ
 40
0.18
  9
$DIMEXO
 40
0.0625
  9
$DIMDLI
 40
0.38
  9
$DIMRND
 40
0.0
  9
$DIMDLE
 40
0.0
  9
$DIMEXE
 40
0.18
  9
$DIMTP
 40
0.0
  9
$DIMTM
 40
0.0
  9
$DIMTXT
 40
0.18
  9
$DIMCEN
 40
0.09
  9
$DIMTSZ
 40
0.0
  9
$DIMTOL
 70
     0
  9
$DIMLIM
 70
     0
  9
$DIMTIH
 70
     1
  9
$DIMTOH
 70
     1
  9
$DIMSE1
 70
     0
  9
$DIMSE2
 70
     0
  9
$DIMTAD
 70
     0
  9
$DIMZIN
 70
     0
  9
$DIMBLK
  1

  9
$DIMASO
 70
     1
  9
$DIMSHO
 70
     1
  9
$DIMPOST
  1

  9
$DIMAPOST
  1

  9
$DIMALT
 70
     0
  9
$DIMALTD
 70
     2
  9
$DIMALTF
 40
25.4
  9
$DIMLFAC
 40
1.0
  9
$DIMTOFL
 70
     0
  9
$DIMTVP
 40
0.0
  9
$DIMTIX
 70
     0
  9
$DIMSOXD
 70
     0
  9
$DIMSAH
 70
     0
  9
$DIMBLK1
  1

  9
$DIMBLK2
  1

  9
$DIMSTYLE
  2
Standard
  9
$DIMCLRD
 70
     0
  9
$DIMCLRE
 70
     0
  9
$DIMCLRT
 70
     0
  9
$DIMTFAC
 40
1.0
  9
$DIMGAP
 40
0.09
  9
$DIMJUST
 70
     0
  9
$DIMSD1
 70
     0
  9
$DIMSD2
 70
     0
  9
$DIMTOLJ
 70
     1
  9
$DIMTZIN
 70
     0
  9
$DIMALTZ
 70
     0
  9
$DIMALTTZ
 70
     0
  9
$DIMUPT
 70
     0
  9
$DIMDEC
 70
     4
  9
$DIMTDEC
 70
     4
  9
$DIMALTU
 70
     2
  9
$DIMALTTD
 70
     2
  9
$DIMTXSTY
  7
STANDARD
  9
$DIMAUNIT
 70
     0
  9
$DIMADEC
 70
     0
  9
$DIMALTRND
 40
0.0
  9
$DIMAZIN
 70
     0
  9
$DIMDSEP
 70
    46
  9
$DIMATFIT
 70
     3
  9
$DIMFRAC
 70
     0
  9
$DIMLDRBLK
  1

  9
$DIMLUNIT
 70
     2
  9
$DIMLWD
 70
    -2
  9
$DIMLWE
 70
    -2
  9
$DIMTMOVE
 70
     0
  9
$LUNITS
 70
     5
  9
$LUPREC
 70
     6
  9
$SKETCHINC
 40
0.1
  9
$FILLETRAD
 40
0.0
  9
$AUNITS
 70
     0
  9
$AUPREC
 70
     0
  9
$MENU
  1
.
  9
$ELEVATION
 40
0.0
  9
$PELEVATION
 40
0.0
  9
$THICKNESS
 40
0.0
  9
$LIMCHECK
 70
     0
  9
$CHAMFERA
 40
0.5
  9
$CHAMFERB
 40
0.5
  9
$CHAMFERC
 40
1.0
  9
$CHAMFERD
 40
0.0
  9
$SKPOLY
 70
     0
  9
$TDCREATE
 40
2451225.386950695
  9
$TDUCREATE
 40
2451225.595284028
  9
$TDUPDATE
 40
2456169.517058218
  9
$TDUUPDATE
 40
2456169.725391551
  9
$TDINDWG
 40
0.6179441667
  9
$TDUSRTIMER
 40
0.6179441088
  9
$USRTIMER
 70
     1
  9
$ANGBASE
 50
0.0
  9
$ANGDIR
 70
     0
  9
$PDMODE
 70
     3
  9
$PDSIZE
 40
0.0
  9
$PLINEWID
 40
0.0
  9
$SPLFRAME
 70
     0
  9
$SPLINETYPE
 70
     6
  9
$SPLINESEGS
 70
     8
  9
$HANDSEED
  5
1991E
  9
$SURFTAB1
 70
     6
  9
$SURFTAB2
 70
     6
  9
$SURFTYPE
 70
     6
  9
$SURFU
 70
     6
  9
$SURFV
 70
     6
  9
$UCSBASE
  2

  9
$UCSNAME
  2

  9
$UCSORG
 10
0.0
 20
0.0
 30
0.0
  9
$UCSXDIR
 10
1.0
 20
0.0
 30
0.0
  9
$UCSYDIR
 10
0.0
 20
1.0
 30
0.0
  9
$UCSORTHOREF
  2

  9
$UCSORTHOVIEW
 70
     0
  9
$UCSORGTOP
 10
0.0
 20
0.0
 30
0.0
  9
$UCSORGBOTTOM
 10
0.0
 20
0.0
 30
0.0
  9
$UCSORGLEFT
 10
0.0
 20
0.0
 30
0.0
  9
$UCSORGRIGHT
 10
0.0
 20
0.0
 30
0.0
  9
$UCSORGFRONT
 10
0.0
 20
0.0
 30
0.0
  9
$UCSORGBACK
 10
0.0
 20
0.0
 30
0.0
  9
$PUCSBASE
  2

  9
$PUCSNAME
  2

  9
$PUCSORG
 10
0.0
 20
0.0
 30
0.0
  9
$PUCSXDIR
 10
1.0
 20
0.0
 30
0.0
  9
$PUCSYDIR
 10
0.0
 20
1.0
 30
0.0
  9
$PUCSORTHOREF
  2

  9
$PUCSORTHOVIEW
 70
     0
  9
$PUCSORGTOP
 10
0.0
 20
0.0
 30
0.0
  9
$PUCSORGBOTTOM
 10
0.0
 20
0.0
 30
0.0
  9
$PUCSORGLEFT
 10
0.0
 20
0.0
 30
0.0
  9
$PUCSORGRIGHT
 10
0.0
 20
0.0
 30
0.0
  9
$PUCSORGFRONT
 10
0.0
 20
0.0
 30
0.0
  9
$PUCSORGBACK
 10
0.0
 20
0.0
 30
0.0
  9
$USERI1
 70
     0
  9
$USERI2
 70
     0
  9
$USERI3
 70
     0
  9
$USERI4
 70
     0
  9
$USERI5
 70
     0
  9
$USERR1
 40
0.0
  9
$USERR2
 40
0.0
  9
$USERR3
 40
0.0
  9
$USERR4
 40
0.0
  9
$USERR5
 40
0.0
  9
$WORLDVIEW
 70
     1
  9
$SHADEDGE
 70
     3
  9
$SHADEDIF
 70
    70
  9
$TILEMODE
 70
     1
  9
$MAXACTVP
 70
    48
  9
$PINSBASE
 10
0.0
 20
0.0
 30
0.0
  9
$PLIMCHECK
 70
     0
  9
$PEXTMIN
 10
0.0000000000000009
 20
-0.0000000000000004
 30
0.0
  9
$PEXTMAX
 10
7.764780009564798
 20
10.205
 30
0.0
  9
$PLIMMIN
 10
-0.2079161059762549
 20
-0.2079166691697489
  9
$PLIMMAX
 10
8.291999999999998
 20
10.792
  9
$UNITMODE
 70
     0
  9
$VISRETAIN
 70
     1
  9
$PLINEGEN
 70
     0
  9
$PSLTSCALE
 70
     1
  9
$TREEDEPTH
 70
     0
  9
$CMLSTYLE
  2
STANDARD
  9
$CMLJUST
 70
     0
  9
$CMLSCALE
 40
1.0
  9
$PROXYGRAPHICS
 70
     1
  9
$MEASUREMENT
 70
     0
  9
$CELWEIGHT
370
    -1
  9
$ENDCAPS
280
     0
  9
$JOINSTYLE
280
     0
  9
$LWDISPLAY
290
     0
  9
$INSUNITS
 70
     1
  9
$HYPERLINKBASE
  1

  9
$STYLESHEET
  1
5000N-BLACK.CTB
  9
$XEDIT
290
     1
  9
$CEPSNTYPE
380
     0
  9
$PSTYLEMODE
290
     1
  9
$FINGERPRINTGUID
  2
{B3E5E9A9-FEC4-11D2-95EF-00104B2EF1F9}
  9
$VERSIONGUID
  2
{EB2B0C9A-51CC-4797-BF26-C3B29B1B86CF}
  9
$EXTNAMES
290
     1
  9
$PSVPSCALE
 40
0.0
  9
$OLESTARTUP
290
     0
  0
ENDSEC
  0
SECTION
  2
CLASSES
  0
CLASS
  1
IDBUFFER
  2
AcDbIdBuffer
  3
ObjectDBX Classes
 90
    32768
280
     0
281
     0
  0
CLASS
  1
ACDBDICTIONARYWDFLT
  2
AcDbDictionaryWithDefault
  3
ObjectDBX Classes
 90
        0
280
     0
281
     0
  0
CLASS
  1
ACDBPLACEHOLDER
  2
AcDbPlaceHolder
  3
ObjectDBX Classes
 90
        0
280
     0
281
     0
  0
CLASS
  1
LAYOUT
  2
AcDbLayout
  3
ObjectDBX Classes
 90
        0
280
     0
281
     0
  0
CLASS
  1
DICTIONARYVAR
  2
AcDbDictionaryVar
  3
ObjectDBX Classes
 90
        0
280
     0
281
     0
  0
CLASS
  1
TABLESTYLE
  2
AcDbTableStyle
  3
ObjectDBX Classes
 90
     4095
280
     0
281
     0
  0
CLASS
  1
PLOTSETTINGS
  2
AcDbPlotSettings
  3
ObjectDBX Classes
 90
        0
280
     0
281
     0
  0
CLASS
  1
MATERIAL
  2
AcDbMaterial
  3
ObjectDBX Classes
 90
     1153
280
     0
281
     0
  0
CLASS
  1
VISUALSTYLE
  2
AcDbVisualStyle
  3
ObjectDBX Classes
 90
     4095
280
     0
281
     0
  0
CLASS
  1
SORTENTSTABLE
  2
AcDbSortentsTable
  3
ObjectDBX Classes
 90
        0
280
     0
281
     0
  0
CLASS
  1
FIELD
  2
AcDbField
  3
ObjectDBX Classes
 90
    33920
280
     0
281
     0
  0
CLASS
  1
FIELDLIST
  2
AcDbFieldList
  3
ObjectDBX Classes
 90
     1152
280
     0
281
     0
  0
CLASS
  1
EXACTERMXREFMAP
  2
ExAcTermXrefMap
  3
EXAC_SERVICE
 90
    33793
280
     0
281
     0
  0
CLASS
  1
NPOCOLLECTION
  2
AcDbImpNonPersistentObjectsCollection
  3
ObjectDBX Classes
 90
    33921
280
     0
281
     0
  0
CLASS
  1
EXACXREFPANELOBJECT
  2
ExAcXREFPanelObject
  3
EXAC_ESW
 90
    33793
280
     0
281
     0
  0
CLASS
  1
ACAD_EVALUATION_GRAPH
  2
AcDbEvalGraph
  3
ObjectDBX Classes
 90
    33921
280
     0
281
     0
  0
CLASS
  1
BLOCKBASEPOINTPARAMETER
  2
AcDbBlockBasepointParameter
  3
ObjectDBX Classes
 90
    33921
280
     0
281
     0
  0
CLASS
  1
BLOCKVISIBILITYPARAMETER
  2
AcDbBlockVisibilityParameter
  3
ObjectDBX Classes
 90
    33921
280
     0
281
     0
  0
CLASS
  1
BLOCKVISIBILITYGRIP
  2
AcDbBlockVisibilityGrip
  3
ObjectDBX Classes
 90
    33921
280
     0
281
     0
  0
CLASS
  1
BLOCKGRIPLOCATIONCOMPONENT
  2
AcDbBlockGripExpr
  3
ObjectDBX Classes
 90
    33921
280
     0
281
     0
  0
CLASS
  1
ACDB_DYNAMICBLOCKPURGEPREVENTER_VERSION
  2
AcDbDynamicBlockPurgePreventer
  3
ObjectDBX Classes
 90
    33921
280
     0
281
     0
  0
CLASS
  1
ACDB_BLOCKREPRESENTATION_DATA
  2
AcDbBlockRepresentationData
  3
ObjectDBX Classes
 90
    33921
280
     0
281
     0
  0
CLASS
  1
SCALE
  2
AcDbScale
  3
ObjectDBX Classes
 90
     1153
280
     0
281
     0
  0
CLASS
  1
MLEADERSTYLE
  2
AcDbMLeaderStyle
  3
ACDB_MLEADERSTYLE_CLASS
 90
     4095
280
     0
281
     0
  0
CLASS
  1
CELLSTYLEMAP
  2
AcDbCellStyleMap
  3
ObjectDBX Classes
 90
     1152
280
     0
281
     0
  0
ENDSEC
  0
SECTION
  2
TABLES
  0
TABLE
  2
VPORT
  5
1A
102
{ACAD_XDICTIONARY
360
139C
102
}
330
0
100
AcDbSymbolTable
 70
     1
  0
VPORT
  5
882
330
1A
100
AcDbSymbolTableRecord
100
AcDbViewportTableRecord
  2
*Active
 70
     0
 10
0.0
 20
0.0
 11
1.0
 21
1.0
 12
5.588520828750447
 22
16.01142541083552
 13
0.0
 23
0.0
 14
0.5
 24
0.5
 15
0.5
 25
0.5
 16
0.0
 26
0.0
 36
1.0
 17
0.0
 27
0.0
 37
0.0
 40
11.0288994740777
 41
2.377604166666666
 42
50.0
 43
0.0
 44
0.0
 50
0.0
 51
0.0
 71
     0
 72
   100
 73
     1
 74
     1
 75
     0
 76
     0
 77
     0
 78
     0
281
     0
 65
     1
110
0.0
120
0.0
130
0.0
111
1.0
121
0.0
131
0.0
112
0.0
122
1.0
132
0.0
 79
     0
146
0.0
1001
ACAD_NAV_VCDISPLAY
1070
     3
  0
ENDTAB
  0
TABLE
  2
LTYPE
  5
15
330
0
100
AcDbSymbolTable
 70
     2
  0
LTYPE
  5
16
330
15
100
AcDbSymbolTableRecord
100
AcDbLinetypeTableRecord
  2
BYBLOCK
 70
     0
  3

 72
    65
 73
     0
 40
0.0
  0
LTYPE
  5
17
330
15
100
AcDbSymbolTableRecord
100
AcDbLinetypeTableRecord
  2
BYLAYER
 70
     0
  3

 72
    65
 73
     0
 40
0.0
  0
LTYPE
  5
8
330
15
100
AcDbSymbolTableRecord
100
AcDbLinetypeTableRecord
  2
CONTINUOUS
 70
     0
  3
Solid line
 72
    65
 73
     0
 40
0.0
  0
LTYPE
  5
1A5D
330
15
100
AcDbSymbolTableRecord
100
AcDbLinetypeTableRecord
  2
PHANTOM
 70
     0
  3
Phantom ______  __  __  ______  __  __  ______
 72
    65
 73
     6
 40
2.5
 49
1.25
 74
     0
 49
-0.25
 74
     0
 49
0.25
 74
     0
 49
-0.25
 74
     0
 49
0.25
 74
     0
 49
-0.25
 74
     0
  0
ENDTAB
  0
TABLE
  2
LAYER
  5
11
102
{ACAD_XDICTIONARY
360
899
102
}
330
0
100
AcDbSymbolTable
 70
     6
  0
LAYER
  5
4
102
{ACAD_XDICTIONARY
360
194BF
102
}
330
11
100
AcDbSymbolTableRecord
100
AcDbLayerTableRecord
  2
0
 70
     0
 62
     7
  6
CONTINUOUS
370
    -3
390
5
1001
RAK
1000
{ACET-LAYISO
1070
     0
1070
     7
1000
CONTINUOUS
1071
       -3
1071
        1
1005
5
1000
ACET-LAYISO}
  0
LAYER
  5
1A61
102
{ACAD_XDICTIONARY
360
1A62
102
}
330
11
100
AcDbSymbolTableRecord
100
AcDbLayerTableRecord
  2
DIM
 70
     0
 62
     1
  6
CONTINUOUS
370
    -3
390
5
  0
LAYER
  5
1A79
102
{ACAD_XDICTIONARY
360
1A7A
102
}
330
11
100
AcDbSymbolTableRecord
100
AcDbLayerTableRecord
  2
HATCH
 70
     0
 62
     2
  6
CONTINUOUS
370
    -3
390
5
  0
LAYER
  5
1A7C
102
{ACAD_XDICTIONARY
360
1A7D
102
}
330
11
100
AcDbSymbolTableRecord
100
AcDbLayerTableRecord
  2
SECTION
 70
     0
 62
   253
  6
PHANTOM
370
    -3
390
5
  0
LAYER
  5
1A7F
102
{ACAD_XDICTIONARY
360
1A80
102
}
330
11
100
AcDbSymbolTableRecord
100
AcDbLayerTableRecord
  2
DETAIL
 70
     0
 62
     1
  6
CONTINUOUS
370
    -3
390
5
  0
LAYER
  5
1A91
102
{ACAD_XDICTIONARY
360
1A92
102
}
330
11
100
AcDbSymbolTableRecord
100
AcDbLayerTableRecord
  2
PANEL
 70
     0
 62
    60
  6
CONTINUOUS
370
    -3
390
5
1001
AcAecLayerStandard
1000

1000

  0
ENDTAB
  0
TABLE
  2
STYLE
  5
12
330
0
100
AcDbSymbolTable
 70
     2
  0
STYLE
  5
13
330
12
100
AcDbSymbolTableRecord
100
AcDbTextStyleTableRecord
  2
STANDARD
 70
     0
 40
0.0
 41
1.0
 50
0.0
 71
     0
 42
0.2
  3
txt
  4

  0
STYLE
  5
20
330
12
100
AcDbSymbolTableRecord
100
AcDbTextStyleTableRecord
  2
STD
 70
     0
 40
0.0
 41
1.0
 50
0.0
 71
     0
 42
0.25
  3
arial_0.ttf
  4

1001
ACAD
1000
Arial
1071
       34
  0
ENDTAB
  0
TABLE
  2
VIEW
  5
18
330
0
100
AcDbSymbolTable
 70
     0
  0
ENDTAB
  0
TABLE
  2
UCS
  5
19
330
0
100
AcDbSymbolTable
 70
     0
  0
ENDTAB
  0
TABLE
  2
APPID
  5
1C
330
0
100
AcDbSymbolTable
 70
    24
  0
APPID
  5
1D
330
1C
100
AcDbSymbolTableRecord
100
AcDbRegAppTableRecord
  2
ACAD
 70
     0
  0
APPID
  5
9
330
1C
100
AcDbSymbolTableRecord
100
AcDbRegAppTableRecord
  2
RAK
 70
     0
  0
APPID
  5
3A
330
1C
100
AcDbSymbolTableRecord
100
AcDbRegAppTableRecord
  2
DCO15
 70
     0
  0
APPID
  5
126
330
1C
100
AcDbSymbolTableRecord
100
AcDbRegAppTableRecord
  2
ABNSLEADERTOOLS
 70
     0
  0
APPID
  5
895
330
1C
100
AcDbSymbolTableRecord
100
AcDbRegAppTableRecord
  2
ACAD_PSEXT
 70
     0
  0
APPID
  5
A2A
330
1C
100
AcDbSymbolTableRecord
100
AcDbRegAppTableRecord
  2
ACAD_DSTYLE_DIMTEXT_FILL
 70
     0
  0
APPID
  5
10A5
330
1C
100
AcDbSymbolTableRecord
100
AcDbRegAppTableRecord
  2
AcAecLayerStandard
 70
     0
  0
APPID
  5
198C
330
1C
100
AcDbSymbolTableRecord
100
AcDbRegAppTableRecord
  2
AcDbBlockRepETag
 70
     0
  0
APPID
  5
198D
330
1C
100
AcDbSymbolTableRecord
100
AcDbRegAppTableRecord
  2
AcLayerTools
 70
     0
  0
APPID
  5
1A37
330
1C
100
AcDbSymbolTableRecord
100
AcDbRegAppTableRecord
  2
ACAD_DSTYLE_DIMJAG
 70
     0
  0
APPID
  5
1A38
330
1C
100
AcDbSymbolTableRecord
100
AcDbRegAppTableRecord
  2
ACAD_DSTYLE_DIMBREAK
 70
     0
  0
APPID
  5
1A39
330
1C
100
AcDbSymbolTableRecord
100
AcDbRegAppTableRecord
  2
AcadAnnotative
 70
     0
  0
APPID
  5
1A3A
330
1C
100
AcDbSymbolTableRecord
100
AcDbRegAppTableRecord
  2
ACAD_DSTYLE_DIMTALN
 70
     0
  0
APPID
  5
1A3B
330
1C
100
AcDbSymbolTableRecord
100
AcDbRegAppTableRecord
  2
AcadAnnoAV
 70
     0
  0
APPID
  5
1D4C
330
1C
100
AcDbSymbolTableRecord
100
AcDbRegAppTableRecord
  2
ACAD_MLEADERVER
 70
     0
  0
APPID
  5
1D4D
330
1C
100
AcDbSymbolTableRecord
100
AcDbRegAppTableRecord
  2
AcadAnnoPO
 70
     0
  0
APPID
  5
1D4E
330
1C
100
AcDbSymbolTableRecord
100
AcDbRegAppTableRecord
  2
ACAD_DSTYLE_DIMRADIAL_EXTENSION
 70
     0
  0
APPID
  5
8648
330
1C
100
AcDbSymbolTableRecord
100
AcDbRegAppTableRecord
  2
AcDbDynamicBlockTrueName
 70
     0
  0
APPID
  5
8649
330
1C
100
AcDbSymbolTableRecord
100
AcDbRegAppTableRecord
  2
AcDbDynamicBlockGUID
 70
     0
  0
APPID
  5
F228
330
1C
100
AcDbSymbolTableRecord
100
AcDbRegAppTableRecord
  2
AcDbBlockRepBTag
 70
     0
  0
APPID
  5
17AB7
330
1C
100
AcDbSymbolTableRecord
100
AcDbRegAppTableRecord
  2
ACAD_EXEMPT_FROM_CAD_STANDARDS
 70
     0
  0
APPID
  5
194A1
330
1C
100
AcDbSymbolTableRecord
100
AcDbRegAppTableRecord
  2
GradientColor1ACI
 70
     0
  0
APPID
  5
194A2
330
1C
100
AcDbSymbolTableRecord
100
AcDbRegAppTableRecord
  2
GradientColor2ACI
 70
     0
  0
APPID
  5
19510
330
1C
100
AcDbSymbolTableRecord
100
AcDbRegAppTableRecord
  2
ACAD_NAV_VCDISPLAY
 70
     0
  0
ENDTAB
  0
TABLE
  2
DIMSTYLE
  5
1E
330
0
100
AcDbSymbolTable
 70
     1
100
AcDbDimStyleTable
 71
     1
340
172
  0
DIMSTYLE
105
172
330
1E
100
AcDbSymbolTableRecord
100
AcDbDimStyleTableRecord
  2
Standard
 70
     0
340
13
  0
ENDTAB
  0
TABLE
  2
BLOCK_RECORD
  5
1
330
0
100
AcDbSymbolTable
 70
     0
  0
BLOCK_RECORD
  5
2
102
{ACAD_XDICTIONARY
360
17B05
102
}
330
1
100
AcDbSymbolTableRecord
100
AcDbBlockTableRecord
  2
*MODEL_SPACE
340
B
  0
BLOCK_RECORD
  5
D
102
{ACAD_XDICTIONARY
360
1D72
102
}
330
1
100
AcDbSymbolTableRecord
100
AcDbBlockTableRecord
  2
*PAPER_SPACE
340
10
  0
ENDTAB
  0
ENDSEC
  0
SECTION
  2
BLOCKS
  0
BLOCK
  5
3
330
2
100
AcDbEntity
  8
0
100
AcDbBlockBegin
  2
*MODEL_SPACE
 70
     0
 10
0.0
 20
0.0
 30
0.0
  3
*MODEL_SPACE
  1

  0
ENDBLK
  5
A
330
2
100
AcDbEntity
  8
0
100
AcDbBlockEnd
  0
BLOCK
  5
E
330
D
100
AcDbEntity
 67
     1
  8
0
100
AcDbBlockBegin
  2
*PAPER_SPACE
 70
     0
 10
0.0
 20
0.0
 30
0.0
  3
*PAPER_SPACE
  1

  0
ENDBLK
  5
F
330
D
100
AcDbEntity
 67
     1
  8
0
100
AcDbBlockEnd
  0
ENDSEC
  0
SECTION
  2
ENTITIES
  0
ARC
  5
17C9B
330
2
100
AcDbEntity
  8
DETAIL
100
AcDbCircle
 10
74.49984923000994
 20
-285.4769226079525
 30
0.0
 40
310.5621387980066
100
AcDbArc
 50
101.9860177718182
 51
103.5202336885219
  0
ARC
  5
17C9D
330
2
100
AcDbEntity
  8
DETAIL
100
AcDbCircle
 10
74.49984923000994
 20
-285.4769226079525
 30
0.0
 40
310.4981387980067
100
AcDbArc
 50
101.9860177718182
 51
102.7797767840394
  0
ARC
  5
17C9E
330
2
100
AcDbEntity
  8
DETAIL
100
AcDbCircle
 10
74.55829641410146
 20
-285.7199944629085
 30
0.0
 40
311.312138798006
100
AcDbArc
 50
101.9860177718213
 51
103.5202336885219
  0
ARC
  5
17C9F
330
2
100
AcDbEntity
  8
DETAIL
100
AcDbCircle
 10
74.49984923000994
 20
-285.4769226079525
 30
0.0
 40
308.0781387980095
100
AcDbArc
 50
101.9860177718149
 51
103.3031316885868
  0
ARC
  5
17CA0
330
2
100
AcDbEntity
  8
DETAIL
100
AcDbCircle
 10
74.49984923000994
 20
-285.4769226079525
 30
0.0
 40
308.1331387980096
100
AcDbArc
 50
101.9860177718149
 51
103.3031316885868
  0
ARC
  5
17CA1
330
2
100
AcDbEntity
  8
DETAIL
100
AcDbCircle
 10
74.49984923000994
 20
-285.4769226079525
 30
0.0
 40
308.9726387980081
100
AcDbArc
 50
101.9860177718182
 51
103.2304816758785
  0
ARC
  5
17CA2
330
2
100
AcDbEntity
  8
DETAIL
100
AcDbCircle
 10
74.49984923000994
 20
-285.4769226079525
 30
0.0
 40
308.5401387980086
100
AcDbArc
 50
101.9860177718182
 51
103.2304816758785
  0
ARC
  5
17CA3
330
2
100
AcDbEntity
  8
DETAIL
100
AcDbCircle
 10
74.49984923000994
 20
-285.4769226079525
 30
0.0
 40
309.0621490041939
100
AcDbArc
 50
101.9860177718182
 51
103.2304816758785
  0
ARC
  5
17CA4
330
2
100
AcDbEntity
  8
DETAIL
100
AcDbCircle
 10
74.49984923000994
 20
-285.4769226079525
 30
0.0
 40
309.1261490041938
100
AcDbArc
 50
101.9860177718182
 51
102.9327094371391
  0
ARC
  5
17CA5
330
2
100
AcDbEntity
  8
DETAIL
100
AcDbCircle
 10
74.49984923000994
 20
-285.4769226079525
 30
0.0
 40
309.0156387980087
100
AcDbArc
 50
103.2304816758785
 51
103.3031316885868
  0
LINE
  5
17CA7
330
2
100
AcDbEntity
  8
DETAIL
100
AcDbLine
 10
3.610167093414418
 20
14.33433897476088
 30
0.0
 11
3.586972191020631
 21
14.43243636692515
 31
0.0
  0
LINE
  5
17CA8
330
2
100
AcDbEntity
  8
DETAIL
100
AcDbLine
 10
3.572807855771408
 20
14.49234109625319
 30
0.0
 11
3.394445597360267
 21
15.24668237838554
 31
0.0
  0
LINE
  5
17CAA
330
2
100
AcDbEntity
  8
DETAIL
100
AcDbLine
 10
3.884641859345855
 20
14.87372203509197
 30
0.0
 11
3.765170016547268
 21
15.38187667114307
 31
0.0
  0
LINE
  5
17CAC
330
2
100
AcDbEntity
  8
DETAIL
100
AcDbLine
 10
4.17253565050564
 20
15.64555164766481
 30
0.0
 11
4.13999230667412
 21
15.78502069156118
 31
0.0
  0
LINE
  5
17CAD
330
2
100
AcDbEntity
  8
DETAIL
100
AcDbLine
 10
4.292307844630811
 20
15.68234644812299
 30
0.0
 11
4.17253565050564
 21
15.64555164766481
 31
0.0
  0
LINE
  5
17CAE
330
2
100
AcDbEntity
  8
DETAIL
100
AcDbLine
 10
4.292307844630811
 20
15.68234644812299
 30
0.0
 11
4.317819459485863
 21
15.67423038872711
 31
0.0
  0
LINE
  5
17CAF
330
2
100
AcDbEntity
  8
DETAIL
100
AcDbLine
 10
4.191427142690669
 20
15.83963715102092
 30
0.0
 11
4.194277568998426
 21
15.66573565798162
 31
0.0
  0
LINE
  5
17CB0
330
2
100
AcDbEntity
  8
DETAIL
100
AcDbLine
 10
4.191427142690669
 20
15.83963715102092
 30
0.0
 11
4.169191794685821
 21
15.65988220867157
 31
0.0
  0
LINE
  5
17CB1
330
2
100
AcDbEntity
  8
DETAIL
100
AcDbLine
 10
4.191427142690669
 20
15.83963715102092
 30
0.0
 11
4.13999230667412
 21
15.78502069156118
 31
0.0
  0
LINE
  5
17CB2
330
2
100
AcDbEntity
  8
DETAIL
100
AcDbLine
 10
4.191427142690669
 20
15.83963715102092
 30
0.0
 11
4.2617223483951
 21
15.81342486277867
 31
0.0
  0
LINE
  5
17CB3
330
2
100
AcDbEntity
  8
DETAIL
100
AcDbLine
 10
4.292307844630811
 20
15.68234644812299
 30
0.0
 11
4.2617223483951
 21
15.81342486277867
 31
0.0
  0
LINE
  5
17CB4
330
2
100
AcDbEntity
  8
DETAIL
100
AcDbLine
 10
4.192122982053954
 20
15.79718472772016
 30
0.0
 11
4.2617223483951
 21
15.81342486277867
 31
0.0
  0
LINE
  5
17CB5
330
2
100
AcDbEntity
  8
DETAIL
100
AcDbLine
 10
4.194277568998426
 20
15.66573565798162
 30
0.0
 11
4.169191794685821
 21
15.65988220867157
 31
0.0
  0
LINE
  5
17CB6
330
2
100
AcDbEntity
  8
DETAIL
100
AcDbLine
 10
4.207465192375192
 20
15.28682001944689
 30
0.0
 11
4.421710065804365
 21
15.33681136079007
 31
0.0
  0
LINE
  5
17CB7
330
2
100
AcDbEntity
  8
DETAIL
100
AcDbLine
 10
4.151956026149825
 20
15.34318086547477
 30
0.0
 11
4.446542727114827
 21
15.41191895982107
 31
0.0
  0
LINE
  5
17CB8
330
2
100
AcDbEntity
  8
DETAIL
100
AcDbLine
 10
4.347656570275521
 20
15.44514175623647
 30
0.0
 11
4.227884376150348
 21
15.4083469557783
 31
0.0
  0
LINE
  5
17CB9
330
2
100
AcDbEntity
  8
DETAIL
100
AcDbLine
 10
4.345378844940262
 20
15.45490326619085
 30
0.0
 11
4.225606650815541
 21
15.41810846573267
 31
0.0
  0
LINE
  5
17CBA
330
2
100
AcDbEntity
  8
DETAIL
100
AcDbLine
 10
4.338431782667767
 20
15.48467587155081
 30
0.0
 11
4.218659588543046
 21
15.44788107109264
 31
0.0
  0
LINE
  5
17CBB
330
2
100
AcDbEntity
  8
DETAIL
100
AcDbLine
 10
4.336154057332509
 20
15.49443738150519
 30
0.0
 11
4.216381863207788
 21
15.45764258104702
 31
0.0
  0
LINE
  5
17CBC
330
2
100
AcDbEntity
  8
DETAIL
100
AcDbLine
 10
4.329206995060466
 20
15.52420998686562
 30
0.0
 11
4.209434800935748
 21
15.48741518640699
 31
0.0
  0
LINE
  5
17CBD
330
2
100
AcDbEntity
  8
DETAIL
100
AcDbLine
 10
4.326929269725209
 20
15.53397149681954
 30
0.0
 11
4.207157075600488
 21
15.49717669636136
 31
0.0
  0
LINE
  5
17CBE
330
2
100
AcDbEntity
  8
DETAIL
100
AcDbLine
 10
4.319982207453167
 20
15.56374410217996
 30
0.0
 11
4.200210013327993
 21
15.52694930172133
 31
0.0
  0
LINE
  5
17CBF
330
2
100
AcDbEntity
  8
DETAIL
100
AcDbLine
 10
4.31770448211791
 20
15.57350561213388
 30
0.0
 11
4.197932287993189
 21
15.53671081167571
 31
0.0
  0
LINE
  5
17CC0
330
2
100
AcDbEntity
  8
DETAIL
100
AcDbLine
 10
4.310757419845412
 20
15.6032782174943
 30
0.0
 11
4.190985225720694
 21
15.56648341703613
 31
0.0
  0
LINE
  5
17CC1
330
2
100
AcDbEntity
  8
DETAIL
100
AcDbLine
 10
4.308479694510153
 20
15.61303972744823
 30
0.0
 11
4.188707500385432
 21
15.57624492699005
 31
0.0
  0
LINE
  5
17CC2
330
2
100
AcDbEntity
  8
DETAIL
100
AcDbLine
 10
4.301532632238114
 20
15.64281233280865
 30
0.0
 11
4.181760438113393
 21
15.60601753235047
 31
0.0
  0
LINE
  5
17CC3
330
2
100
AcDbEntity
  8
DETAIL
100
AcDbLine
 10
4.299254906902851
 20
15.65257384276302
 30
0.0
 11
4.179482712778135
 21
15.61577904230439
 31
0.0
  0
LINE
  5
17CC4
330
2
100
AcDbEntity
  8
DETAIL
100
AcDbLine
 10
4.363943397522819
 20
15.47655981215539
 30
0.0
 11
4.200095035960035
 21
15.4262245251281
 31
0.0
  0
LINE
  5
17CC5
330
2
100
AcDbEntity
  8
DETAIL
100
AcDbLine
 10
4.354718609915521
 20
15.51609392746973
 30
0.0
 11
4.190870248352736
 21
15.4657586404429
 31
0.0
  0
LINE
  5
17CC6
330
2
100
AcDbEntity
  8
DETAIL
100
AcDbLine
 10
4.34549382230822
 20
15.55562804278408
 30
0.0
 11
4.181645460745436
 21
15.50529275575724
 31
0.0
  0
LINE
  5
17CC7
330
2
100
AcDbEntity
  8
DETAIL
100
AcDbLine
 10
4.336269034700467
 20
15.59516215809842
 30
0.0
 11
4.172420673137683
 21
15.54482687107159
 31
0.0
  0
LINE
  5
17CC8
330
2
100
AcDbEntity
  8
DETAIL
100
AcDbLine
 10
4.327044247093166
 20
15.63469627341277
 30
0.0
 11
4.163195885530381
 21
15.58436098638593
 31
0.0
  0
LINE
  5
17CC9
330
2
100
AcDbEntity
  8
DETAIL
100
AcDbLine
 10
4.317819459485863
 20
15.67423038872711
 30
0.0
 11
4.153971097923083
 21
15.62389510170028
 31
0.0
  0
LINE
  5
17CCA
330
2
100
AcDbEntity
  8
DETAIL
100
AcDbLine
 10
4.14366200815391
 20
15.37872603765727
 30
0.0
 11
4.438248709119367
 21
15.44746413200358
 31
0.0
  0
LINE
  5
17CCB
330
2
100
AcDbEntity
  8
DETAIL
100
AcDbLine
 10
4.421710065804365
 20
15.33681136079007
 30
0.0
 11
4.446542727114827
 21
15.41191895982107
 31
0.0
  0
LINE
  5
17CCC
330
2
100
AcDbEntity
  8
DETAIL
100
AcDbLine
 10
4.354718609915521
 20
15.51609392746973
 30
0.0
 11
4.336154057332509
 21
15.49443738150519
 31
0.0
  0
LINE
  5
17CCD
330
2
100
AcDbEntity
  8
DETAIL
100
AcDbLine
 10
4.329206995060466
 20
15.52420998686562
 30
0.0
 11
4.326929269725209
 21
15.53397149681954
 31
0.0
  0
LINE
  5
17CCE
330
2
100
AcDbEntity
  8
DETAIL
100
AcDbLine
 10
4.319982207453167
 20
15.56374410217996
 30
0.0
 11
4.31770448211791
 21
15.57350561213388
 31
0.0
  0
LINE
  5
17CCF
330
2
100
AcDbEntity
  8
DETAIL
100
AcDbLine
 10
4.301532632238114
 20
15.64281233280865
 30
0.0
 11
4.299254906902851
 21
15.65257384276302
 31
0.0
  0
LINE
  5
17CD0
330
2
100
AcDbEntity
  8
DETAIL
100
AcDbLine
 10
4.310757419845412
 20
15.6032782174943
 30
0.0
 11
4.308479694510153
 21
15.61303972744823
 31
0.0
  0
LINE
  5
17CD1
330
2
100
AcDbEntity
  8
DETAIL
100
AcDbLine
 10
4.329206995060466
 20
15.52420998686562
 30
0.0
 11
4.354718609915521
 21
15.51609392746973
 31
0.0
  0
LINE
  5
17CD2
330
2
100
AcDbEntity
  8
DETAIL
100
AcDbLine
 10
4.319982207453167
 20
15.56374410217996
 30
0.0
 11
4.34549382230822
 21
15.55562804278408
 31
0.0
  0
LINE
  5
17CD3
330
2
100
AcDbEntity
  8
DETAIL
100
AcDbLine
 10
4.34549382230822
 20
15.55562804278408
 30
0.0
 11
4.326929269725209
 21
15.53397149681954
 31
0.0
  0
LINE
  5
17CD4
330
2
100
AcDbEntity
  8
DETAIL
100
AcDbLine
 10
4.310757419845412
 20
15.6032782174943
 30
0.0
 11
4.336269034700467
 21
15.59516215809842
 31
0.0
  0
LINE
  5
17CD5
330
2
100
AcDbEntity
  8
DETAIL
100
AcDbLine
 10
4.336269034700467
 20
15.59516215809842
 30
0.0
 11
4.31770448211791
 21
15.57350561213388
 31
0.0
  0
LINE
  5
17CD6
330
2
100
AcDbEntity
  8
DETAIL
100
AcDbLine
 10
4.327044247093166
 20
15.63469627341277
 30
0.0
 11
4.308479694510153
 21
15.61303972744823
 31
0.0
  0
LINE
  5
17CD7
330
2
100
AcDbEntity
  8
DETAIL
100
AcDbLine
 10
4.301532632238114
 20
15.64281233280865
 30
0.0
 11
4.327044247093166
 21
15.63469627341277
 31
0.0
  0
LINE
  5
17CD8
330
2
100
AcDbEntity
  8
DETAIL
100
AcDbLine
 10
4.317819459485863
 20
15.67423038872711
 30
0.0
 11
4.299254906902851
 21
15.65257384276302
 31
0.0
  0
LINE
  5
17CD9
330
2
100
AcDbEntity
  8
DETAIL
100
AcDbLine
 10
4.438248709119367
 20
15.44746413200358
 30
0.0
 11
4.446542727114827
 21
15.41191895982107
 31
0.0
  0
LINE
  5
17CDA
330
2
100
AcDbEntity
  8
DETAIL
100
AcDbLine
 10
4.338431782667767
 20
15.48467587155081
 30
0.0
 11
4.336154057332509
 21
15.49443738150519
 31
0.0
  0
LINE
  5
17CDB
330
2
100
AcDbEntity
  8
DETAIL
100
AcDbLine
 10
4.347656570275521
 20
15.44514175623647
 30
0.0
 11
4.345378844940262
 21
15.45490326619085
 31
0.0
  0
LINE
  5
17CDC
330
2
100
AcDbEntity
  8
DETAIL
100
AcDbLine
 10
4.373168185130576
 20
15.43702569684105
 30
0.0
 11
4.308902033690357
 21
15.41728271529351
 31
0.0
  0
LINE
  5
17CDD
330
2
100
AcDbEntity
  8
DETAIL
100
AcDbLine
 10
4.373168185130576
 20
15.43702569684105
 30
0.0
 11
4.3680811700507
 21
15.4310914209997
 31
0.0
  0
LINE
  5
17CDE
330
2
100
AcDbEntity
  8
DETAIL
100
AcDbLine
 10
4.347656570275521
 20
15.44514175623647
 30
0.0
 11
4.373168185130576
 21
15.43702569684105
 31
0.0
  0
LINE
  5
17CDF
330
2
100
AcDbEntity
  8
DETAIL
100
AcDbLine
 10
4.338431782667767
 20
15.48467587155081
 30
0.0
 11
4.363943397522819
 21
15.47655981215539
 31
0.0
  0
LINE
  5
17CE0
330
2
100
AcDbEntity
  8
DETAIL
100
AcDbLine
 10
4.363943397522819
 20
15.47655981215539
 30
0.0
 11
4.345378844940262
 21
15.45490326619085
 31
0.0
  0
LINE
  5
17CE1
330
2
100
AcDbEntity
  8
DETAIL
100
AcDbLine
 10
4.207465192375192
 20
15.28682001944689
 30
0.0
 11
4.151956026149825
 21
15.34318086547477
 31
0.0
  0
LINE
  5
17CE2
330
2
100
AcDbEntity
  8
DETAIL
100
AcDbLine
 10
4.209434800935748
 20
15.48741518640699
 30
0.0
 11
4.190870248352736
 21
15.4657586404429
 31
0.0
  0
LINE
  5
17CE3
330
2
100
AcDbEntity
  8
DETAIL
100
AcDbLine
 10
4.181760438113393
 20
15.60601753235047
 30
0.0
 11
4.179482712778135
 21
15.61577904230439
 31
0.0
  0
LINE
  5
17CE4
330
2
100
AcDbEntity
  8
DETAIL
100
AcDbLine
 10
4.209434800935748
 20
15.48741518640699
 30
0.0
 11
4.207157075600488
 21
15.49717669636136
 31
0.0
  0
LINE
  5
17CE5
330
2
100
AcDbEntity
  8
DETAIL
100
AcDbLine
 10
4.190985225720694
 20
15.56648341703613
 30
0.0
 11
4.188707500385432
 21
15.57624492699005
 31
0.0
  0
LINE
  5
17CE6
330
2
100
AcDbEntity
  8
DETAIL
100
AcDbLine
 10
4.200210013327993
 20
15.52694930172133
 30
0.0
 11
4.197932287993189
 21
15.53671081167571
 31
0.0
  0
LINE
  5
17CE7
330
2
100
AcDbEntity
  8
DETAIL
100
AcDbLine
 10
4.181645460745436
 20
15.50529275575724
 30
0.0
 11
4.207157075600488
 21
15.49717669636136
 31
0.0
  0
LINE
  5
17CE8
330
2
100
AcDbEntity
  8
DETAIL
100
AcDbLine
 10
4.200210013327993
 20
15.52694930172133
 30
0.0
 11
4.181645460745436
 21
15.50529275575724
 31
0.0
  0
LINE
  5
17CE9
330
2
100
AcDbEntity
  8
DETAIL
100
AcDbLine
 10
4.172420673137683
 20
15.54482687107159
 30
0.0
 11
4.197932287993189
 21
15.53671081167571
 31
0.0
  0
LINE
  5
17CEA
330
2
100
AcDbEntity
  8
DETAIL
100
AcDbLine
 10
4.190985225720694
 20
15.56648341703613
 30
0.0
 11
4.172420673137683
 21
15.54482687107159
 31
0.0
  0
LINE
  5
17CEB
330
2
100
AcDbEntity
  8
DETAIL
100
AcDbLine
 10
4.181760438113393
 20
15.60601753235047
 30
0.0
 11
4.163195885530381
 21
15.58436098638593
 31
0.0
  0
LINE
  5
17CEC
330
2
100
AcDbEntity
  8
DETAIL
100
AcDbLine
 10
4.163195885530381
 20
15.58436098638593
 30
0.0
 11
4.188707500385432
 21
15.57624492699005
 31
0.0
  0
LINE
  5
17CED
330
2
100
AcDbEntity
  8
DETAIL
100
AcDbLine
 10
4.153971097923083
 20
15.62389510170028
 30
0.0
 11
4.179482712778135
 21
15.61577904230439
 31
0.0
  0
LINE
  5
17CEE
330
2
100
AcDbEntity
  8
DETAIL
100
AcDbLine
 10
4.17253565050564
 20
15.64555164766481
 30
0.0
 11
4.153971097923083
 21
15.62389510170028
 31
0.0
  0
LINE
  5
17CEF
330
2
100
AcDbEntity
  8
DETAIL
100
AcDbLine
 10
4.218659588543046
 20
15.44788107109264
 30
0.0
 11
4.216381863207788
 21
15.45764258104702
 31
0.0
  0
LINE
  5
17CF0
330
2
100
AcDbEntity
  8
DETAIL
100
AcDbLine
 10
4.227884376150348
 20
15.4083469557783
 30
0.0
 11
4.225606650815541
 21
15.41810846573267
 31
0.0
  0
LINE
  5
17CF1
330
2
100
AcDbEntity
  8
DETAIL
100
AcDbLine
 10
4.227884376150348
 20
15.4083469557783
 30
0.0
 11
4.217202296583582
 21
15.39588573722193
 31
0.0
  0
LINE
  5
17CF2
330
2
100
AcDbEntity
  8
DETAIL
100
AcDbLine
 10
4.200095035960035
 20
15.4262245251281
 30
0.0
 11
4.225606650815541
 21
15.41810846573267
 31
0.0
  0
LINE
  5
17CF3
330
2
100
AcDbEntity
  8
DETAIL
100
AcDbLine
 10
4.218659588543046
 20
15.44788107109264
 30
0.0
 11
4.200095035960035
 21
15.4262245251281
 31
0.0
  0
LINE
  5
17CF4
330
2
100
AcDbEntity
  8
DETAIL
100
AcDbLine
 10
4.190870248352736
 20
15.4657586404429
 30
0.0
 11
4.216381863207788
 21
15.45764258104702
 31
0.0
  0
LINE
  5
17CF5
330
2
100
AcDbEntity
  8
DETAIL
100
AcDbLine
 10
4.14366200815391
 20
15.37872603765727
 30
0.0
 11
4.151956026149825
 21
15.34318086547477
 31
0.0
  0
LINE
  5
17CF6
330
2
100
AcDbEntity
  8
DETAIL
100
AcDbLine
 10
4.754656065305638
 20
16.95193102238049
 30
0.0
 11
5.083338824355801
 21
17.02867042933436
 31
0.0
  0
LINE
  5
17CF7
330
2
100
AcDbEntity
  8
DETAIL
100
AcDbLine
 10
4.836826755067838
 20
16.97111587411885
 30
0.0
 11
4.809173821988383
 21
17.08955622570911
 31
0.0
  0
LINE
  5
17CF8
330
2
100
AcDbEntity
  8
DETAIL
100
AcDbLine
 10
4.731259330300196
 20
17.0521416406213
 30
0.0
 11
4.754656065305638
 21
16.95193102238049
 31
0.0
  0
LINE
  5
17CF9
330
2
100
AcDbEntity
  8
DETAIL
100
AcDbLine
 10
4.973515201516877
 20
17.1279259291881
 30
0.0
 11
5.001168134596785
 21
17.00948557759692
 31
0.0
  0
LINE
  5
17CFA
330
2
100
AcDbEntity
  8
DETAIL
100
AcDbLine
 10
5.059942089349906
 20
17.12888104757835
 30
0.0
 11
5.083338824355801
 21
17.02867042933436
 31
0.0
  0
LINE
  5
17CFB
330
2
100
AcDbEntity
  8
DETAIL
100
AcDbLine
 10
4.662492272069659
 20
17.09924017809535
 30
0.0
 11
4.667948936267587
 21
17.07586872508447
 31
0.0
  0
LINE
  5
17CFC
330
2
100
AcDbEntity
  8
DETAIL
100
AcDbLine
 10
4.667948936268498
 20
17.07586872508083
 30
0.0
 11
5.106163680218616
 21
17.17818117879033
 31
0.0
  0
LINE
  5
17CFD
330
2
100
AcDbEntity
  8
DETAIL
100
AcDbLine
 10
5.106163680218616
 20
17.17818117879079
 30
0.0
 11
5.100707016021138
 21
17.20155263180121
 31
0.0
  0
LINE
  5
17CFE
330
2
100
AcDbEntity
  8
DETAIL
100
AcDbLine
 10
5.100707016021138
 20
17.20155263180121
 30
0.0
 11
4.662492272069659
 21
17.09924017809535
 31
0.0
  0
ARC
  5
17CFF
330
2
100
AcDbEntity
  8
DETAIL
100
AcDbCircle
 10
5.096459984679199
 20
17.13740708538703
 30
0.0
 40
0.0374999999999616
100
AcDbArc
 50
103.1417528907784
 51
193.141752890777
  0
ARC
  5
17D00
330
2
100
AcDbEntity
  8
DETAIL
100
AcDbCircle
 10
4.694741434970906
 20
17.04361560281263
 30
0.0
 40
0.0374999999999616
100
AcDbArc
 50
13.14175289077704
 51
103.1417528911564
  0
ARC
  5
17D01
330
2
100
AcDbEntity
  8
DETAIL
100
AcDbCircle
 10
4.790885660007639
 20
17.08528638597445
 30
0.0
 40
0.0187799999999808
100
AcDbArc
 50
13.14175289072557
 51
103.1417528912065
  0
ARC
  5
17D02
330
2
100
AcDbEntity
  8
DETAIL
100
AcDbCircle
 10
4.991803363497623
 20
17.13219576892275
 30
0.0
 40
0.0187799999999808
100
AcDbArc
 50
103.141752891143
 51
193.141752890777
  0
LINE
  5
17D03
330
2
100
AcDbEntity
  8
DETAIL
100
AcDbLine
 10
4.972845691841488
 20
17.17170013141987
 30
0.0
 11
4.922375993924612
 21
17.3878670294749
 31
0.0
  0
LINE
  5
17D04
330
2
100
AcDbEntity
  8
DETAIL
100
AcDbLine
 10
4.778729368125101
 20
17.17888044102647
 30
0.0
 11
4.767419303397416
 21
17.2273226094942
 31
0.0
  0
LINE
  5
17D05
330
2
100
AcDbEntity
  8
DETAIL
100
AcDbLine
 10
4.918614010774091
 20
17.40397998956184
 30
0.0
 11
4.907303946046408
 21
17.45242215803002
 31
0.0
  0
LINE
  5
17D06
330
2
100
AcDbEntity
  8
DETAIL
100
AcDbLine
 10
4.808992683314205
 20
17.84924090836794
 30
0.0
 11
4.683018158037891
 21
18.00094129848043
 31
0.0
  0
LINE
  5
17D07
330
2
100
AcDbEntity
  8
DETAIL
100
AcDbLine
 10
4.683018158037891
 20
18.00094129848043
 30
0.0
 11
4.634379563184992
 21
17.79714547641528
 31
0.0
  0
LINE
  5
17D08
330
2
100
AcDbEntity
  8
DETAIL
100
AcDbLine
 10
4.79035359624931
 20
17.12909267847622
 30
0.0
 11
4.782491351275623
 21
17.16276748093908
 31
0.0
  0
LINE
  5
17D0B
330
2
100
AcDbEntity
  8
DETAIL
100
AcDbLine
 10
4.763657320246894
 20
17.24343556958159
 30
0.0
 11
4.75234725551921
 21
17.29187773804887
 31
0.0
  0
LINE
  5
17D0C
330
2
100
AcDbEntity
  8
DETAIL
100
AcDbLine
 10
4.903541962895887
 20
17.46853511811696
 30
0.0
 11
4.892231898168201
 21
17.51697728658468
 31
0.0
  0
LINE
  5
17D0E
330
2
100
AcDbEntity
  8
DETAIL
100
AcDbLine
 10
4.748585272368688
 20
17.30799069813672
 30
0.0
 11
4.737275207641005
 21
17.35643286660399
 31
0.0
  0
LINE
  5
17D0F
330
2
100
AcDbEntity
  8
DETAIL
100
AcDbLine
 10
4.88846991501768
 20
17.53309024667208
 30
0.0
 11
4.877159850289994
 21
17.58153241513981
 31
0.0
  0
LINE
  5
17D11
330
2
100
AcDbEntity
  8
DETAIL
100
AcDbLine
 10
4.733513224490483
 20
17.37254582669184
 30
0.0
 11
4.722203159762798
 21
17.42098799515911
 31
0.0
  0
LINE
  5
17D12
330
2
100
AcDbEntity
  8
DETAIL
100
AcDbLine
 10
4.873397867139471
 20
17.59764537522721
 30
0.0
 11
4.862087802411789
 21
17.64608754369493
 31
0.0
  0
LINE
  5
17D14
330
2
100
AcDbEntity
  8
DETAIL
100
AcDbLine
 10
4.718441176612278
 20
17.43710095524651
 30
0.0
 11
4.707131111884597
 21
17.48554312371424
 31
0.0
  0
LINE
  5
17D15
330
2
100
AcDbEntity
  8
DETAIL
100
AcDbLine
 10
4.858325819261266
 20
17.66220050378232
 30
0.0
 11
4.847015754533583
 21
17.71064267225005
 31
0.0
  0
LINE
  5
17D17
330
2
100
AcDbEntity
  8
DETAIL
100
AcDbLine
 10
4.703369128734074
 20
17.50165608380163
 30
0.0
 11
4.692059064006389
 21
17.55009825226936
 31
0.0
  0
LINE
  5
17D18
330
2
100
AcDbEntity
  8
DETAIL
100
AcDbLine
 10
4.843253771383061
 20
17.726755632337
 30
0.0
 11
4.831943706655375
 21
17.77519780080518
 31
0.0
  0
LINE
  5
17D1A
330
2
100
AcDbEntity
  8
DETAIL
100
AcDbLine
 10
4.688297080855868
 20
17.56621121235676
 30
0.0
 11
4.676987016128183
 21
17.61465338082448
 31
0.0
  0
LINE
  5
17D1B
330
2
100
AcDbEntity
  8
DETAIL
100
AcDbLine
 10
4.828181723504853
 20
17.79131076089212
 30
0.0
 11
4.81687165877717
 21
17.83975292935985
 31
0.0
  0
LINE
  5
17D1D
330
2
100
AcDbEntity
  8
DETAIL
100
AcDbLine
 10
4.673225032977661
 20
17.63076634091188
 30
0.0
 11
4.661914968249976
 21
17.67920850937915
 31
0.0
  0
LINE
  5
17D1F
330
2
100
AcDbEntity
  8
DETAIL
100
AcDbLine
 10
4.658152985099454
 20
17.695321469467
 30
0.0
 11
4.646842920371771
 21
17.74376363793427
 31
0.0
  0
LINE
  5
17D21
330
2
100
AcDbEntity
  8
DETAIL
100
AcDbLine
 10
4.643080937221248
 20
17.75987659802167
 30
0.0
 11
4.634379563184992
 21
17.79714547641528
 31
0.0
  0
LINE
  5
17D23
330
2
100
AcDbEntity
  8
DETAIL
100
AcDbLine
 10
2.932947581195231
 20
16.5260472539503
 30
0.0
 11
3.261159096043051
 21
16.60477777025735
 31
0.0
  0
LINE
  5
17D24
330
2
100
AcDbEntity
  8
DETAIL
100
AcDbLine
 10
3.015000459907301
 20
16.54572988302695
 30
0.0
 11
2.986630033483919
 21
16.66400042245763
 31
0.0
  0
LINE
  5
17D25
330
2
100
AcDbEntity
  8
DETAIL
100
AcDbLine
 10
2.908943785753468
 20
16.62611419665144
 30
0.0
 11
2.932947581195231
 21
16.5260472539503
 31
0.0
  0
LINE
  5
17D26
330
2
100
AcDbEntity
  8
DETAIL
100
AcDbLine
 10
3.150735790911241
 20
16.70336568061321
 30
0.0
 11
3.179106217334623
 21
16.58509514118116
 31
0.0
  0
LINE
  5
17D27
330
2
100
AcDbEntity
  8
DETAIL
100
AcDbLine
 10
3.237155300600381
 20
16.70484471296077
 30
0.0
 11
3.261159096043051
 21
16.60477777025735
 31
0.0
  0
LINE
  5
17D28
330
2
100
AcDbEntity
  8
DETAIL
100
AcDbLine
 10
2.839892473394001
 20
16.67279499346645
 30
0.0
 11
2.845490718241528
 21
16.64945704894204
 31
0.0
  0
LINE
  5
17D29
330
2
100
AcDbEntity
  8
DETAIL
100
AcDbLine
 10
2.845490718242892
 20
16.6494570489384
 30
0.0
 11
3.283077178074364
 21
16.75442413983615
 31
0.0
  0
LINE
  5
17D2A
330
2
100
AcDbEntity
  8
DETAIL
100
AcDbLine
 10
3.283077178074364
 20
16.75442413983615
 30
0.0
 11
3.277478933226837
 21
16.77776208436055
 31
0.0
  0
LINE
  5
17D2B
330
2
100
AcDbEntity
  8
DETAIL
100
AcDbLine
 10
3.277478933226837
 20
16.77776208436055
 30
0.0
 11
2.839892473394001
 21
16.67279499346645
 31
0.0
  0
ARC
  5
17D2C
330
2
100
AcDbEntity
  8
DETAIL
100
AcDbCircle
 10
3.273620838919935
 20
16.71359197053543
 30
0.0
 40
0.0374999999999685
100
AcDbArc
 50
103.4890897990858
 51
193.4890897990353
  0
ARC
  5
17D2D
330
2
100
AcDbEntity
  8
DETAIL
100
AcDbCircle
 10
2.872478247433913
 20
16.61736693907678
 30
0.0
 40
0.0374999999999685
100
AcDbArc
 50
13.4890897990858
 51
103.4890897994642
  0
ARC
  5
17D2E
330
2
100
AcDbEntity
  8
DETAIL
100
AcDbCircle
 10
2.968368091893911
 20
16.6596197958646
 30
0.0
 40
0.0187799999999842
100
AcDbArc
 50
13.48908979903535
 51
103.4890897994642
  0
ARC
  5
17D2F
330
2
100
AcDbEntity
  8
DETAIL
100
AcDbCircle
 10
3.168997732501703
 20
16.70774630720625
 30
0.0
 40
0.0187799999999842
100
AcDbArc
 50
103.4890897994642
 51
193.4890897990353
  0
LINE
  5
17D30
330
2
100
AcDbEntity
  8
DETAIL
100
AcDbLine
 10
3.149800928391343
 20
16.74713501983957
 30
0.0
 11
3.098021724816568
 21
16.96299199169747
 31
0.0
  0
LINE
  5
17D31
330
2
100
AcDbEntity
  8
DETAIL
100
AcDbLine
 10
2.955644643535496
 20
16.7531384380452
 30
0.0
 11
2.944041123637943
 21
16.80151115324698
 31
0.0
  0
LINE
  5
17D32
330
2
100
AcDbEntity
  8
DETAIL
100
AcDbLine
 10
3.094162131844296
 20
16.97908185005873
 30
0.0
 11
3.082558611947201
 21
17.02745456526096
 31
0.0
  0
LINE
  5
17D33
330
2
100
AcDbEntity
  8
DETAIL
100
AcDbLine
 10
2.981843586629653
 20
17.42367004789007
 30
0.0
 11
2.854951747798835
 21
17.574603975875
 31
0.0
  0
LINE
  5
17D34
330
2
100
AcDbEntity
  8
DETAIL
100
AcDbLine
 10
2.854951747798835
 20
17.574603975875
 30
0.0
 11
2.807549484570048
 21
17.37051704478663
 31
0.0
  0
LINE
  5
17D35
330
2
100
AcDbEntity
  8
DETAIL
100
AcDbLine
 10
2.967570478229948
 20
16.70342205798698
 30
0.0
 11
2.95950423650731
 21
16.73704857968348
 31
0.0
  0
LINE
  5
17D38
330
2
100
AcDbEntity
  8
DETAIL
100
AcDbLine
 10
2.940181530666126
 20
16.81760101160825
 30
0.0
 11
2.92857801076903
 21
16.86597372681002
 31
0.0
  0
LINE
  5
17D39
330
2
100
AcDbEntity
  8
DETAIL
100
AcDbLine
 10
3.078699018975381
 20
17.04354442362223
 30
0.0
 11
3.067095499077833
 21
17.09191713882401
 31
0.0
  0
LINE
  5
17D3B
330
2
100
AcDbEntity
  8
DETAIL
100
AcDbLine
 10
2.924718417796756
 20
16.88206358517174
 30
0.0
 11
2.913114897899659
 21
16.93043630037307
 31
0.0
  0
LINE
  5
17D3C
330
2
100
AcDbEntity
  8
DETAIL
100
AcDbLine
 10
3.063235906106011
 20
17.10800699718528
 30
0.0
 11
3.051632386208918
 21
17.15637971238705
 31
0.0
  0
LINE
  5
17D3E
330
2
100
AcDbEntity
  8
DETAIL
100
AcDbLine
 10
2.909255304927388
 20
16.94652615873479
 30
0.0
 11
2.897651785030291
 21
16.99489887393657
 31
0.0
  0
LINE
  5
17D3F
330
2
100
AcDbEntity
  8
DETAIL
100
AcDbLine
 10
3.047772793236646
 20
17.17246957074878
 30
0.0
 11
3.036169273339548
 21
17.22084228595055
 31
0.0
  0
LINE
  5
17D41
330
2
100
AcDbEntity
  8
DETAIL
100
AcDbLine
 10
2.893792192058017
 20
17.01098873229783
 30
0.0
 11
2.882188672160924
 21
17.0593614474996
 31
0.0
  0
LINE
  5
17D42
330
2
100
AcDbEntity
  8
DETAIL
100
AcDbLine
 10
3.032309680367275
 20
17.23693214431182
 30
0.0
 11
3.020706160470178
 21
17.28530485951359
 31
0.0
  0
LINE
  5
17D44
330
2
100
AcDbEntity
  8
DETAIL
100
AcDbLine
 10
2.878329079188648
 20
17.07545130586133
 30
0.0
 11
2.866725559291555
 21
17.1238240210631
 31
0.0
  0
LINE
  5
17D45
330
2
100
AcDbEntity
  8
DETAIL
100
AcDbLine
 10
3.016846567497906
 20
17.30139471787486
 30
0.0
 11
3.00524304760081
 21
17.34976743307709
 31
0.0
  0
LINE
  5
17D47
330
2
100
AcDbEntity
  8
DETAIL
100
AcDbLine
 10
2.862865966319738
 20
17.13991387942437
 30
0.0
 11
2.851262446422186
 21
17.18828659462615
 31
0.0
  0
LINE
  5
17D48
330
2
100
AcDbEntity
  8
DETAIL
100
AcDbLine
 10
3.001383454628538
 20
17.36585729143836
 30
0.0
 11
2.989779934731441
 21
17.41423000664013
 31
0.0
  0
LINE
  5
17D4A
330
2
100
AcDbEntity
  8
DETAIL
100
AcDbLine
 10
2.847402853450367
 20
17.20437645298787
 30
0.0
 11
2.835799333552817
 21
17.25274916818919
 31
0.0
  0
LINE
  5
17D4C
330
2
100
AcDbEntity
  8
DETAIL
100
AcDbLine
 10
2.831939740580998
 20
17.26883902655092
 30
0.0
 11
2.820336220683902
 21
17.31721174175269
 31
0.0
  0
LINE
  5
17D4E
330
2
100
AcDbEntity
  8
DETAIL
100
AcDbLine
 10
2.816476627711628
 20
17.33330160011396
 30
0.0
 11
2.807549484570048
 21
17.37051704478663
 31
0.0
  0
LINE
  5
17DD4
330
2
100
AcDbEntity
  8
DETAIL
100
AcDbLine
 10
3.187636444012134
 20
11.09838914315579
 30
0.0
 11
1.251000212288019
 21
19.15252842355697
 31
0.0
  0
LINE
  5
17DE8
330
2
100
AcDbEntity
  8
0
100
AcDbLine
 10
5.340454575638993
 20
17.2903884403451
 30
0.0
 11
5.347730127902295
 21
17.25922650299819
 31
0.0
  0
LINE
  5
17E48
330
2
100
AcDbEntity
  8
DETAIL
100
AcDbLine
 10
2.701702598858815
 20
10.98062198329105
 30
0.0
 11
0.7650663671337909
 21
19.03476126369587
 31
0.0
  0
ARC
  5
17F98
330
2
100
AcDbEntity
  8
DETAIL
100
AcDbCircle
 10
5.953893159544842
 20
15.56122109174345
 30
0.0
 40
0.3088363825057014
100
AcDbArc
 50
288.1848545092713
 51
315.7352557076585
  0
LINE
  5
17F99
330
2
100
AcDbEntity
  8
DETAIL
100
AcDbLine
 10
5.880103676047111
 20
15.27851708845112
 30
0.0
 11
6.175057796412382
 21
15.34566108952027
 31
0.0
  0
LINE
  5
17F9A
330
2
100
AcDbEntity
  8
DETAIL
100
AcDbLine
 10
5.874732155961622
 20
15.30211341808015
 30
0.0
 11
6.169686276326892
 21
15.3692574191493
 31
0.0
  0
LINE
  5
17F9B
330
2
100
AcDbEntity
  8
DETAIL
100
AcDbLine
 10
6.175057796412382
 20
15.34566108952027
 30
0.0
 11
6.169686276326892
 21
15.3692574191493
 31
0.0
  0
LINE
  5
17F9C
330
2
100
AcDbEntity
  8
DETAIL
100
AcDbLine
 10
6.026288276312318
 20
15.2623490564615
 30
0.0
 11
6.025086813105557
 21
15.28670225266149
 31
0.0
  0
LINE
  5
17F9D
330
2
100
AcDbEntity
  8
DETAIL
100
AcDbLine
 10
6.050275989289218
 20
15.26780967190831
 30
0.0
 11
6.040817699524917
 21
15.29028326605182
 31
0.0
  0
LINE
  5
17F9E
330
2
100
AcDbEntity
  8
DETAIL
100
AcDbLine
 10
6.040817699524917
 20
15.29028326605182
 30
0.0
 11
6.025086813105557
 21
15.28670225266149
 31
0.0
  0
ARC
  5
17F9F
330
2
100
AcDbEntity
  8
DETAIL
100
AcDbCircle
 10
5.986169798339222
 20
15.5685686163925
 30
0.0
 40
0.308836382505713
100
AcDbArc
 50
249.9135307710234
 51
277.4639319694103
  0
LINE
  5
17FA0
330
2
100
AcDbEntity
  8
DETAIL
100
AcDbLine
 10
5.880103676047111
 20
15.27851708845112
 30
0.0
 11
5.874732155961622
 21
15.30211341808015
 31
0.0
  0
LINE
  5
17FA1
330
2
100
AcDbEntity
  8
DETAIL
100
AcDbLine
 10
5.874732155961622
 20
15.30211341808016
 30
0.0
 11
6.169686276326848
 21
15.36925741914929
 31
0.0
  0
LINE
  5
17FA2
330
2
100
AcDbEntity
  8
DETAIL
100
AcDbLine
 10
5.27003038219442
 20
14.98205277364652
 30
0.0
 11
5.238241745430443
 21
15.12169576847904
 31
0.0
  0
LINE
  5
17FA3
330
2
100
AcDbEntity
  8
DETAIL
100
AcDbLine
 10
5.389999806623221
 20
15.0181993229769
 30
0.0
 11
5.270030382194438
 21
14.98205277364651
 31
0.0
  0
LINE
  5
17FA4
330
2
100
AcDbEntity
  8
DETAIL
100
AcDbLine
 10
5.389999806623221
 20
15.0181993229769
 30
0.0
 11
5.415467157793446
 21
15.00994541862775
 31
0.0
  0
LINE
  5
17FA5
330
2
100
AcDbEntity
  8
DETAIL
100
AcDbLine
 10
5.289971188334433
 20
15.17603327612195
 30
0.0
 11
5.291881135373106
 21
15.00211891123539
 31
0.0
  0
LINE
  5
17FA6
330
2
100
AcDbEntity
  8
DETAIL
100
AcDbLine
 10
5.289971188334433
 20
15.17603327612195
 30
0.0
 11
5.266764073157336
 21
14.99640120825778
 31
0.0
  0
LINE
  5
17FA7
330
2
100
AcDbEntity
  8
DETAIL
100
AcDbLine
 10
5.289971188334433
 20
15.17603327612195
 30
0.0
 11
5.238241745430443
 21
15.12169576847904
 31
0.0
  0
LINE
  5
17FA8
330
2
100
AcDbEntity
  8
DETAIL
100
AcDbLine
 10
5.289971188334433
 20
15.17603327612195
 30
0.0
 11
5.360123613349959
 21
15.1494412234663
 31
0.0
  0
LINE
  5
17FA9
330
2
100
AcDbEntity
  8
DETAIL
100
AcDbLine
 10
5.389999806623221
 20
15.0181993229769
 30
0.0
 11
5.360123613349959
 21
15.1494412234663
 31
0.0
  0
LINE
  5
17FAA
330
2
100
AcDbEntity
  8
DETAIL
100
AcDbLine
 10
5.290437440111523
 20
15.13357771057611
 30
0.0
 11
5.360123613349959
 21
15.1494412234663
 31
0.0
  0
LINE
  5
17FAB
330
2
100
AcDbEntity
  8
DETAIL
100
AcDbLine
 10
5.291881135373106
 20
15.00211891123539
 30
0.0
 11
5.266764073157336
 21
14.99640120825778
 31
0.0
  0
LINE
  5
17FAC
330
2
100
AcDbEntity
  8
DETAIL
100
AcDbLine
 10
5.444064949528362
 20
14.7806987806487
 30
0.0
 11
5.324095525099578
 21
14.74455223131831
 31
0.0
  0
LINE
  5
17FAD
330
2
100
AcDbEntity
  8
DETAIL
100
AcDbLine
 10
5.441840046528134
 20
14.79047246551817
 30
0.0
 11
5.321870622099349
 21
14.75432591618779
 31
0.0
  0
LINE
  5
17FAE
330
2
100
AcDbEntity
  8
DETAIL
100
AcDbLine
 10
5.435054092377505
 20
14.82028220437006
 30
0.0
 11
5.31508466794872
 21
14.78413565503968
 31
0.0
  0
LINE
  5
17FAF
330
2
100
AcDbEntity
  8
DETAIL
100
AcDbLine
 10
5.432829189377278
 20
14.83005588923954
 30
0.0
 11
5.312859764948495
 21
14.79390933990915
 31
0.0
  0
LINE
  5
17FB0
330
2
100
AcDbEntity
  8
DETAIL
100
AcDbLine
 10
5.42604323522665
 20
14.85986562809143
 30
0.0
 11
5.306073810797851
 21
14.82371907876104
 31
0.0
  0
LINE
  5
17FB1
330
2
100
AcDbEntity
  8
DETAIL
100
AcDbLine
 10
5.42381833222642
 20
14.8696393129609
 30
0.0
 11
5.303848907797649
 21
14.83349276363053
 31
0.0
  0
LINE
  5
17FB2
330
2
100
AcDbEntity
  8
DETAIL
100
AcDbLine
 10
5.417032378075777
 20
14.89944905181279
 30
0.0
 11
5.297062953646992
 21
14.86330250248242
 31
0.0
  0
LINE
  5
17FB3
330
2
100
AcDbEntity
  8
DETAIL
100
AcDbLine
 10
5.414807475075567
 20
14.90922273668227
 30
0.0
 11
5.294838050646794
 21
14.87307618735189
 31
0.0
  0
LINE
  5
17FB4
330
2
100
AcDbEntity
  8
DETAIL
100
AcDbLine
 10
5.408021520924934
 20
14.93903247553417
 30
0.0
 11
5.288052096496134
 21
14.90288592620378
 31
0.0
  0
LINE
  5
17FB5
330
2
100
AcDbEntity
  8
DETAIL
100
AcDbLine
 10
5.405796617924721
 20
14.94880616040364
 30
0.0
 11
5.285827193495921
 21
14.91265961107325
 31
0.0
  0
LINE
  5
17FB6
330
2
100
AcDbEntity
  8
DETAIL
100
AcDbLine
 10
5.399010663774078
 20
14.97861589925553
 30
0.0
 11
5.279041239345293
 21
14.94246934992515
 31
0.0
  0
LINE
  5
17FB7
330
2
100
AcDbEntity
  8
DETAIL
100
AcDbLine
 10
5.396785760773852
 20
14.98838958412501
 30
0.0
 11
5.276816336345066
 21
14.95224303479463
 31
0.0
  0
LINE
  5
17FB8
330
2
100
AcDbEntity
  8
DETAIL
100
AcDbLine
 10
5.460521443547718
 20
14.8120283000209
 30
0.0
 11
5.296403270929136
 21
14.76257982053694
 31
0.0
  0
LINE
  5
17FB9
330
2
100
AcDbEntity
  8
DETAIL
100
AcDbLine
 10
5.451510586396877
 20
14.85161172374227
 30
0.0
 11
5.287392413778281
 21
14.80216324425831
 31
0.0
  0
LINE
  5
17FBA
330
2
100
AcDbEntity
  8
DETAIL
100
AcDbLine
 10
5.442499729246004
 20
14.89119514746365
 30
0.0
 11
5.278381556627421
 21
14.84174666797968
 31
0.0
  0
LINE
  5
17FBB
330
2
100
AcDbEntity
  8
DETAIL
100
AcDbLine
 10
5.433488872095151
 20
14.93077857118501
 30
0.0
 11
5.269370699476565
 21
14.88133009170104
 31
0.0
  0
LINE
  5
17FBC
330
2
100
AcDbEntity
  8
DETAIL
100
AcDbLine
 10
5.42447801494429
 20
14.97036199490637
 30
0.0
 11
5.260359842325708
 21
14.92091351542241
 31
0.0
  0
LINE
  5
17FBD
330
2
100
AcDbEntity
  8
DETAIL
100
AcDbLine
 10
5.415467157793446
 20
15.00994541862775
 30
0.0
 11
5.251348985174853
 21
14.96049693914378
 31
0.0
  0
LINE
  5
17FBE
330
2
100
AcDbEntity
  8
DETAIL
100
AcDbLine
 10
5.451510586396877
 20
14.85161172374227
 30
0.0
 11
5.432829189377278
 21
14.83005588923954
 31
0.0
  0
LINE
  5
17FBF
330
2
100
AcDbEntity
  8
DETAIL
100
AcDbLine
 10
5.42604323522665
 20
14.85986562809143
 30
0.0
 11
5.42381833222642
 21
14.8696393129609
 31
0.0
  0
LINE
  5
17FC0
330
2
100
AcDbEntity
  8
DETAIL
100
AcDbLine
 10
5.417032378075777
 20
14.89944905181279
 30
0.0
 11
5.414807475075567
 21
14.90922273668227
 31
0.0
  0
LINE
  5
17FC1
330
2
100
AcDbEntity
  8
DETAIL
100
AcDbLine
 10
5.399010663774078
 20
14.97861589925553
 30
0.0
 11
5.396785760773866
 21
14.98838958412501
 31
0.0
  0
LINE
  5
17FC2
330
2
100
AcDbEntity
  8
DETAIL
100
AcDbLine
 10
5.408021520924934
 20
14.93903247553417
 30
0.0
 11
5.405796617924735
 21
14.94880616040364
 31
0.0
  0
LINE
  5
17FC3
330
2
100
AcDbEntity
  8
DETAIL
100
AcDbLine
 10
5.42604323522665
 20
14.85986562809143
 30
0.0
 11
5.451510586396877
 21
14.85161172374227
 31
0.0
  0
LINE
  5
17FC4
330
2
100
AcDbEntity
  8
DETAIL
100
AcDbLine
 10
5.417032378075777
 20
14.89944905181279
 30
0.0
 11
5.442499729246004
 21
14.89119514746365
 31
0.0
  0
LINE
  5
17FC5
330
2
100
AcDbEntity
  8
DETAIL
100
AcDbLine
 10
5.442499729246004
 20
14.89119514746365
 30
0.0
 11
5.42381833222642
 21
14.8696393129609
 31
0.0
  0
LINE
  5
17FC6
330
2
100
AcDbEntity
  8
DETAIL
100
AcDbLine
 10
5.408021520924936
 20
14.93903247553416
 30
0.0
 11
5.433488872095151
 21
14.93077857118501
 31
0.0
  0
LINE
  5
17FC7
330
2
100
AcDbEntity
  8
DETAIL
100
AcDbLine
 10
5.433488872095151
 20
14.93077857118501
 30
0.0
 11
5.414807475075567
 21
14.90922273668227
 31
0.0
  0
LINE
  5
17FC8
330
2
100
AcDbEntity
  8
DETAIL
100
AcDbLine
 10
5.42447801494429
 20
14.97036199490637
 30
0.0
 11
5.405796617924721
 21
14.94880616040364
 31
0.0
  0
LINE
  5
17FC9
330
2
100
AcDbEntity
  8
DETAIL
100
AcDbLine
 10
5.399010663774078
 20
14.97861589925553
 30
0.0
 11
5.42447801494429
 21
14.97036199490637
 31
0.0
  0
LINE
  5
17FCA
330
2
100
AcDbEntity
  8
DETAIL
100
AcDbLine
 10
5.415467157793446
 20
15.00994541862775
 30
0.0
 11
5.396785760773852
 21
14.98838958412501
 31
0.0
  0
LINE
  5
17FCB
330
2
100
AcDbEntity
  8
DETAIL
100
AcDbLine
 10
5.43505409237749
 20
14.82028220437006
 30
0.0
 11
5.432829189377278
 21
14.83005588923954
 31
0.0
  0
LINE
  5
17FCC
330
2
100
AcDbEntity
  8
DETAIL
100
AcDbLine
 10
5.444064949528362
 20
14.7806987806487
 30
0.0
 11
5.441840046528134
 21
14.79047246551817
 31
0.0
  0
LINE
  5
17FCD
330
2
100
AcDbEntity
  8
DETAIL
100
AcDbLine
 10
5.469532300698578
 20
14.77244487629954
 30
0.0
 11
5.405160321418434
 21
14.75304972678022
 31
0.0
  0
LINE
  5
17FCE
330
2
100
AcDbEntity
  8
DETAIL
100
AcDbLine
 10
5.469532300698578
 20
14.77244487629954
 30
0.0
 11
5.464413268180781
 21
14.76653819717633
 31
0.0
  0
LINE
  5
17FCF
330
2
100
AcDbEntity
  8
DETAIL
100
AcDbLine
 10
5.444064949528362
 20
14.7806987806487
 30
0.0
 11
5.469532300698578
 21
14.77244487629954
 31
0.0
  0
LINE
  5
17FD0
330
2
100
AcDbEntity
  8
DETAIL
100
AcDbLine
 10
5.435054092377505
 20
14.82028220437006
 30
0.0
 11
5.460521443547718
 21
14.8120283000209
 31
0.0
  0
LINE
  5
17FD1
330
2
100
AcDbEntity
  8
DETAIL
100
AcDbLine
 10
5.460521443547718
 20
14.8120283000209
 30
0.0
 11
5.441840046528152
 21
14.79047246551816
 31
0.0
  0
LINE
  5
17FD2
330
2
100
AcDbEntity
  8
DETAIL
100
AcDbLine
 10
5.306073810797865
 20
14.82371907876105
 30
0.0
 11
5.287392413778281
 21
14.80216324425831
 31
0.0
  0
LINE
  5
17FD3
330
2
100
AcDbEntity
  8
DETAIL
100
AcDbLine
 10
5.279041239345293
 20
14.94246934992515
 30
0.0
 11
5.276816336345066
 21
14.95224303479463
 31
0.0
  0
LINE
  5
17FD4
330
2
100
AcDbEntity
  8
DETAIL
100
AcDbLine
 10
5.306073810797851
 20
14.82371907876104
 30
0.0
 11
5.303848907797649
 21
14.83349276363053
 31
0.0
  0
LINE
  5
17FD5
330
2
100
AcDbEntity
  8
DETAIL
100
AcDbLine
 10
5.288052096496134
 20
14.90288592620378
 30
0.0
 11
5.285827193495921
 21
14.91265961107325
 31
0.0
  0
LINE
  5
17FD6
330
2
100
AcDbEntity
  8
DETAIL
100
AcDbLine
 10
5.297062953646992
 20
14.86330250248242
 30
0.0
 11
5.294838050646794
 21
14.87307618735189
 31
0.0
  0
LINE
  5
17FD7
330
2
100
AcDbEntity
  8
DETAIL
100
AcDbLine
 10
5.278381556627421
 20
14.84174666797968
 30
0.0
 11
5.303848907797649
 21
14.83349276363052
 31
0.0
  0
LINE
  5
17FD8
330
2
100
AcDbEntity
  8
DETAIL
100
AcDbLine
 10
5.297062953646992
 20
14.86330250248242
 30
0.0
 11
5.278381556627421
 21
14.84174666797968
 31
0.0
  0
LINE
  5
17FD9
330
2
100
AcDbEntity
  8
DETAIL
100
AcDbLine
 10
5.269370699476565
 20
14.88133009170104
 30
0.0
 11
5.294838050646794
 21
14.87307618735189
 31
0.0
  0
LINE
  5
17FDA
330
2
100
AcDbEntity
  8
DETAIL
100
AcDbLine
 10
5.288052096496148
 20
14.90288592620379
 30
0.0
 11
5.269370699476565
 21
14.88133009170104
 31
0.0
  0
LINE
  5
17FDB
330
2
100
AcDbEntity
  8
DETAIL
100
AcDbLine
 10
5.279041239345293
 20
14.94246934992515
 30
0.0
 11
5.260359842325708
 21
14.92091351542241
 31
0.0
  0
LINE
  5
17FDC
330
2
100
AcDbEntity
  8
DETAIL
100
AcDbLine
 10
5.260359842325708
 20
14.92091351542241
 30
0.0
 11
5.285827193495921
 21
14.91265961107325
 31
0.0
  0
LINE
  5
17FDD
330
2
100
AcDbEntity
  8
DETAIL
100
AcDbLine
 10
5.251348985174853
 20
14.96049693914378
 30
0.0
 11
5.276816336345066
 21
14.95224303479462
 31
0.0
  0
LINE
  5
17FDE
330
2
100
AcDbEntity
  8
DETAIL
100
AcDbLine
 10
5.270030382194438
 20
14.98205277364651
 30
0.0
 11
5.251348985174853
 21
14.96049693914378
 31
0.0
  0
LINE
  5
17FDF
330
2
100
AcDbEntity
  8
DETAIL
100
AcDbLine
 10
5.315084667948705
 20
14.78413565503968
 30
0.0
 11
5.312859764948495
 21
14.79390933990915
 31
0.0
  0
LINE
  5
17FE0
330
2
100
AcDbEntity
  8
DETAIL
100
AcDbLine
 10
5.324095525099565
 20
14.74455223131831
 30
0.0
 11
5.321870622099349
 21
14.75432591618779
 31
0.0
  0
LINE
  5
17FE1
330
2
100
AcDbEntity
  8
DETAIL
100
AcDbLine
 10
5.324095525099578
 20
14.74455223131831
 30
0.0
 11
5.313346213017201
 21
14.73214896233243
 31
0.0
  0
LINE
  5
17FE2
330
2
100
AcDbEntity
  8
DETAIL
100
AcDbLine
 10
5.296403270929136
 20
14.76257982053694
 30
0.0
 11
5.321870622099349
 21
14.75432591618779
 31
0.0
  0
LINE
  5
17FE3
330
2
100
AcDbEntity
  8
DETAIL
100
AcDbLine
 10
5.31508466794872
 20
14.78413565503968
 30
0.0
 11
5.296403270929136
 21
14.76257982053694
 31
0.0
  0
LINE
  5
17FE4
330
2
100
AcDbEntity
  8
DETAIL
100
AcDbLine
 10
5.287392413778281
 20
14.80216324425831
 30
0.0
 11
5.312859764948495
 21
14.79390933990915
 31
0.0
  0
ARC
  5
17FE5
330
2
100
AcDbEntity
  8
DETAIL
100
AcDbCircle
 10
5.318875206010353
 20
14.97449488406069
 30
0.0
 40
0.3088363825057014
100
AcDbArc
 50
288.1848545092713
 51
315.7352557076585
  0
LINE
  5
17FE6
330
2
100
AcDbEntity
  8
DETAIL
100
AcDbLine
 10
5.245085722512623
 20
14.69179088076835
 30
0.0
 11
5.540039842877891
 21
14.7589348818375
 31
0.0
  0
LINE
  5
17FE7
330
2
100
AcDbEntity
  8
DETAIL
100
AcDbLine
 10
5.239714202427133
 20
14.71538721039738
 30
0.0
 11
5.534668322792402
 21
14.78253121146654
 31
0.0
  0
LINE
  5
17FE8
330
2
100
AcDbEntity
  8
DETAIL
100
AcDbLine
 10
5.540039842877891
 20
14.7589348818375
 30
0.0
 11
5.534668322792402
 21
14.78253121146654
 31
0.0
  0
LINE
  5
17FE9
330
2
100
AcDbEntity
  8
DETAIL
100
AcDbLine
 10
5.391270322777828
 20
14.67562284877873
 30
0.0
 11
5.390068859571066
 21
14.69997604497873
 31
0.0
  0
LINE
  5
17FEA
330
2
100
AcDbEntity
  8
DETAIL
100
AcDbLine
 10
5.415258035754728
 20
14.68108346422554
 30
0.0
 11
5.405799745990427
 21
14.70355705836906
 31
0.0
  0
LINE
  5
17FEB
330
2
100
AcDbEntity
  8
DETAIL
100
AcDbLine
 10
5.405799745990427
 20
14.70355705836906
 30
0.0
 11
5.390068859571066
 21
14.69997604497873
 31
0.0
  0
ARC
  5
17FEC
330
2
100
AcDbEntity
  8
DETAIL
100
AcDbCircle
 10
5.351151844804731
 20
14.98184240870974
 30
0.0
 40
0.308836382505713
100
AcDbArc
 50
249.9135307710234
 51
277.4639319694103
  0
LINE
  5
17FED
330
2
100
AcDbEntity
  8
DETAIL
100
AcDbLine
 10
5.245085722512623
 20
14.69179088076835
 30
0.0
 11
5.239714202427133
 21
14.71538721039738
 31
0.0
  0
LINE
  5
17FEE
330
2
100
AcDbEntity
  8
DETAIL
100
AcDbLine
 10
5.239714202427133
 20
14.71538721039739
 30
0.0
 11
5.534668322792358
 21
14.78253121146652
 31
0.0
  0
SOLID
  5
19503
330
2
100
AcDbEntity
  8
DIM
100
AcDbTrace
 10
4.623851515185636
 20
18.24738686951936
 30
0.0
 11
4.547121418786644
 21
18.21487630583544
 31
0.0
 12
4.683018158037891
 22
18.00094129848043
 32
0.0
 13
4.683018158037891
 23
18.00094129848043
 33
0.0
  0
LINE
  5
19504
330
2
100
AcDbEntity
  8
DIM
100
AcDbLine
 10
4.585486466986139
 20
18.23113158767739
 30
0.0
 11
3.458181721607532
 21
20.89174992161082
 31
0.0
  0
TEXT
  5
1959F
330
2
100
AcDbEntity
  8
DIM
100
AcDbText
 10
-0.4316553054738134
 20
12.1279102401333
 30
0.0
 40
0.25
  1
FASTENER
  7
STD
100
AcDbText
  0
TEXT
  5
195A0
330
2
100
AcDbEntity
  8
DIM
100
AcDbText
 10
-0.2391246097030085
 20
11.70689500593594
 30
0.0
 40
0.25
  1
FACTORY
  7
STD
100
AcDbText
  0
TEXT
  5
195A1
330
2
100
AcDbEntity
  8
DIM
100
AcDbText
 10
-0.0682514855556692
 20
11.28801142248892
 30
0.0
 40
0.25
  1
PAINTED
  7
STD
100
AcDbText
  0
TEXT
  5
195A2
330
2
100
AcDbEntity
  8
DIM
100
AcDbText
 10
-0.4795748143414806
 20
10.86921310507191
 30
0.0
 40
0.25
  1
BLACK TYP
  7
STD
100
AcDbText
  0
SOLID
  5
195A3
330
2
100
AcDbEntity
  8
DIM
100
AcDbTrace
 10
4.021351657708451
 20
15.1147797238038
 30
0.0
 11
4.207465192375192
 21
15.28682001944689
 31
0.0
 12
4.087208701412522
 22
15.06371805286557
 32
0.0
 13
4.087208701412522
 23
15.06371805286557
 33
0.0
1001
ACAD
1000
DSTYLE
1002
{
1070
   147
1040
0.09
1070
    77
1070
     0
1002
}
  0
LWPOLYLINE
  5
195A4
330
2
100
AcDbEntity
  8
DIM
100
AcDbPolyline
 90
        3
 70
     0
 43
0.0
 10
4.054280179560486
 20
15.08924888833468
 10
1.856803084703539
 20
12.25504189088364
 10
1.606803084703539
 20
12.25504189088364
1001
ACAD
1000
DSTYLE
1002
{
1070
   147
1040
0.09
1070
    77
1070
     0
1002
}
  0
TEXT
  5
195A5
330
2
100
AcDbEntity
  8
DIM
100
AcDbText
 10
6.082040757196367
 20
19.49593957248946
 30
0.0
 40
0.25
  1
VERTICAL
  7
STD
100
AcDbText
  0
TEXT
  5
195A6
330
2
100
AcDbEntity
  8
DIM
100
AcDbText
 10
6.076583731275496
 20
19.07500960432211
 30
0.0
 40
0.25
  1
Z-FURRING
  7
STD
100
AcDbText
  0
SOLID
  5
195A7
330
2
100
AcDbEntity
  8
DIM
100
AcDbTrace
 10
5.415010587648008
 20
17.53262285611716
 30
0.0
 11
5.340454575638993
 21
17.2903884403451
 31
0.0
 12
5.332418019721451
 22
17.5437094321324
 32
0.0
 13
5.332418019721451
 23
17.5437094321324
 33
0.0
1001
ACAD
1000
DSTYLE
1002
{
1070
   147
1040
0.09
1070
    77
1070
     0
1002
}
  0
LWPOLYLINE
  5
195A8
330
2
100
AcDbEntity
  8
DIM
100
AcDbPolyline
 90
        3
 70
     0
 43
0.0
 10
5.37371430368473
 20
17.53816614412478
 10
5.653575545736615
 20
19.6230712232398
 10
5.903575545736615
 20
19.6230712232398
1001
ACAD
1000
DSTYLE
1002
{
1070
   147
1040
0.09
1070
    77
1070
     0
1002
}
  0
TEXT
  5
195A9
330
2
100
AcDbEntity
  8
DIM
100
AcDbText
 10
-1.372638889222624
 20
16.06455757946747
 30
0.0
 40
0.25
  1
EXISTING
  7
STD
100
AcDbText
  0
TEXT
  5
195AA
330
2
100
AcDbEntity
  8
DIM
100
AcDbText
 10
-1.47649291377924
 20
15.64575926205046
 30
0.0
 40
0.25
  1
WALL TYP
  7
STD
100
AcDbText
  0
SOLID
  5
195AB
330
2
100
AcDbEntity
  8
DIM
100
AcDbTrace
 10
1.094592743656204
 20
16.64347280403294
 30
0.0
 11
1.306697909240027
 21
16.78220819909769
 31
0.0
 12
1.151053151006059
 22
16.58218115006331
 32
0.0
 13
1.151053151006059
 23
16.58218115006331
 33
0.0
1001
ACAD
1000
DSTYLE
1002
{
1070
   147
1040
0.09
1070
    77
1070
     0
1002
}
  0
LWPOLYLINE
  5
195AC
330
2
100
AcDbEntity
  8
DIM
100
AcDbPolyline
 90
        3
 70
     0
 43
0.0
 10
1.122822947331132
 20
16.61282697704813
 10
0.6656489688947007
 20
16.19168923021781
 10
0.4156489688947009
 20
16.19168923021781
1001
ACAD
1000
DSTYLE
1002
{
1070
   147
1040
0.09
1070
    77
1070
     0
1002
}
  0
TEXT
  5
195AD
330
2
100
AcDbEntity
  8
DIM
100
AcDbText
 10
-0.9810514378240371
 20
14.27911599633878
 30
0.0
 40
0.25
  1
VERTICAL
  7
STD
100
AcDbText
  0
TEXT
  5
195AE
330
2
100
AcDbEntity
  8
DIM
100
AcDbText
 10
-0.4036298825716498
 20
13.86031767892178
 30
0.0
 40
0.25
  1
J-TRIM
  7
STD
100
AcDbText
  0
SOLID
  5
195AF
330
2
100
AcDbEntity
  8
DIM
100
AcDbTrace
 10
2.12287224637285
 20
15.19355935744485
 30
0.0
 11
2.347771190881545
 21
15.31042071063737
 31
0.0
 12
2.172929925489811
 22
15.12693598912811
 32
0.0
 13
2.172929925489811
 23
15.12693598912811
 33
0.0
1001
ACAD
1000
DSTYLE
1002
{
1070
   147
1040
0.09
1070
    77
1070
     0
1002
}
  0
LWPOLYLINE
  5
195B0
330
2
100
AcDbEntity
  8
DIM
100
AcDbPolyline
 90
        3
 70
     0
 43
0.0
 10
2.147901085931331
 20
15.16024767328648
 10
1.14437830296723
 20
14.40624764708912
 10
0.8943783029672315
 20
14.40624764708912
1001
ACAD
1000
DSTYLE
1002
{
1070
   147
1040
0.09
1070
    77
1070
     0
1002
}
  0
TEXT
  5
195B1
330
2
100
AcDbEntity
  8
DIM
100
AcDbText
 10
5.312125462481464
 20
11.03616428390909
 30
0.0
 40
0.25
  1
FACTORY CURVED
  7
STD
100
AcDbText
  0
TEXT
  5
195B2
330
2
100
AcDbEntity
  8
DIM
100
AcDbText
 10
5.336511547065367
 20
10.61506378368171
 30
0.0
 40
0.25
  1
WALL ANGLE (BELOW)
  7
STD
100
AcDbText
  0
SOLID
  5
195B3
330
2
100
AcDbEntity
  8
DIM
100
AcDbTrace
 10
4.421429597753237
 20
14.27293639762035
 30
0.0
 11
4.427080414098028
 21
14.52632183403244
 31
0.0
 12
4.503914107743367
 22
14.28480021050377
 32
0.0
 13
4.503914107743367
 23
14.28480021050377
 33
0.0
1001
ACAD
1000
DSTYLE
1002
{
1070
   147
1040
0.09
1070
    77
1070
     0
1002
}
  0
LWPOLYLINE
  5
195B4
330
2
100
AcDbEntity
  8
DIM
100
AcDbPolyline
 90
        3
 70
     0
 43
0.0
 10
4.462671852748301
 20
14.27886830406206
 10
4.910774848566048
 20
11.16338120068944
 10
5.160774848566048
 20
11.16338120068944
1001
ACAD
1000
DSTYLE
1002
{
1070
   147
1040
0.09
1070
    77
1070
     0
1002
}
  0
TEXT
  5
195B5
330
2
100
AcDbEntity
  8
DIM
100
AcDbText
 10
6.66408101326255
 20
12.67842868922825
 30
0.0
 40
0.25
  1
PANEL SCREWS
  7
STD
100
AcDbText
  0
TEXT
  5
195B6
330
2
100
AcDbEntity
  8
DIM
100
AcDbText
 10
6.662375692662276
 20
12.25741345503089
 30
0.0
 40
0.25
  1
FACTORY PAINTED
  7
STD
100
AcDbText
  0
TEXT
  5
195B7
330
2
100
AcDbEntity
  8
DIM
100
AcDbText
 10
6.682839539865551
 20
11.83631295480351
 30
0.0
 40
0.25
  1
TO MATCH PANEL TYP
  7
STD
100
AcDbText
  0
SOLID
  5
195B8
330
2
100
AcDbEntity
  8
DIM
100
AcDbTrace
 10
5.538286248930423
 20
14.46527373467465
 30
0.0
 11
5.482350920396186
 21
14.71247274384111
 31
0.0
 12
5.615435369279857
 22
14.49677703091097
 32
0.0
 13
5.615435369279857
 23
14.49677703091097
 33
0.0
1001
ACAD
1000
DSTYLE
1002
{
1070
   147
1040
0.09
1070
    77
1070
     0
1002
}
  0
LWPOLYLINE
  5
195B9
330
2
100
AcDbEntity
  8
DIM
100
AcDbPolyline
 90
        3
 70
     0
 43
0.0
 10
5.576860809105141
 20
14.48102538279281
 10
6.261025078746862
 20
12.80556033997859
 10
6.511025078746862
 20
12.80556033997859
1001
ACAD
1000
DSTYLE
1002
{
1070
   147
1040
0.09
1070
    77
1070
     0
1002
}
  0
TEXT
  5
195BA
330
2
100
AcDbEntity
  8
DIM
100
AcDbText
 10
8.00669044585857
 20
13.86264996447309
 30
0.0
 40
0.25
  1
FACTORY CURVED
  7
STD
100
AcDbText
  0
TEXT
  5
195BB
330
2
100
AcDbEntity
  8
DIM
100
AcDbText
 10
8.007372574098678
 20
13.44163473027573
 30
0.0
 40
0.25
  1
HAT CHANNEL
  7
STD
100
AcDbText
  0
SOLID
  5
195BC
330
2
100
AcDbEntity
  8
DIM
100
AcDbTrace
 10
6.893398839710886
 20
15.30634098230683
 30
0.0
 11
6.817832826064275
 21
15.54826222712148
 31
0.0
 12
6.967775134588793
 22
15.34392570266868
 32
0.0
 13
6.967775134588793
 23
15.34392570266868
 33
0.0
1001
ACAD
1000
DSTYLE
1002
{
1070
   147
1040
0.09
1070
    77
1070
     0
1002
}
  0
LWPOLYLINE
  5
195BD
330
2
100
AcDbEntity
  8
DIM
100
AcDbPolyline
 90
        3
 70
     0
 43
0.0
 10
6.930586987149839
 20
15.32513334248776
 10
7.605339831943155
 20
13.98986688125345
 10
7.855339831943155
 20
13.98986688125345
1001
ACAD
1000
DSTYLE
1002
{
1070
   147
1040
0.09
1070
    77
1070
     0
1002
}
  0
TEXT
  5
195BE
330
2
100
AcDbEntity
  8
DIM
100
AcDbText
 10
9.868916497296527
 20
14.95288222803778
 30
0.0
 40
0.25
  1
FACE OF
  7
STD
100
AcDbText
  0
TEXT
  5
195BF
330
2
100
AcDbEntity
  8
DIM
100
AcDbText
 10
9.897565883381112
 20
14.5317817278104
 30
0.0
 40
0.25
  1
ALPRO F-PANEL
  7
STD
100
AcDbText
  0
SOLID
  5
195C0
330
2
100
AcDbEntity
  8
DIM
100
AcDbTrace
 10
9.040161044083079
 20
15.74985895598827
 30
0.0
 11
8.953163320291707
 21
15.98790833566869
 31
0.0
 12
9.112663668639356
 22
15.79094196801144
 32
0.0
 13
9.112663668639356
 23
15.79094196801144
 33
0.0
1001
ACAD
1000
DSTYLE
1002
{
1070
   147
1040
0.09
1070
    77
1070
     0
1002
}
  0
LWPOLYLINE
  5
195C1
330
2
100
AcDbEntity
  8
DIM
100
AcDbPolyline
 90
        3
 70
     0
 43
0.0
 10
9.07641235636122
 20
15.77040046199986
 10
9.467565883381112
 20
15.08009914481813
 10
9.717565883381112
 20
15.08009914481813
1001
ACAD
1000
DSTYLE
1002
{
1070
   147
1040
0.09
1070
    77
1070
     0
1002
}
  0
TEXT
  5
195C2
330
2
100
AcDbEntity
  8
DIM
100
AcDbText
 10
3.927209481100359
 20
21.1663605497762
 30
0.0
 40
0.25
  1
FIELD FASTENER
  7
STD
100
AcDbText
  0
TEXT
  5
195C3
330
2
100
AcDbEntity
  8
DIM
100
AcDbText
 10
3.930279058180849
 20
20.74543058160885
 30
0.0
 40
0.25
  1
BY INSTALLING
  7
STD
100
AcDbText
  0
TEXT
  5
195C4
330
2
100
AcDbEntity
  8
DIM
100
AcDbText
 10
3.93846459706216
 20
20.32441534741149
 30
0.0
 40
0.25
  1
CONTRACTOR
  7
STD
100
AcDbText
  0
TEXT
  5
195C5
330
2
100
AcDbEntity
  8
DIM
100
AcDbText
 10
3.947673328303633
 20
19.90553176396446
 30
0.0
 40
0.25
  1
TYP
  7
STD
100
AcDbText
  0
SOLID
  5
195C6
330
2
100
AcDbEntity
  8
DIM
100
AcDbTrace
 10
2.978188055993258
 20
17.79160637029274
 30
0.0
 11
2.895570688925718
 21
17.55200152524586
 31
0.0
 12
2.896012572893321
 22
17.80544957879859
 32
0.0
 13
2.896012572893321
 23
17.80544957879859
 33
0.0
1001
ACAD
1000
DSTYLE
1002
{
1070
   147
1040
0.09
1070
    77
1070
     0
1002
}
  0
LWPOLYLINE
  5
195C7
330
2
100
AcDbEntity
  8
DIM
100
AcDbPolyline
 90
        3
 70
     0
 43
0.0
 10
2.93710031444329
 20
17.79852797454567
 10
3.525858867184943
 20
21.29349220052654
 10
3.775858867184943
 20
21.29349220052654
1001
ACAD
1000
DSTYLE
1002
{
1070
   147
1040
0.09
1070
    77
1070
     0
1002
}
  0
TEXT
  5
195C8
330
2
100
AcDbEntity
  8
DIM
100
AcDbText
 10
9.54514384676713
 20
19.70013232478164
 30
0.0
 40
0.25
  1
INSULATION
  7
STD
100
AcDbText
  0
SOLID
  5
195C9
330
2
100
AcDbEntity
  8
DIM
100
AcDbTrace
 10
8.794638633813089
 20
17.78262428335803
 30
0.0
 11
8.706252243359372
 21
17.54508700819122
 31
0.0
 12
8.712821874815544
 22
17.79845028700968
 32
0.0
 13
8.712821874815544
 23
17.79845028700968
 33
0.0
1001
ACAD
1000
DSTYLE
1002
{
1070
   147
1040
0.09
1070
    77
1070
     0
1002
}
  0
LWPOLYLINE
  5
195CA
330
2
100
AcDbEntity
  8
DIM
100
AcDbPolyline
 90
        3
 70
     0
 43
0.0
 10
8.753730254314316
 20
17.79053728518385
 10
9.147715470232339
 20
19.827349241562
 10
9.397715470232339
 20
19.827349241562
1001
ACAD
1000
DSTYLE
1002
{
1070
   147
1040
0.09
1070
    77
1070
     0
1002
}
  0
LINE
  5
195CB
330
2
100
AcDbEntity
  8
SECTION
  6
Continuous
 62
     4
100
AcDbLine
 10
5.816327820112952
 20
17.32939846834613
 30
0.0
 11
5.682967323374334
 21
16.86967574572296
 31
0.0
  0
LINE
  5
195CC
330
2
100
AcDbEntity
  8
SECTION
  6
Continuous
 62
     4
100
AcDbLine
 10
5.682967323374334
 20
16.86967574572296
 30
0.0
 11
5.849773543776468
 21
16.6955669070114
 31
0.0
  0
LINE
  5
195CD
330
2
100
AcDbEntity
  8
SECTION
  6
Continuous
 62
     4
100
AcDbLine
 10
5.849773543776468
 20
16.6955669070114
 30
0.0
 11
5.530988114822753
 21
16.51775344263089
 31
0.0
  0
LINE
  5
195CE
330
2
100
AcDbEntity
  8
SECTION
  6
Continuous
 62
     4
100
AcDbLine
 10
5.530988114822753
 20
16.51775344263089
 30
0.0
 11
5.556935797987716
 21
16.25844249739803
 31
0.0
  0
LINE
  5
195CF
330
2
100
AcDbEntity
  8
SECTION
  6
Continuous
 62
     4
100
AcDbLine
 10
5.556935797987716
 20
16.25844249739803
 30
0.0
 11
5.160307319539121
 21
16.01024451120106
 31
0.0
  0
LINE
  5
195D0
330
2
100
AcDbEntity
  8
SECTION
  6
Continuous
 62
     4
100
AcDbLine
 10
5.160307319539121
 20
16.01024451120106
 30
0.0
 11
5.315389691479313
 21
15.8078041150005
 31
0.0
  0
LINE
  5
195D1
330
2
100
AcDbEntity
  8
SECTION
  6
Continuous
 62
     4
100
AcDbLine
 10
3.450454855352628
 20
11.16180630929992
 30
0.0
 11
3.085916832006748
 21
11.07384455550015
 31
0.0
  0
LINE
  5
195D2
330
2
100
AcDbEntity
  8
SECTION
  6
Continuous
 62
     4
100
AcDbLine
 10
3.085916832006748
 20
11.07384455550015
 30
0.0
 11
2.984912135478356
 21
11.22613094916294
 31
0.0
  0
LINE
  5
195D3
330
2
100
AcDbEntity
  8
SECTION
  6
Continuous
 62
     4
100
AcDbLine
 10
2.984912135478356
 20
11.22613094916294
 30
0.0
 11
2.943884694546796
 21
10.8629655230097
 31
0.0
  0
LINE
  5
195D4
330
2
100
AcDbEntity
  8
SECTION
  6
Continuous
 62
     4
100
AcDbLine
 10
2.943884694546796
 20
10.8629655230097
 30
0.0
 11
2.842879998018371
 21
11.01525191667249
 31
0.0
  0
LINE
  5
195D5
330
2
100
AcDbEntity
  8
SECTION
  6
Continuous
 62
     4
100
AcDbLine
 10
2.842879998018371
 20
11.01525191667249
 30
0.0
 11
2.478447429473523
 21
10.92685389281526
 31
0.0
  0
LINE
  5
195D6
330
2
100
AcDbEntity
  8
SECTION
  6
Continuous
 62
     4
100
AcDbLine
 10
1.458823292271946
 20
19.20267540802698
 30
0.0
 11
1.094285268926068
 21
19.11471365422722
 31
0.0
  0
LINE
  5
195D7
330
2
100
AcDbEntity
  8
SECTION
  6
Continuous
 62
     4
100
AcDbLine
 10
1.094285268926068
 20
19.11471365422722
 30
0.0
 11
0.9932805723976759
 21
19.26700004789
 31
0.0
  0
LINE
  5
195D8
330
2
100
AcDbEntity
  8
SECTION
  6
Continuous
 62
     4
100
AcDbLine
 10
0.9932805723976759
 20
19.26700004789
 30
0.0
 11
0.9522531314661147
 21
18.90383462173676
 31
0.0
  0
LINE
  5
195D9
330
2
100
AcDbEntity
  8
SECTION
  6
Continuous
 62
     4
100
AcDbLine
 10
0.9522531314661147
 20
18.90383462173676
 30
0.0
 11
0.851248434937691
 21
19.05612101539955
 31
0.0
  0
LINE
  5
195DA
330
2
100
AcDbEntity
  8
SECTION
  6
Continuous
 62
     4
100
AcDbLine
 10
0.851248434937691
 20
19.05612101539955
 30
0.0
 11
0.4868158663928419
 21
18.96772299154233
 31
0.0
  0
LINE
  5
195DB
330
2
100
AcDbEntity
  8
SECTION
  6
Continuous
 62
     4
100
AcDbLine
 10
9.815815780926984
 20
19.20311676012375
 30
0.0
 11
10.1528662759843
 21
17.61551387539982
 31
0.0
  0
LINE
  5
195DC
330
2
100
AcDbEntity
  8
SECTION
  6
Continuous
 62
     4
100
AcDbLine
 10
10.1528662759843
 20
17.61551387539982
 30
0.0
 11
9.99787222687922
 21
17.51871542935017
 31
0.0
  0
LINE
  5
195DD
330
2
100
AcDbEntity
  8
SECTION
  6
Continuous
 62
     4
100
AcDbLine
 10
9.99787222687922
 20
17.51871542935017
 30
0.0
 11
10.35977857046139
 21
17.4677627440682
 31
0.0
  0
LINE
  5
195DE
330
2
100
AcDbEntity
  8
SECTION
  6
Continuous
 62
     4
100
AcDbLine
 10
10.35977857046139
 20
17.4677627440682
 30
0.0
 11
10.20478452135634
 21
17.37096429801853
 31
0.0
  0
LINE
  5
195DF
330
2
100
AcDbEntity
  8
SECTION
  6
Continuous
 62
     4
100
AcDbLine
 10
10.20478452135634
 20
17.37096429801853
 30
0.0
 11
10.59012194038843
 21
15.55591638377832
 31
0.0
  0
LINE
  5
195E0
330
2
100
AcDbEntity
  8
HATCH
 62
     1
100
AcDbLine
 10
0.7722615634947232
 20
19.00483661806424
 30
0.0
 11
0.7794655089812445
 21
19.01342194597866
 31
0.0
1001
ACAD
1010
0.0
1020
0.0
1030
0.0
  0
LINE
  5
195E1
330
2
100
AcDbEntity
  8
HATCH
 62
     1
100
AcDbLine
 10
2.02180831649484
 20
15.90624077795745
 30
0.0
 11
2.0294015839591
 21
15.91529008173751
 31
0.0
1001
ACAD
1010
0.0
1020
0.0
1030
0.0
  0
LINE
  5
195E2
330
2
100
AcDbEntity
  8
HATCH
 62
     1
100
AcDbLine
 10
2.160559650377704
 20
15.15404864416777
 30
0.0
 11
2.200887489819075
 21
15.20210949170358
 31
0.0
1001
ACAD
1010
0.0
1020
0.0
1030
0.0
  0
LINE
  5
195E3
330
2
100
AcDbEntity
  8
HATCH
 62
     1
100
AcDbLine
 10
2.299310984260575
 20
14.4018565103781
 30
0.0
 11
2.347520054987064
 21
14.45930984361202
 31
0.0
1001
ACAD
1010
0.0
1020
0.0
1030
0.0
  0
LINE
  5
195E4
330
2
100
AcDbEntity
  8
HATCH
 62
     1
100
AcDbLine
 10
2.43806231814344
 20
13.64966437658842
 30
0.0
 11
2.486271388869931
 21
13.70711770982234
 31
0.0
1001
ACAD
1010
0.0
1020
0.0
1030
0.0
  0
LINE
  5
195E5
330
2
100
AcDbEntity
  8
HATCH
 62
     1
100
AcDbLine
 10
2.576813652026309
 20
12.89747224279875
 30
0.0
 11
2.6250227227528
 21
12.95492557603267
 31
0.0
1001
ACAD
1010
0.0
1020
0.0
1030
0.0
  0
LINE
  5
195E6
330
2
100
AcDbEntity
  8
HATCH
 62
     1
100
AcDbLine
 10
2.715564985909176
 20
12.14528010900907
 30
0.0
 11
2.763774056635666
 21
12.20273344224299
 31
0.0
1001
ACAD
1010
0.0
1020
0.0
1030
0.0
  0
LINE
  5
195E7
330
2
100
AcDbEntity
  8
HATCH
 62
     1
100
AcDbLine
 10
2.854316319792046
 20
11.3930879752194
 30
0.0
 11
2.902525390518535
 21
11.45054130845332
 31
0.0
1001
ACAD
1010
0.0
1020
0.0
1030
0.0
  0
LINE
  5
195E8
330
2
100
AcDbEntity
  8
HATCH
 62
     1
100
AcDbLine
 10
0.7793999490298022
 20
18.97514929197022
 30
0.0
 11
0.8064178071638623
 21
18.97278553567074
 31
0.0
1001
ACAD
1010
0.0
1020
0.0
1030
0.0
  0
LINE
  5
195E9
330
2
100
AcDbEntity
  8
HATCH
 62
     1
100
AcDbLine
 10
2.021808325358438
 20
15.90624078373273
 30
0.0
 11
2.031787437463934
 21
15.90536772455145
 31
0.0
1001
ACAD
1010
0.0
1020
0.0
1030
0.0
  0
LINE
  5
195EA
330
2
100
AcDbEntity
  8
HATCH
 62
     1
100
AcDbLine
 10
2.160559658971433
 20
15.15404865003272
 30
0.0
 11
2.213558763427339
 21
15.1494118292158
 31
0.0
1001
ACAD
1010
0.0
1020
0.0
1030
0.0
  0
LINE
  5
195EB
330
2
100
AcDbEntity
  8
HATCH
 62
     1
100
AcDbLine
 10
2.299310992584437
 20
14.40185651633271
 30
0.0
 11
2.359082674469942
 21
14.39662717176785
 31
0.0
1001
ACAD
1010
0.0
1020
0.0
1030
0.0
  0
LINE
  5
195EC
330
2
100
AcDbEntity
  8
HATCH
 62
     1
100
AcDbLine
 10
2.438062326197433
 20
13.6496643826327
 30
0.0
 11
2.497834008082938
 21
13.64443503806784
 31
0.0
1001
ACAD
1010
0.0
1020
0.0
1030
0.0
  0
LINE
  5
195ED
330
2
100
AcDbEntity
  8
HATCH
 62
     1
100
AcDbLine
 10
2.576813659810437
 20
12.89747224893269
 30
0.0
 11
2.636585341695943
 21
12.89224290436783
 31
0.0
1001
ACAD
1010
0.0
1020
0.0
1030
0.0
  0
LINE
  5
195EE
330
2
100
AcDbEntity
  8
HATCH
 62
     1
100
AcDbLine
 10
2.715564993423438
 20
12.14528011523267
 30
0.0
 11
2.775336675308943
 21
12.14005077066781
 31
0.0
1001
ACAD
1010
0.0
1020
0.0
1030
0.0
  0
LINE
  5
195EF
330
2
100
AcDbEntity
  8
HATCH
 62
     1
100
AcDbLine
 10
2.854316327036437
 20
11.39308798153266
 30
0.0
 11
2.914088008921943
 21
11.3878586369678
 31
0.0
1001
ACAD
1010
0.0
1020
0.0
1030
0.0
  0
LINE
  5
195F0
330
2
100
AcDbEntity
  8
HATCH
 62
     1
100
AcDbLine
 10
2.914099274340788
 20
11.38783799175049
 30
0.0
 11
2.90253671249003
 21
11.45052067663781
 31
0.0
1001
ACAD
1010
0.0
1020
0.0
1030
0.0
  0
LINE
  5
195F1
330
2
100
AcDbEntity
  8
HATCH
 62
     1
100
AcDbLine
 10
2.775348528140856
 20
12.14003023203337
 30
0.0
 11
2.763785966290096
 21
12.20271291692069
 31
0.0
1001
ACAD
1010
0.0
1020
0.0
1030
0.0
  0
LINE
  5
195F2
330
2
100
AcDbEntity
  8
HATCH
 62
     1
100
AcDbLine
 10
2.636597781940923
 20
12.89222247231625
 30
0.0
 11
2.625035220090163
 21
12.95490515720357
 31
0.0
1001
ACAD
1010
0.0
1020
0.0
1030
0.0
  0
LINE
  5
195F3
330
2
100
AcDbEntity
  8
HATCH
 62
     1
100
AcDbLine
 10
2.49784703574099
 20
13.64441471259913
 30
0.0
 11
2.48628447389023
 21
13.70709739748645
 31
0.0
1001
ACAD
1010
0.0
1020
0.0
1030
0.0
  0
LINE
  5
195F4
330
2
100
AcDbEntity
  8
HATCH
 62
     1
100
AcDbLine
 10
2.359096289541056
 20
14.39660695288201
 30
0.0
 11
2.347533727690298
 21
14.45928963776933
 31
0.0
1001
ACAD
1010
0.0
1020
0.0
1030
0.0
  0
LINE
  5
195F5
330
2
100
AcDbEntity
  8
HATCH
 62
     1
100
AcDbLine
 10
1.336877397357618
 20
18.77367720560836
 30
0.0
 11
1.34105015076279
 21
18.77802611135886
 31
0.0
1001
ACAD
1010
0.0
1020
0.0
1030
0.0
  0
LINE
  5
195F6
330
2
100
AcDbEntity
  8
HATCH
 62
     1
100
AcDbLine
 10
1.469456500808757
 20
17.63403959057272
 30
0.0
 11
1.547344996239965
 21
17.71521614063161
 31
0.0
1001
ACAD
1010
0.0
1020
0.0
1030
0.0
  0
LINE
  5
195F7
330
2
100
AcDbEntity
  8
HATCH
 62
     1
100
AcDbLine
 10
1.602035604259899
 20
16.49440197553709
 30
0.0
 11
1.679924099691109
 21
16.57557852559598
 31
0.0
1001
ACAD
1010
0.0
1020
0.0
1030
0.0
  0
LINE
  5
195F8
330
2
100
AcDbEntity
  8
HATCH
 62
     1
100
AcDbLine
 10
1.734614707711043
 20
15.35476436050146
 30
0.0
 11
1.81250320314225
 21
15.43594091056035
 31
0.0
1001
ACAD
1010
0.0
1020
0.0
1030
0.0
  0
LINE
  5
195F9
330
2
100
AcDbEntity
  8
HATCH
 62
     1
100
AcDbLine
 10
1.912583483364637
 20
14.26243253789769
 30
0.0
 11
1.945082306593393
 21
14.29630329552471
 31
0.0
1001
ACAD
1010
0.0
1020
0.0
1030
0.0
  0
LINE
  5
195FA
330
2
100
AcDbEntity
  8
HATCH
 62
     1
100
AcDbLine
 10
1.956143961020995
 20
14.2013149057206
 30
0.0
 11
1.945095776554573
 21
14.29628471561533
 31
0.0
1001
ACAD
1010
0.0
1020
0.0
1030
0.0
  0
LINE
  5
195FB
330
2
100
AcDbEntity
  8
HATCH
 62
     1
100
AcDbLine
 10
1.823565766837053
 20
15.34095245758263
 30
0.0
 11
1.81251758237063
 21
15.43592226747735
 31
0.0
1001
ACAD
1010
0.0
1020
0.0
1030
0.0
  0
LINE
  5
195FC
330
2
100
AcDbEntity
  8
HATCH
 62
     1
100
AcDbLine
 10
1.690987572653111
 20
16.48059000944465
 30
0.0
 11
1.679939388186689
 21
16.57555981933937
 31
0.0
1001
ACAD
1010
0.0
1020
0.0
1030
0.0
  0
LINE
  5
195FD
330
2
100
AcDbEntity
  8
HATCH
 62
     1
100
AcDbLine
 10
1.558409378469169
 20
17.62022756130667
 30
0.0
 11
1.547361194002746
 21
17.71519737120138
 31
0.0
1001
ACAD
1010
0.0
1020
0.0
1030
0.0
  0
LINE
  5
195FE
330
2
100
AcDbEntity
  8
HATCH
 62
     1
100
AcDbLine
 10
1.336877396592264
 20
18.77367721154833
 30
0.0
 11
1.3422979981052
 21
18.77283652741333
 31
0.0
1001
ACAD
1010
0.0
1020
0.0
1030
0.0
  0
LINE
  5
195FF
330
2
100
AcDbEntity
  8
HATCH
 62
     1
100
AcDbLine
 10
1.46945650014254
 20
17.6340395965972
 30
0.0
 11
1.558393254199534
 21
17.62024634542839
 31
0.0
1001
ACAD
1010
0.0
1020
0.0
1030
0.0
  0
LINE
  5
19600
330
2
100
AcDbEntity
  8
HATCH
 62
     1
100
AcDbLine
 10
1.602035603692823
 20
16.49440198164608
 30
0.0
 11
1.690972357749815
 21
16.48060873047725
 31
0.0
1001
ACAD
1010
0.0
1020
0.0
1030
0.0
  0
LINE
  5
19601
330
2
100
AcDbEntity
  8
HATCH
 62
     1
100
AcDbLine
 10
1.734614707243103
 20
15.35476436669495
 30
0.0
 11
1.823551461300094
 21
15.34097111552613
 31
0.0
1001
ACAD
1010
0.0
1020
0.0
1030
0.0
  0
LINE
  5
19602
330
2
100
AcDbEntity
  8
HATCH
 62
     1
100
AcDbLine
 10
1.926157120683331
 20
14.20598209887584
 30
0.0
 11
1.956130564850376
 21
14.20133350057501
 31
0.0
1001
ACAD
1010
0.0
1020
0.0
1030
0.0
  0
LINE
  5
19603
330
2
100
AcDbEntity
  8
HATCH
 62
     1
100
AcDbLine
 10
0.9293509755395872
 20
18.73672389305317
 30
0.0
 11
0.9993695075268773
 21
18.76360148926906
 31
0.0
1001
ACAD
1010
0.0
1020
0.0
1030
0.0
  0
LINE
  5
19604
330
2
100
AcDbEntity
  8
HATCH
 62
     1
100
AcDbLine
 10
1.282942695929031
 20
17.60895495713171
 30
0.0
 11
1.352961227916321
 21
17.63583255334761
 31
0.0
1001
ACAD
1010
0.0
1020
0.0
1030
0.0
  0
LINE
  5
19605
330
2
100
AcDbEntity
  8
HATCH
 62
     1
100
AcDbLine
 10
1.636534416318478
 20
16.48118602121027
 30
0.0
 11
1.706552948305767
 21
16.50806361742616
 31
0.0
1001
ACAD
1010
0.0
1020
0.0
1030
0.0
  0
LINE
  5
19606
330
2
100
AcDbEntity
  8
HATCH
 62
     1
100
AcDbLine
 10
1.990126136707924
 20
15.35341708528882
 30
0.0
 11
2.060144668695214
 21
15.38029468150472
 31
0.0
1001
ACAD
1010
0.0
1020
0.0
1030
0.0
  0
LINE
  5
19607
330
2
100
AcDbEntity
  8
HATCH
 62
     1
100
AcDbLine
 10
2.343717857097361
 20
14.22564814936737
 30
0.0
 11
2.413736389084653
 21
14.25252574558327
 31
0.0
1001
ACAD
1010
0.0
1020
0.0
1030
0.0
  0
LINE
  5
19608
330
2
100
AcDbEntity
  8
HATCH
 62
     1
100
AcDbLine
 10
2.100402525368341
 20
13.50049810411126
 30
0.0
 11
2.170421057355633
 21
13.52737570032716
 31
0.0
1001
ACAD
1010
0.0
1020
0.0
1030
0.0
  0
LINE
  5
19609
330
2
100
AcDbEntity
  8
HATCH
 62
     1
100
AcDbLine
 10
2.697309577486803
 20
13.09787921344592
 30
0.0
 11
2.70604792064098
 21
13.10123354910861
 31
0.0
1001
ACAD
1010
0.0
1020
0.0
1030
0.0
  0
LINE
  5
1960A
330
2
100
AcDbEntity
  8
HATCH
 62
     1
100
AcDbLine
 10
2.453994245757783
 20
12.37272916818981
 30
0.0
 11
2.524012777745073
 21
12.39960676440571
 31
0.0
1001
ACAD
1010
0.0
1020
0.0
1030
0.0
  0
LINE
  5
1960B
330
2
100
AcDbEntity
  8
HATCH
 62
     1
100
AcDbLine
 10
2.807585966147226
 20
11.24496023226837
 30
0.0
 11
2.877604498134515
 21
11.27183782848426
 31
0.0
1001
ACAD
1010
0.0
1020
0.0
1030
0.0
  0
LINE
  5
1960C
330
2
100
AcDbEntity
  8
HATCH
 62
     1
100
AcDbLine
 10
0.9293509866066209
 20
18.73672388788238
 30
0.0
 11
0.979093240959923
 21
18.70317231367414
 31
0.0
1001
ACAD
1010
0.0
1020
0.0
1030
0.0
  0
LINE
  5
1960D
330
2
100
AcDbEntity
  8
HATCH
 62
     1
100
AcDbLine
 10
1.282942706924669
 20
17.60895495233659
 30
0.0
 11
1.332684961277971
 21
17.57540337812834
 31
0.0
1001
ACAD
1010
0.0
1020
0.0
1030
0.0
  0
LINE
  5
1960E
330
2
100
AcDbEntity
  8
HATCH
 62
     1
100
AcDbLine
 10
1.636534427242718
 20
16.4811860167908
 30
0.0
 11
1.686276681596021
 21
16.44763444258255
 31
0.0
1001
ACAD
1010
0.0
1020
0.0
1030
0.0
  0
LINE
  5
1960F
330
2
100
AcDbEntity
  8
HATCH
 62
     1
100
AcDbLine
 10
1.990126147560762
 20
15.35341708124501
 30
0.0
 11
2.039868401914065
 21
15.31986550703676
 31
0.0
1001
ACAD
1010
0.0
1020
0.0
1030
0.0
  0
LINE
  5
19610
330
2
100
AcDbEntity
  8
HATCH
 62
     1
100
AcDbLine
 10
2.343717867878813
 20
14.22564814569922
 30
0.0
 11
2.393460122232116
 21
14.19209657149098
 31
0.0
1001
ACAD
1010
0.0
1020
0.0
1030
0.0
  0
LINE
  5
19611
330
2
100
AcDbEntity
  8
HATCH
 62
     1
100
AcDbLine
 10
2.100402535957234
 20
13.50049810065237
 30
0.0
 11
2.150144790310537
 21
13.46694652644412
 31
0.0
1001
ACAD
1010
0.0
1020
0.0
1030
0.0
  0
LINE
  5
19612
330
2
100
AcDbEntity
  8
HATCH
 62
     1
100
AcDbLine
 10
2.697309588196864
 20
13.09787921015343
 30
0.0
 11
2.708702216698573
 21
13.0901947851998
 31
0.0
1001
ACAD
1010
0.0
1020
0.0
1030
0.0
  0
LINE
  5
19613
330
2
100
AcDbEntity
  8
HATCH
 62
     1
100
AcDbLine
 10
2.45399425627528
 20
12.37272916510657
 30
0.0
 11
2.503736510628583
 21
12.33917759089833
 31
0.0
1001
ACAD
1010
0.0
1020
0.0
1030
0.0
  0
LINE
  5
19614
330
2
100
AcDbEntity
  8
HATCH
 62
     1
100
AcDbLine
 10
2.807585976593329
 20
11.24496022956078
 30
0.0
 11
2.857328230946633
 21
11.21140865535254
 31
0.0
1001
ACAD
1010
0.0
1020
0.0
1030
0.0
  0
LINE
  5
19615
330
2
100
AcDbEntity
  8
HATCH
 62
     1
100
AcDbLine
 10
0.9791101499819328
 20
18.70315332032868
 30
0.0
 11
0.9993864741784854
 21
18.76358247304749
 31
0.0
1001
ACAD
1010
0.0
1020
0.0
1030
0.0
  0
LINE
  5
19616
330
2
100
AcDbEntity
  8
HATCH
 62
     1
100
AcDbLine
 10
1.332700983849366
 20
17.57538411007298
 30
0.0
 11
1.352977308045918
 21
17.63581326279179
 31
0.0
1001
ACAD
1010
0.0
1020
0.0
1030
0.0
  0
LINE
  5
19617
330
2
100
AcDbEntity
  8
HATCH
 62
     1
100
AcDbLine
 10
1.686291817716803
 20
16.44761489981728
 30
0.0
 11
1.706568141913355
 21
16.50804405253609
 31
0.0
1001
ACAD
1010
0.0
1020
0.0
1030
0.0
  0
LINE
  5
19618
330
2
100
AcDbEntity
  8
HATCH
 62
     1
100
AcDbLine
 10
2.039882651584238
 20
15.31984568956159
 30
0.0
 11
2.060158975780792
 21
15.38027484228039
 31
0.0
1001
ACAD
1010
0.0
1020
0.0
1030
0.0
  0
LINE
  5
19619
330
2
100
AcDbEntity
  8
HATCH
 62
     1
100
AcDbLine
 10
2.150157588094649
 20
13.46692662582306
 30
0.0
 11
2.170433912291201
 21
13.52735577854186
 31
0.0
1001
ACAD
1010
0.0
1020
0.0
1030
0.0
  0
LINE
  5
1961A
330
2
100
AcDbEntity
  8
HATCH
 62
     1
100
AcDbLine
 10
2.393473485451675
 20
14.19207647930589
 30
0.0
 11
2.413749809648229
 21
14.25250563202468
 31
0.0
1001
ACAD
1010
0.0
1020
0.0
1030
0.0
  0
LINE
  5
1961B
330
2
100
AcDbEntity
  8
HATCH
 62
     1
100
AcDbLine
 10
2.503748421962082
 20
12.33915741556736
 30
0.0
 11
2.524024746158634
 21
12.39958656828617
 31
0.0
1001
ACAD
1010
0.0
1020
0.0
1030
0.0
  0
LINE
  5
1961C
330
2
100
AcDbEntity
  8
HATCH
 62
     1
100
AcDbLine
 10
2.857339255829517
 20
11.21138820531166
 30
0.0
 11
2.877615580026069
 21
11.27181735803046
 31
0.0
1001
ACAD
1010
0.0
1020
0.0
1030
0.0
  0
LINE
  5
19675
330
2
100
AcDbEntity
  8
DETAIL
100
AcDbLine
 10
2.802046143223186
 20
17.37706309955419
 30
0.0
 11
2.903507037027504
 21
17.54256148399593
 31
0.0
  0
LINE
  5
19676
330
2
100
AcDbEntity
  8
DETAIL
100
AcDbLine
 10
2.903507037027504
 20
17.54256148399593
 30
0.0
 11
2.895570688925718
 21
17.55200152524586
 31
0.0
  0
LINE
  5
19677
330
2
100
AcDbEntity
  8
DETAIL
100
AcDbLine
 10
2.895570688925718
 20
17.55200152524586
 30
0.0
 11
2.794109795121399
 21
17.38650314080413
 31
0.0
  0
LINE
  5
19678
330
2
100
AcDbEntity
  8
DETAIL
100
AcDbLine
 10
2.794109795121399
 20
17.38650314080413
 30
0.0
 11
2.802046143223186
 21
17.37706309955419
 31
0.0
  0
LINE
  5
19679
330
2
100
AcDbEntity
  8
DETAIL
100
AcDbLine
 10
2.811688117091103
 20
17.30310534943344
 30
0.0
 11
2.935303303460975
 21
17.50474080591034
 31
0.0
  0
LINE
  5
1967A
330
2
100
AcDbEntity
  8
DETAIL
100
AcDbLine
 10
2.935303303460975
 20
17.50474080591034
 30
0.0
 11
2.927366955359643
 21
17.51418084716029
 31
0.0
  0
LINE
  5
1967B
330
2
100
AcDbEntity
  8
DETAIL
100
AcDbLine
 10
2.927366955359643
 20
17.51418084716029
 30
0.0
 11
2.807828524118836
 21
17.31919520779471
 31
0.0
  0
LINE
  5
1967C
330
2
100
AcDbEntity
  8
DETAIL
100
AcDbLine
 10
2.807828524118836
 20
17.31919520779471
 30
0.0
 11
2.811688117091103
 21
17.30310534943344
 31
0.0
  0
LINE
  5
1967D
330
2
100
AcDbEntity
  8
DETAIL
100
AcDbLine
 10
2.827151229960474
 20
17.2386427758704
 30
0.0
 11
2.967099569894902
 21
17.46692012782433
 31
0.0
  0
LINE
  5
1967E
330
2
100
AcDbEntity
  8
DETAIL
100
AcDbLine
 10
2.967099569894902
 20
17.46692012782433
 30
0.0
 11
2.959163221793573
 21
17.47636016907472
 31
0.0
  0
LINE
  5
1967F
330
2
100
AcDbEntity
  8
DETAIL
100
AcDbLine
 10
2.959163221793573
 20
17.47636016907472
 30
0.0
 11
2.823291636988201
 21
17.25473263423167
 31
0.0
  0
LINE
  5
19680
330
2
100
AcDbEntity
  8
DETAIL
100
AcDbLine
 10
2.823291636988201
 20
17.25473263423167
 30
0.0
 11
2.827151229960474
 21
17.2386427758704
 31
0.0
  0
LINE
  5
19681
330
2
100
AcDbEntity
  8
DETAIL
100
AcDbLine
 10
2.842614342829843
 20
17.17418020230735
 30
0.0
 11
2.998428038323783
 21
17.42833639895938
 31
0.0
  0
LINE
  5
19682
330
2
100
AcDbEntity
  8
DETAIL
100
AcDbLine
 10
2.998428038323783
 20
17.42833639895938
 30
0.0
 11
2.990959488227498
 21
17.43853949098869
 31
0.0
  0
LINE
  5
19683
330
2
100
AcDbEntity
  8
DETAIL
100
AcDbLine
 10
2.990959488227498
 20
17.43853949098869
 30
0.0
 11
2.838754749857571
 21
17.19027006066862
 31
0.0
  0
LINE
  5
19684
330
2
100
AcDbEntity
  8
DETAIL
100
AcDbLine
 10
2.838754749857571
 20
17.19027006066862
 30
0.0
 11
2.842614342829843
 21
17.17418020230735
 31
0.0
  0
LINE
  5
19685
330
2
100
AcDbEntity
  8
DETAIL
100
AcDbLine
 10
2.858077455699213
 20
17.10971762874384
 30
0.0
 11
3.013891151193153
 21
17.36387382539589
 31
0.0
  0
LINE
  5
19686
330
2
100
AcDbEntity
  8
DETAIL
100
AcDbLine
 10
3.013891151193153
 20
17.36387382539589
 30
0.0
 11
3.010031558221334
 21
17.37996368375716
 31
0.0
  0
LINE
  5
19687
330
2
100
AcDbEntity
  8
DETAIL
100
AcDbLine
 10
3.010031558221334
 20
17.37996368375716
 30
0.0
 11
2.854217862726939
 21
17.12580748710512
 31
0.0
  0
LINE
  5
19688
330
2
100
AcDbEntity
  8
DETAIL
100
AcDbLine
 10
2.854217862726939
 20
17.12580748710512
 30
0.0
 11
2.858077455699213
 21
17.10971762874384
 31
0.0
  0
LINE
  5
19689
330
2
100
AcDbEntity
  8
DETAIL
100
AcDbLine
 10
2.873540568568581
 20
17.04525505518081
 30
0.0
 11
3.029354264062522
 21
17.29941125183285
 31
0.0
  0
LINE
  5
1968A
330
2
100
AcDbEntity
  8
DETAIL
100
AcDbLine
 10
3.029354264062522
 20
17.29941125183285
 30
0.0
 11
3.025494671090703
 21
17.31550111019411
 31
0.0
  0
LINE
  5
1968B
330
2
100
AcDbEntity
  8
DETAIL
100
AcDbLine
 10
3.025494671090703
 20
17.31550111019411
 30
0.0
 11
2.869680975596309
 21
17.06134491354208
 31
0.0
  0
LINE
  5
1968C
330
2
100
AcDbEntity
  8
DETAIL
100
AcDbLine
 10
2.869680975596309
 20
17.06134491354208
 30
0.0
 11
2.873540568568581
 21
17.04525505518081
 31
0.0
  0
LINE
  5
1968D
330
2
100
AcDbEntity
  8
DETAIL
100
AcDbLine
 10
2.889003681437952
 20
16.98079248161731
 30
0.0
 11
3.044817376931892
 21
17.2349486782698
 31
0.0
  0
LINE
  5
1968E
330
2
100
AcDbEntity
  8
DETAIL
100
AcDbLine
 10
3.044817376931892
 20
17.2349486782698
 30
0.0
 11
3.040957783959618
 21
17.25103853663061
 31
0.0
  0
LINE
  5
1968F
330
2
100
AcDbEntity
  8
DETAIL
100
AcDbLine
 10
3.040957783959618
 20
17.25103853663061
 30
0.0
 11
2.885144088465676
 21
16.99688233997903
 31
0.0
  0
LINE
  5
19690
330
2
100
AcDbEntity
  8
DETAIL
100
AcDbLine
 10
2.885144088465676
 20
16.99688233997903
 30
0.0
 11
2.889003681437952
 21
16.98079248161731
 31
0.0
  0
LINE
  5
19691
330
2
100
AcDbEntity
  8
DETAIL
100
AcDbLine
 10
2.904466794307321
 20
16.91632990805427
 30
0.0
 11
3.060280489800806
 21
17.1704861047063
 31
0.0
  0
LINE
  5
19692
330
2
100
AcDbEntity
  8
DETAIL
100
AcDbLine
 10
3.060280489800806
 20
17.1704861047063
 30
0.0
 11
3.056420896828984
 21
17.18657596306757
 31
0.0
  0
LINE
  5
19693
330
2
100
AcDbEntity
  8
DETAIL
100
AcDbLine
 10
3.056420896828984
 20
17.18657596306757
 30
0.0
 11
2.900607201335045
 21
16.93241976641554
 31
0.0
  0
LINE
  5
19694
330
2
100
AcDbEntity
  8
DETAIL
100
AcDbLine
 10
2.900607201335045
 20
16.93241976641554
 30
0.0
 11
2.904466794307321
 21
16.91632990805427
 31
0.0
  0
LINE
  5
19695
330
2
100
AcDbEntity
  8
DETAIL
100
AcDbLine
 10
2.919929907176231
 20
16.85186733449123
 30
0.0
 11
3.075743602670171
 21
17.10602353114326
 31
0.0
  0
LINE
  5
19696
330
2
100
AcDbEntity
  8
DETAIL
100
AcDbLine
 10
3.075743602670171
 20
17.10602353114326
 30
0.0
 11
3.071884009698353
 21
17.12211338950407
 31
0.0
  0
LINE
  5
19697
330
2
100
AcDbEntity
  8
DETAIL
100
AcDbLine
 10
3.071884009698353
 20
17.12211338950407
 30
0.0
 11
2.916070314203959
 21
16.8679571928525
 31
0.0
  0
LINE
  5
19698
330
2
100
AcDbEntity
  8
DETAIL
100
AcDbLine
 10
2.916070314203959
 20
16.8679571928525
 30
0.0
 11
2.919929907176231
 21
16.85186733449123
 31
0.0
  0
LINE
  5
19699
330
2
100
AcDbEntity
  8
DETAIL
100
AcDbLine
 10
2.935393020045601
 20
16.78740476092773
 30
0.0
 11
3.091206715539541
 21
17.04156095757976
 31
0.0
  0
LINE
  5
1969A
330
2
100
AcDbEntity
  8
DETAIL
100
AcDbLine
 10
3.091206715539541
 20
17.04156095757976
 30
0.0
 11
3.087347122567723
 21
17.05765081594103
 31
0.0
  0
LINE
  5
1969B
330
2
100
AcDbEntity
  8
DETAIL
100
AcDbLine
 10
3.087347122567723
 20
17.05765081594103
 30
0.0
 11
2.931533427073328
 21
16.803494619289
 31
0.0
  0
LINE
  5
1969C
330
2
100
AcDbEntity
  8
DETAIL
100
AcDbLine
 10
2.931533427073328
 20
16.803494619289
 30
0.0
 11
2.935393020045601
 21
16.78740476092773
 31
0.0
  0
LINE
  5
1969D
330
2
100
AcDbEntity
  8
DETAIL
100
AcDbLine
 10
2.950856132914971
 20
16.72294218736468
 30
0.0
 11
3.106669828408911
 21
16.97709838401672
 31
0.0
  0
LINE
  5
1969E
330
2
100
AcDbEntity
  8
DETAIL
100
AcDbLine
 10
3.106669828408911
 20
16.97709838401672
 30
0.0
 11
3.102810235437093
 21
16.99318824237798
 31
0.0
  0
LINE
  5
1969F
330
2
100
AcDbEntity
  8
DETAIL
100
AcDbLine
 10
3.102810235437093
 20
16.99318824237798
 30
0.0
 11
2.946996539942698
 21
16.73903204572595
 31
0.0
  0
LINE
  5
196A0
330
2
100
AcDbEntity
  8
DETAIL
100
AcDbLine
 10
2.946996539942698
 20
16.73903204572595
 30
0.0
 11
2.950856132914971
 21
16.72294218736468
 31
0.0
  0
LINE
  5
196A1
330
2
100
AcDbEntity
  8
DETAIL
100
AcDbLine
 10
4.628916006032675
 20
17.80372477290089
 30
0.0
 11
4.731378309138796
 21
17.9686050466348
 31
0.0
  0
LINE
  5
196A2
330
2
100
AcDbEntity
  8
DETAIL
100
AcDbLine
 10
4.731378309138796
 20
17.9686050466348
 30
0.0
 11
4.723499333676286
 21
17.97809302564289
 31
0.0
  0
LINE
  5
196A3
330
2
100
AcDbEntity
  8
DETAIL
100
AcDbLine
 10
4.723499333676286
 20
17.97809302564289
 30
0.0
 11
4.621037030570164
 21
17.81321275190897
 31
0.0
  0
LINE
  5
196A4
330
2
100
AcDbEntity
  8
DETAIL
100
AcDbLine
 10
4.621037030570164
 20
17.81321275190897
 30
0.0
 11
4.628916006032675
 21
17.80372477290089
 31
0.0
  0
LINE
  5
196A5
330
2
100
AcDbEntity
  8
DETAIL
100
AcDbLine
 10
4.638109460825358
 20
17.72970993079501
 30
0.0
 11
4.762944717242336
 21
17.93059231022427
 31
0.0
  0
LINE
  5
196A6
330
2
100
AcDbEntity
  8
DETAIL
100
AcDbLine
 10
4.762944717242336
 20
17.93059231022427
 30
0.0
 11
4.755065741779829
 21
17.94008028923236
 31
0.0
  0
LINE
  5
196A7
330
2
100
AcDbEntity
  8
DETAIL
100
AcDbLine
 10
4.755065741779829
 20
17.94008028923236
 30
0.0
 11
4.634347477674835
 21
17.7458228908824
 31
0.0
  0
LINE
  5
196A8
330
2
100
AcDbEntity
  8
DETAIL
100
AcDbLine
 10
4.634347477674835
 20
17.7458228908824
 30
0.0
 11
4.638109460825358
 21
17.72970993079501
 31
0.0
  0
LINE
  5
196A9
330
2
100
AcDbEntity
  8
DETAIL
100
AcDbLine
 10
4.653181508703562
 20
17.66515480224034
 30
0.0
 11
4.794511125346335
 21
17.89257957381374
 31
0.0
  0
LINE
  5
196AA
330
2
100
AcDbEntity
  8
DETAIL
100
AcDbLine
 10
4.794511125346335
 20
17.89257957381374
 30
0.0
 11
4.786632149883825
 21
17.90206755282138
 31
0.0
  0
LINE
  5
196AB
330
2
100
AcDbEntity
  8
DETAIL
100
AcDbLine
 10
4.786632149883825
 20
17.90206755282138
 30
0.0
 11
4.649419525553041
 21
17.68126776232727
 31
0.0
  0
LINE
  5
196AC
330
2
100
AcDbEntity
  8
DETAIL
100
AcDbLine
 10
4.649419525553041
 20
17.68126776232727
 30
0.0
 11
4.653181508703562
 21
17.66515480224034
 31
0.0
  0
LINE
  5
196AD
330
2
100
AcDbEntity
  8
DETAIL
100
AcDbLine
 10
4.668253556581769
 20
17.60059967368521
 30
0.0
 11
4.825605118323128
 21
17.85380663649912
 31
0.0
  0
LINE
  5
196AE
330
2
100
AcDbEntity
  8
DETAIL
100
AcDbLine
 10
4.825605118323128
 20
17.85380663649912
 30
0.0
 11
4.818198557987368
 21
17.86405481641085
 31
0.0
  0
LINE
  5
196AF
330
2
100
AcDbEntity
  8
DETAIL
100
AcDbLine
 10
4.818198557987368
 20
17.86405481641085
 30
0.0
 11
4.664491573431249
 21
17.61671263377261
 31
0.0
  0
LINE
  5
196B0
330
2
100
AcDbEntity
  8
DETAIL
100
AcDbLine
 10
4.664491573431249
 20
17.61671263377261
 30
0.0
 11
4.668253556581769
 21
17.60059967368521
 31
0.0
  0
LINE
  5
196B1
330
2
100
AcDbEntity
  8
DETAIL
100
AcDbLine
 10
4.683325604459976
 20
17.53604454513009
 30
0.0
 11
4.840677166201333
 21
17.78925150794445
 31
0.0
  0
LINE
  5
196B2
330
2
100
AcDbEntity
  8
DETAIL
100
AcDbLine
 10
4.840677166201333
 20
17.78925150794445
 30
0.0
 11
4.836915183051266
 21
17.80536446803139
 31
0.0
  0
LINE
  5
196B3
330
2
100
AcDbEntity
  8
DETAIL
100
AcDbLine
 10
4.836915183051266
 20
17.80536446803139
 30
0.0
 11
4.679563621309455
 21
17.55215750521748
 31
0.0
  0
LINE
  5
196B4
330
2
100
AcDbEntity
  8
DETAIL
100
AcDbLine
 10
4.679563621309455
 20
17.55215750521748
 30
0.0
 11
4.683325604459976
 21
17.53604454513009
 31
0.0
  0
LINE
  5
196B5
330
2
100
AcDbEntity
  8
DETAIL
100
AcDbLine
 10
4.698397652338183
 20
17.47148941657497
 30
0.0
 11
4.855749214079537
 21
17.72469637938932
 31
0.0
  0
LINE
  5
196B6
330
2
100
AcDbEntity
  8
DETAIL
100
AcDbLine
 10
4.855749214079537
 20
17.72469637938932
 30
0.0
 11
4.851987230929469
 21
17.74080933947627
 31
0.0
  0
LINE
  5
196B7
330
2
100
AcDbEntity
  8
DETAIL
100
AcDbLine
 10
4.851987230929469
 20
17.74080933947627
 30
0.0
 11
4.694635669187661
 21
17.48760237666236
 31
0.0
  0
LINE
  5
196B8
330
2
100
AcDbEntity
  8
DETAIL
100
AcDbLine
 10
4.694635669187661
 20
17.48760237666236
 30
0.0
 11
4.698397652338183
 21
17.47148941657497
 31
0.0
  0
LINE
  5
196B9
330
2
100
AcDbEntity
  8
DETAIL
100
AcDbLine
 10
4.713469700216388
 20
17.40693428801984
 30
0.0
 11
4.870821261957742
 21
17.6601412508342
 31
0.0
  0
LINE
  5
196BA
330
2
100
AcDbEntity
  8
DETAIL
100
AcDbLine
 10
4.870821261957742
 20
17.6601412508342
 30
0.0
 11
4.867059278807675
 21
17.67625421092114
 31
0.0
  0
LINE
  5
196BB
330
2
100
AcDbEntity
  8
DETAIL
100
AcDbLine
 10
4.867059278807675
 20
17.67625421092114
 30
0.0
 11
4.709707717065866
 21
17.42304724810724
 31
0.0
  0
LINE
  5
196BC
330
2
100
AcDbEntity
  8
DETAIL
100
AcDbLine
 10
4.709707717065866
 20
17.42304724810724
 30
0.0
 11
4.713469700216388
 21
17.40693428801984
 31
0.0
  0
LINE
  5
196BD
330
2
100
AcDbEntity
  8
DETAIL
100
AcDbLine
 10
4.728541748094594
 20
17.34237915946518
 30
0.0
 11
4.88589330983595
 21
17.59558612227908
 31
0.0
  0
LINE
  5
196BE
330
2
100
AcDbEntity
  8
DETAIL
100
AcDbLine
 10
4.88589330983595
 20
17.59558612227908
 30
0.0
 11
4.882131326685883
 21
17.61169908236648
 31
0.0
  0
LINE
  5
196BF
330
2
100
AcDbEntity
  8
DETAIL
100
AcDbLine
 10
4.882131326685883
 20
17.61169908236648
 30
0.0
 11
4.724779764944074
 21
17.35849211955212
 31
0.0
  0
LINE
  5
196C0
330
2
100
AcDbEntity
  8
DETAIL
100
AcDbLine
 10
4.724779764944074
 20
17.35849211955212
 30
0.0
 11
4.728541748094594
 21
17.34237915946518
 31
0.0
  0
LINE
  5
196C1
330
2
100
AcDbEntity
  8
DETAIL
100
AcDbLine
 10
4.743613795972802
 20
17.27782403091005
 30
0.0
 11
4.900965357714156
 21
17.53103099372396
 31
0.0
  0
LINE
  5
196C2
330
2
100
AcDbEntity
  8
DETAIL
100
AcDbLine
 10
4.900965357714156
 20
17.53103099372396
 30
0.0
 11
4.897203374564088
 21
17.54714395381135
 31
0.0
  0
LINE
  5
196C3
330
2
100
AcDbEntity
  8
DETAIL
100
AcDbLine
 10
4.897203374564088
 20
17.54714395381135
 30
0.0
 11
4.73985181282228
 21
17.293936990997
 31
0.0
  0
LINE
  5
196C4
330
2
100
AcDbEntity
  8
DETAIL
100
AcDbLine
 10
4.73985181282228
 20
17.293936990997
 30
0.0
 11
4.743613795972802
 21
17.27782403091005
 31
0.0
  0
LINE
  5
196C5
330
2
100
AcDbEntity
  8
DETAIL
100
AcDbLine
 10
4.758685843851007
 20
17.21326890235493
 30
0.0
 11
4.916037405592362
 21
17.46647586516929
 31
0.0
  0
LINE
  5
196C6
330
2
100
AcDbEntity
  8
DETAIL
100
AcDbLine
 10
4.916037405592362
 20
17.46647586516929
 30
0.0
 11
4.912275422442294
 21
17.48258882525623
 31
0.0
  0
LINE
  5
196C7
330
2
100
AcDbEntity
  8
DETAIL
100
AcDbLine
 10
4.912275422442294
 20
17.48258882525623
 30
0.0
 11
4.754923860700486
 21
17.22938186244233
 31
0.0
  0
LINE
  5
196C8
330
2
100
AcDbEntity
  8
DETAIL
100
AcDbLine
 10
4.754923860700486
 20
17.22938186244233
 30
0.0
 11
4.758685843851007
 21
17.21326890235493
 31
0.0
  0
LINE
  5
196C9
330
2
100
AcDbEntity
  8
DETAIL
100
AcDbLine
 10
4.773757891729213
 20
17.14871377379981
 30
0.0
 11
4.931109453470568
 21
17.40192073661417
 31
0.0
  0
LINE
  5
196CA
330
2
100
AcDbEntity
  8
DETAIL
100
AcDbLine
 10
4.931109453470568
 20
17.40192073661417
 30
0.0
 11
4.9273474703205
 21
17.41803369670111
 31
0.0
  0
LINE
  5
196CB
330
2
100
AcDbEntity
  8
DETAIL
100
AcDbLine
 10
4.9273474703205
 20
17.41803369670111
 30
0.0
 11
4.769995908578691
 21
17.16482673388721
 31
0.0
  0
LINE
  5
196CC
330
2
100
AcDbEntity
  8
DETAIL
100
AcDbLine
 10
4.769995908578691
 20
17.16482673388721
 30
0.0
 11
4.773757891729213
 21
17.14871377379981
 31
0.0
  0
LINE
  5
196CD
330
2
100
AcDbEntity
  8
PANEL
100
AcDbLine
 10
10.43099428505983
 20
16.30545251662416
 30
0.0
 11
10.20348769618385
 21
16.25685555307725
 31
0.0
  0
ARC
  5
196CE
330
2
100
AcDbEntity
  8
PANEL
100
AcDbCircle
 10
10.22625717425658
 20
16.15026028644465
 30
0.0
 40
0.1090000000008304
100
AcDbArc
 50
102.0575629389412
 51
173.6226141159638
  0
LINE
  5
196CF
330
2
100
AcDbEntity
  8
PANEL
100
AcDbLine
 10
10.11793168396669
 20
16.16236764592702
 30
0.0
 11
10.09403965362218
 21
15.94860378562462
 31
0.0
  0
ARC
  5
196D0
330
2
100
AcDbEntity
  8
PANEL
100
AcDbCircle
 10
9.953912184535202
 20
15.96426559926469
 30
0.0
 40
0.1409999999972225
100
AcDbArc
 50
282.0575629391774
 51
353.622614116719
  0
LINE
  5
196D1
330
2
100
AcDbEntity
  8
PANEL
100
AcDbLine
 10
9.983366280023547
 20
15.82637630940437
 30
0.0
 11
9.548369387039375
 21
15.73345799765214
 31
0.0
  0
ARC
  5
196D2
330
2
100
AcDbEntity
  8
PANEL
100
AcDbCircle
 10
9.518915291552183
 20
15.87134728751252
 30
0.0
 40
0.1409999999970535
100
AcDbArc
 50
210.5079874863577
 51
282.0575629387132
  0
LINE
  5
196D3
330
2
100
AcDbEntity
  8
PANEL
100
AcDbLine
 10
9.397435557550439
 20
15.79976744240208
 30
0.0
 11
9.287373579164027
 21
15.98471137054781
 31
0.0
  0
ARC
  5
196D4
330
2
100
AcDbEntity
  8
PANEL
100
AcDbCircle
 10
9.193722379983542
 20
15.92894525053128
 30
0.0
 40
0.1089972809277429
100
AcDbArc
 50
30.77236717135783
 51
102.337418348049
  0
LINE
  5
196D5
330
2
100
AcDbEntity
  8
PANEL
100
AcDbLine
 10
9.170433102829139
 20
16.03542537458862
 30
0.0
 11
8.735893537754275
 21
15.94039129674876
 31
0.0
  0
ARC
  5
196D6
330
2
100
AcDbEntity
  8
PANEL
100
AcDbCircle
 10
8.759181480797666
 20
15.83390809756383
 30
0.0
 40
0.1089999999993059
100
AcDbArc
 50
102.3363878865879
 51
173.9014390635471
  0
LINE
  5
196D7
330
2
100
AcDbEntity
  8
PANEL
100
AcDbLine
 10
8.650798354004226
 20
15.84548815914942
 30
0.0
 11
8.627946865760492
 21
15.63161056198254
 31
0.0
  0
ARC
  5
196D8
330
2
100
AcDbEntity
  8
PANEL
100
AcDbCircle
 10
8.487744839358647
 20
15.64659027467907
 30
0.0
 40
0.1409999999987722
100
AcDbArc
 50
282.3363878847352
 51
353.9014390622015
  0
LINE
  5
196D9
330
2
100
AcDbEntity
  8
PANEL
100
AcDbLine
 10
8.517869609713006
 20
15.50884595279701
 30
0.0
 11
8.083330044643599
 21
15.41381187495532
 31
0.0
  0
ARC
  5
196DA
330
2
100
AcDbEntity
  8
PANEL
100
AcDbCircle
 10
8.053205274291526
 20
15.55155619684067
 30
0.0
 40
0.1410000000014874
100
AcDbArc
 50
210.786812493745
 51
282.3363878835428
  0
LINE
  5
196DB
330
2
100
AcDbEntity
  8
PANEL
100
AcDbLine
 10
7.932075314539257
 20
15.47938603090742
 30
0.0
 11
7.821114629267871
 21
15.66379216430132
 31
0.0
  0
ARC
  5
196DC
330
2
100
AcDbEntity
  8
PANEL
100
AcDbCircle
 10
7.727735918927886
 20
15.60757096096219
 30
0.0
 40
0.1089972809278217
100
AcDbArc
 50
31.05119211778849
 51
102.6162432948094
  0
LINE
  5
196DD
330
2
100
AcDbEntity
  8
PANEL
100
AcDbLine
 10
7.703928743288204
 20
15.71393648938997
 30
0.0
 11
7.26985679686421
 21
15.61678889605168
 31
0.0
  0
ARC
  5
196DE
330
2
100
AcDbEntity
  8
PANEL
100
AcDbCircle
 10
7.293662653372161
 20
15.51042028603739
 30
0.0
 40
0.109000000002062
100
AcDbArc
 50
102.6152128323346
 51
174.1802640087612
  0
LINE
  5
196DF
330
2
100
AcDbEntity
  8
PANEL
100
AcDbLine
 10
7.185224456793253
 20
15.52147277549288
 30
0.0
 11
7.16341405181874
 21
15.30748650649755
 31
0.0
  0
ARC
  5
196E0
330
2
100
AcDbEntity
  8
PANEL
100
AcDbCircle
 10
7.023140788354269
 20
15.32178376350254
 30
0.0
 40
0.1410000000029764
100
AcDbArc
 50
282.6152128314399
 51
354.1802640075762
  0
LINE
  5
196E1
330
2
100
AcDbEntity
  8
PANEL
100
AcDbLine
 10
7.053935520165223
 20
15.1841876716484
 30
0.0
 11
6.619863573742139
 21
15.08704007831012
 31
0.0
  0
ARC
  5
196E2
330
2
100
AcDbEntity
  8
PANEL
100
AcDbCircle
 10
6.589068841935
 20
15.224636170162
 30
0.0
 40
0.1409999999999485
100
AcDbArc
 50
211.0656372854791
 51
282.6152128301266
  0
LINE
  5
196E3
330
2
100
AcDbEntity
  8
PANEL
100
AcDbLine
 10
6.468291524756232
 20
15.1518773929933
 30
0.0
 11
6.356434760638463
 21
15.33574136408628
 31
0.0
  0
ARC
  5
196E4
330
2
100
AcDbEntity
  8
PANEL
100
AcDbCircle
 10
6.263330750524424
 20
15.2790664088512
 30
0.0
 40
0.1089972809303706
100
AcDbArc
 50
31.33001706348127
 51
102.895068240575
  0
LINE
  5
196E5
330
2
100
AcDbEntity
  8
PANEL
100
AcDbLine
 10
6.239006240200679
 20
15.385314822711
 30
0.0
 11
5.805412192087831
 21
15.28605601451845
 31
0.0
  0
ARC
  5
196E6
330
2
100
AcDbEntity
  8
PANEL
100
AcDbCircle
 10
5.829735398287658
 20
15.17980451269202
 30
0.0
 40
0.10900000000097
100
AcDbArc
 50
102.8940377763698
 51
174.4590889541596
  0
LINE
  5
196E7
330
2
100
AcDbEntity
  8
PANEL
100
AcDbLine
 10
5.721244699953071
 20
15.19032916827236
 30
0.0
 11
5.700475894762565
 21
14.9762392950521
 31
0.0
  0
ARC
  5
196E8
330
2
100
AcDbEntity
  8
PANEL
100
AcDbCircle
 10
5.560134716185208
 20
14.98985375777325
 30
0.0
 40
0.1409999999988187
100
AcDbArc
 50
282.8940377766654
 51
354.4590889548993
  0
LINE
  5
196E9
330
2
100
AcDbEntity
  8
PANEL
100
AcDbLine
 10
5.591598680168637
 20
14.85240915449572
 30
0.0
 11
5.158004632057608
 21
14.75315034630317
 31
0.0
  0
ARC
  5
196EA
330
2
100
AcDbEntity
  8
PANEL
100
AcDbCircle
 10
5.126540668072924
 20
14.89059494958097
 30
0.0
 40
0.1409999999993659
100
AcDbArc
 50
211.3444622000378
 51
282.8940377771381
  0
LINE
  5
196EB
330
2
100
AcDbEntity
  8
PANEL
100
AcDbLine
 10
5.006118853861123
 20
14.8172492839847
 30
0.0
 11
4.893368659723896
 21
15.00056673878371
 31
0.0
  0
ARC
  5
196EC
330
2
100
AcDbEntity
  8
PANEL
100
AcDbCircle
 10
4.800541554721356
 20
14.94343937382652
 30
0.0
 40
0.1089972809298665
100
AcDbArc
 50
31.60884200927358
 51
103.1738931859752
  0
LINE
  5
196ED
330
2
100
AcDbEntity
  8
PANEL
100
AcDbLine
 10
4.775700285766297
 20
15.04956815694782
 30
0.0
 11
4.342594404307116
 21
14.94820048453917
 31
0.0
  0
ARC
  5
196EE
330
2
100
AcDbEntity
  8
PANEL
100
AcDbCircle
 10
4.367434384184151
 20
14.84206860714429
 30
0.0
 40
0.1089999999984059
100
AcDbArc
 50
103.1728627237444
 51
174.7379139010929
  0
LINE
  5
196EF
330
2
100
AcDbEntity
  8
PANEL
100
AcDbLine
 10
4.258893753364421
 20
14.85206517960228
 30
0.0
 11
4.239167039797191
 21
14.63787677221988
 31
0.0
  0
ARC
  5
196F0
330
2
100
AcDbEntity
  8
PANEL
100
AcDbCircle
 10
4.098761269654508
 20
14.65080811824506
 30
0.0
 40
0.1409999999978121
100
AcDbArc
 50
283.1728627231711
 51
354.7379139004581
  0
LINE
  5
196F1
330
2
100
AcDbEntity
  8
PANEL
100
AcDbLine
 10
4.1308937206867
 20
14.51351825849553
 30
0.0
 11
3.697787839228428
 21
14.41215058608688
 31
0.0
  0
ARC
  5
196F2
330
2
100
AcDbEntity
  8
PANEL
100
AcDbCircle
 10
3.665655388195732
 20
14.5494404458403
 30
0.0
 40
0.1410000000017115
100
AcDbArc
 50
211.623287198659
 51
283.1728627230102
  0
LINE
  5
196F3
330
2
100
AcDbEntity
  8
PANEL
100
AcDbLine
 10
3.545591928877459
 20
14.47550962860546
 30
0.0
 11
3.431950974756205
 21
14.65827622597495
 31
0.0
  0
ARC
  5
196F4
330
2
100
AcDbEntity
  8
PANEL
100
AcDbCircle
 10
3.339402973193188
 20
14.60069780418267
 30
0.0
 40
0.1089972809266228
100
AcDbArc
 50
31.88766695557005
 51
103.452718132257
  0
LINE
  5
196F5
330
2
100
AcDbEntity
  8
PANEL
100
AcDbLine
 10
3.314045533895068
 20
14.70670444322778
 30
0.0
 11
2.881438075873308
 21
14.60323030718884
 31
0.0
  0
ARC
  5
196F6
330
2
100
AcDbEntity
  8
PANEL
100
AcDbCircle
 10
2.906794241167166
 20
14.49722056762756
 30
0.0
 40
0.1090000000011868
100
AcDbArc
 50
103.4516876695627
 51
175.0167388465683
  0
LINE
  5
196F7
330
2
100
AcDbEntity
  8
PANEL
100
AcDbLine
 10
2.798206248309081
 20
14.5066888202283
 30
0.0
 11
2.779522093537082
 21
14.29240695108032
 31
0.0
  0
LINE
  5
196F8
330
2
100
AcDbEntity
  8
PANEL
100
AcDbLine
 10
2.779522093537082
 20
14.29240695108032
 30
0.0
 11
2.747643049763015
 21
14.29518662156928
 31
0.0
  0
LINE
  5
196F9
330
2
100
AcDbEntity
  8
PANEL
100
AcDbLine
 10
2.747643049763015
 20
14.29518662156928
 30
0.0
 11
2.766327204534106
 21
14.50946849071726
 31
0.0
  0
ARC
  5
196FA
330
2
100
AcDbEntity
  8
PANEL
100
AcDbCircle
 10
2.906794241166643
 20
14.49722056762806
 30
0.0
 40
0.1410000000011541
100
AcDbArc
 50
103.4516876694868
 51
175.0167388464838
  0
LINE
  5
196FB
330
2
100
AcDbEntity
  8
PANEL
100
AcDbLine
 10
2.873994064043666
 20
14.6343524325648
 30
0.0
 11
3.306601522065426
 21
14.73782656860283
 31
0.0
  0
ARC
  5
196FC
330
2
100
AcDbEntity
  8
PANEL
100
AcDbCircle
 10
3.33940042518009
 20
14.60069160315646
 30
0.0
 40
0.1410027190996772
100
AcDbArc
 50
31.88583992783798
 51
103.4508911049156
  0
LINE
  5
196FD
330
2
100
AcDbEntity
  8
PANEL
100
AcDbLine
 10
3.459126152618043
 20
14.67517325850162
 30
0.0
 11
3.572806231406936
 21
14.49234373766752
 31
0.0
  0
ARC
  5
196FE
330
2
100
AcDbEntity
  8
PANEL
100
AcDbCircle
 10
3.665655388194531
 20
14.54944044584069
 30
0.0
 40
0.1090000000017425
100
AcDbArc
 50
211.5890426625918
 51
283.172862723432
  0
LINE
  5
196FF
330
2
100
AcDbEntity
  8
PANEL
100
AcDbLine
 10
3.690495368071746
 20
14.44330856844243
 30
0.0
 11
4.123601249530017
 21
14.54467624085017
 31
0.0
  0
ARC
  5
19700
330
2
100
AcDbEntity
  8
PANEL
100
AcDbCircle
 10
4.098761269652414
 20
14.65080811824553
 30
0.0
 40
0.1089999999990148
100
AcDbArc
 50
283.1728627239769
 51
354.7379139008627
  0
LINE
  5
19701
330
2
100
AcDbEntity
  8
PANEL
100
AcDbLine
 10
4.207301900472709
 20
14.64081154578705
 30
0.0
 11
4.227028614040853
 21
14.85499995316764
 31
0.0
  0
ARC
  5
19702
330
2
100
AcDbEntity
  8
PANEL
100
AcDbCircle
 10
4.367434384184337
 20
14.84206860714501
 30
0.0
 40
0.1409999999983741
100
AcDbArc
 50
103.1728627238308
 51
174.73791390152
  0
LINE
  5
19703
330
2
100
AcDbEntity
  8
PANEL
100
AcDbLine
 10
4.335301933150436
 20
14.97935846689472
 30
0.0
 11
4.768407814609616
 21
15.08072613930246
 31
0.0
  0
ARC
  5
19704
330
2
100
AcDbEntity
  8
PANEL
100
AcDbCircle
 10
4.800538976560526
 20
14.94343318527318
 30
0.0
 40
0.1410027191028662
100
AcDbArc
 50
31.60701498135729
 51
103.1720661580824
  0
LINE
  5
19705
330
2
100
AcDbEntity
  8
PANEL
100
AcDbLine
 10
4.920625743424405
 20
15.01733132610623
 30
0.0
 11
5.033414755694084
 21
14.83395075796741
 31
0.0
  0
ARC
  5
19706
330
2
100
AcDbEntity
  8
PANEL
100
AcDbCircle
 10
5.126540668072731
 20
14.89059494958061
 30
0.0
 40
0.1089999999993981
100
AcDbArc
 50
211.3102177864984
 51
282.8940377774422
  0
LINE
  5
19707
330
2
100
AcDbEntity
  8
PANEL
100
AcDbLine
 10
5.150863874274197
 20
14.78434344775617
 30
0.0
 11
5.584457922385226
 21
14.88360225594963
 31
0.0
  0
ARC
  5
19708
330
2
100
AcDbEntity
  8
PANEL
100
AcDbCircle
 10
5.560134716184751
 20
14.98985375777373
 30
0.0
 40
0.1089999999988463
100
AcDbArc
 50
282.894037776975
 51
354.4590889543197
  0
LINE
  5
19709
330
2
100
AcDbEntity
  8
PANEL
100
AcDbLine
 10
5.668625414517253
 20
14.9793291021939
 30
0.0
 11
5.689394219708673
 21
15.19341897541508
 31
0.0
  0
ARC
  5
1970A
330
2
100
AcDbEntity
  8
PANEL
100
AcDbCircle
 10
5.82973539828795
 20
15.17980451269178
 30
0.0
 40
0.1410000000009375
100
AcDbArc
 50
102.894037776512
 51
174.4590889541052
  0
LINE
  5
1970B
330
2
100
AcDbEntity
  8
PANEL
100
AcDbLine
 10
5.798271434304418
 20
15.31724911597145
 30
0.0
 11
6.231865482417268
 21
15.416507924164
 31
0.0
  0
ARC
  5
1970C
330
2
100
AcDbEntity
  8
PANEL
100
AcDbCircle
 10
6.263328142279035
 20
15.27906023291819
 30
0.0
 40
0.1410027191027781
100
AcDbArc
 50
31.32819003570317
 51
102.8932412126545
  0
LINE
  5
1970D
330
2
100
AcDbEntity
  8
PANEL
100
AcDbLine
 10
6.383773104678328
 20
15.3523731091884
 30
0.0
 11
6.495668379277411
 21
15.16844583669301
 31
0.0
  0
ARC
  5
1970E
330
2
100
AcDbEntity
  8
PANEL
100
AcDbCircle
 10
6.589068841934826
 20
15.22463617016219
 30
0.0
 40
0.1089999999999833
100
AcDbArc
 50
211.0313928230739
 51
282.61521283
  0
LINE
  5
1970F
330
2
100
AcDbEntity
  8
PANEL
100
AcDbLine
 10
6.612874698437987
 20
15.11826756014896
 30
0.0
 11
7.046946644861072
 21
15.21541515348633
 31
0.0
  0
ARC
  5
19710
330
2
100
AcDbEntity
  8
PANEL
100
AcDbCircle
 10
7.023140788355039
 20
15.32178376350202
 30
0.0
 40
0.1090000000030111
100
AcDbArc
 50
282.6152128311905
 51
354.1802640080716
  0
LINE
  5
19711
330
2
100
AcDbEntity
  8
PANEL
100
AcDbLine
 10
7.131578984934757
 20
15.31073127404513
 30
0.0
 11
7.153389389908357
 21
15.52471754303865
 31
0.0
  0
ARC
  5
19712
330
2
100
AcDbEntity
  8
PANEL
100
AcDbCircle
 10
7.293662653372281
 20
15.51042028603764
 30
0.0
 40
0.1410000000020292
100
AcDbArc
 50
102.6152128320544
 51
174.1802640091637
  0
LINE
  5
19713
330
2
100
AcDbEntity
  8
PANEL
100
AcDbLine
 10
7.262867921560057
 20
15.64801637789052
 30
0.0
 11
7.696939867984053
 21
15.74516397122881
 31
0.0
  0
ARC
  5
19714
330
2
100
AcDbEntity
  8
PANEL
100
AcDbCircle
 10
7.727733280659237
 20
15.60756479779549
 30
0.0
 40
0.1410027191004395
100
AcDbArc
 50
31.04936508951074
 51
102.6144162670712
  0
LINE
  5
19715
330
2
100
AcDbEntity
  8
PANEL
100
AcDbLine
 10
7.84853358622329
 20
15.68029067330998
 30
0.0
 11
7.959532473368071
 21
15.49582105202724
 31
0.0
  0
ARC
  5
19716
330
2
100
AcDbEntity
  8
PANEL
100
AcDbCircle
 10
8.053205274291572
 20
15.5515561968388
 30
0.0
 40
0.1090000000000888
100
AcDbArc
 50
210.7525679712695
 51
282.3363878830456
  0
LINE
  5
19717
330
2
100
AcDbEntity
  8
PANEL
100
AcDbLine
 10
8.076493217328549
 20
15.44507299765167
 30
0.0
 11
8.511032782397956
 21
15.54010707549426
 31
0.0
  0
ARC
  5
19718
330
2
100
AcDbEntity
  8
PANEL
100
AcDbCircle
 10
8.48774483935812
 20
15.64659027467945
 30
0.0
 40
0.1089999999988003
100
AcDbArc
 50
282.3363878847345
 51
353.9014390619374
  0
LINE
  5
19719
330
2
100
AcDbEntity
  8
PANEL
100
AcDbLine
 10
8.596127966150731
 20
15.63501021309087
 30
0.0
 11
8.618979454394469
 21
15.84888781025775
 31
0.0
  0
ARC
  5
1971A
330
2
100
AcDbEntity
  8
PANEL
100
AcDbCircle
 10
8.759181480797037
 20
15.83390809756328
 30
0.0
 40
0.140999999999274
100
AcDbArc
 50
102.336387886127
 51
173.9014390630654
  0
LINE
  5
1971B
330
2
100
AcDbEntity
  8
PANEL
100
AcDbLine
 10
8.729056710439227
 20
15.97165241944511
 30
0.0
 11
9.163596275514091
 21
16.06668649728588
 31
0.0
  0
ARC
  5
1971C
330
2
100
AcDbEntity
  8
PANEL
100
AcDbCircle
 10
9.193719711753884
 20
15.92893910027737
 30
0.0
 40
0.1410027190997148
100
AcDbArc
 50
30.77054014330519
 51
102.3355913207907
  0
LINE
  5
1971D
330
2
100
AcDbEntity
  8
PANEL
100
AcDbLine
 10
9.314872499699443
 20
16.00107625274772
 30
0.0
 11
9.424972370561876
 21
15.81606865153639
 31
0.0
  0
ARC
  5
1971E
330
2
100
AcDbEntity
  8
PANEL
100
AcDbCircle
 10
9.51891529155155
 20
15.87134728751171
 30
0.0
 40
0.1089999999970805
100
AcDbArc
 50
210.4737429596597
 51
282.0575629389363
  0
LINE
  5
1971F
330
2
100
AcDbEntity
  8
PANEL
100
AcDbLine
 10
9.54168476962349
 20
15.76475202088277
 30
0.0
 11
9.976681662607678
 21
15.85767033263591
 31
0.0
  0
ARC
  5
19720
330
2
100
AcDbEntity
  8
PANEL
100
AcDbCircle
 10
9.953912184533539
 20
15.96426559926573
 30
0.0
 40
0.1089999999983987
100
AcDbArc
 50
282.0575629399705
 51
353.6226141168139
  0
LINE
  5
19721
330
2
100
AcDbEntity
  8
PANEL
100
AcDbLine
 10
10.06223767482119
 20
15.95215823978524
 30
0.0
 11
10.08612970516571
 21
16.16592210008764
 31
0.0
  0
ARC
  5
19722
330
2
100
AcDbEntity
  8
PANEL
100
AcDbCircle
 10
10.22625717425587
 20
16.15026028644382
 30
0.0
 40
0.1410000000007999
100
AcDbArc
 50
102.0575629386795
 51
173.6226141153452
  0
LINE
  5
19723
330
2
100
AcDbEntity
  8
PANEL
100
AcDbLine
 10
10.19680307876797
 20
16.28814957630788
 30
0.0
 11
10.42434874447123
 21
16.33675488693286
 31
0.0
  0
LINE
  5
19724
330
2
100
AcDbEntity
  8
0
 62
     4
100
AcDbLine
 10
3.7650369411115
 20
15.38222616296771
 30
0.0
 11
4.697297908825286
 21
15.59988635906481
 31
0.0
  0
ARC
  5
19725
330
2
100
AcDbEntity
  8
0
 62
     4
100
AcDbCircle
 10
4.687597096686945
 20
15.64143593346482
 30
0.0
 40
0.0426669999995888
100
AcDbArc
 50
283.1417528908344
 51
13.14175289085872
  0
LINE
  5
19726
330
2
100
AcDbEntity
  8
0
 62
     4
100
AcDbLine
 10
4.729146671086946
 20
15.65113674560318
 30
0.0
 11
4.407506783011373
 21
17.02875340997385
 31
0.0
  0
ARC
  5
19727
330
2
100
AcDbEntity
  8
0
 62
     4
100
AcDbCircle
 10
4.417894420064009
 20
17.03117866984845
 30
0.0
 40
0.0106669999998424
100
AcDbArc
 50
103.1417528895806
 51
193.1417528895877
  0
LINE
  5
19728
330
2
100
AcDbEntity
  8
0
 62
     4
100
AcDbLine
 10
4.415469160189412
 20
17.04156630690109
 30
0.0
 11
5.347730127902295
 21
17.25922650299819
 31
0.0
  0
LINE
  5
19729
330
2
100
AcDbEntity
  8
0
 62
     4
100
AcDbLine
 10
5.347730127902295
 20
17.25922650299819
 30
0.0
 11
5.340454575638993
 21
17.2903884403451
 31
0.0
  0
LINE
  5
1972A
330
2
100
AcDbEntity
  8
0
 62
     4
100
AcDbLine
 10
5.340454575638993
 20
17.2903884403451
 30
0.0
 11
4.408193607925202
 21
17.07272824424892
 31
0.0
  0
ARC
  5
1972B
330
2
100
AcDbEntity
  8
0
 62
     4
100
AcDbCircle
 10
4.417894420064
 20
17.03117866984846
 30
0.0
 40
0.0426670000001357
100
AcDbArc
 50
103.1417528912937
 51
193.1417528913149
  0
LINE
  5
1972C
330
2
100
AcDbEntity
  8
0
 62
     4
100
AcDbLine
 10
4.376344845663544
 20
17.02147785770964
 30
0.0
 11
4.697984733739114
 21
15.64386119333988
 31
0.0
  0
ARC
  5
1972D
330
2
100
AcDbEntity
  8
0
 62
     4
100
AcDbCircle
 10
4.687597096686478
 20
15.64143593346437
 30
0.0
 40
0.0106670000000488
100
AcDbArc
 50
283.1417528943357
 51
13.14175289433569
  0
LINE
  5
1972E
330
2
100
AcDbEntity
  8
0
 62
     4
100
AcDbLine
 10
4.690022356561986
 20
15.63104829641173
 30
0.0
 11
3.757761388848197
 21
15.41338810031554
 31
0.0
  0
LINE
  5
1972F
330
2
100
AcDbEntity
  8
0
 62
     4
100
AcDbLine
 10
3.757761388848197
 20
15.41338810031554
 30
0.0
 11
3.7650369411115
 21
15.38222616296771
 31
0.0
  0
LINE
  5
19730
330
2
100
AcDbEntity
  8
0
 62
     4
100
AcDbLine
 10
3.602430390466401
 20
14.36705954284959
 30
0.0
 11
2.671506038575376
 21
14.14375185390191
 31
0.0
  0
ARC
  5
19731
330
2
100
AcDbEntity
  8
0
 62
     4
100
AcDbCircle
 10
2.669017852002006
 20
14.15412459782873
 30
0.0
 40
0.0106669999997847
100
AcDbArc
 50
193.4890897926011
 51
283.4890897926011
  0
LINE
  5
19732
330
2
100
AcDbEntity
  8
0
 62
     4
100
AcDbLine
 10
2.658645108075179
 20
14.15163641125536
 30
0.0
 11
2.099131792421783
 21
16.48413366294702
 31
0.0
  0
ARC
  5
19733
330
2
100
AcDbEntity
  8
0
 62
     4
100
AcDbCircle
 10
2.109504536346792
 20
16.4866218495213
 30
0.0
 40
0.0106669999982298
100
AcDbArc
 50
103.4890897996353
 51
193.4890897996283
  0
LINE
  5
19734
330
2
100
AcDbEntity
  8
0
 62
     4
100
AcDbLine
 10
2.107016349772511
 20
16.49699459344631
 30
0.0
 11
4.010355056848324
 21
16.95356248438069
 31
0.0
  0
LINE
  5
19735
330
2
100
AcDbEntity
  8
0
 62
     4
100
AcDbLine
 10
4.010355056848324
 20
16.95356248438069
 30
0.0
 11
4.002890730384955
 21
16.98467974374626
 31
0.0
  0
LINE
  5
19736
330
2
100
AcDbEntity
  8
0
 62
     4
100
AcDbLine
 10
4.002890730384955
 20
16.98467974374626
 30
0.0
 11
2.09955202330914
 21
16.52811185281279
 31
0.0
  0
ARC
  5
19737
330
2
100
AcDbEntity
  8
0
 62
     4
100
AcDbCircle
 10
2.109504536346363
 20
16.48662184952083
 30
0.0
 40
0.0426669999990953
100
AcDbArc
 50
103.489089798064
 51
193.4890897980064
  0
LINE
  5
19738
330
2
100
AcDbEntity
  8
0
 62
     4
100
AcDbLine
 10
2.068014533054395
 20
16.47666933648365
 30
0.0
 11
2.627527848708698
 21
14.14417208479108
 31
0.0
  0
ARC
  5
19739
330
2
100
AcDbEntity
  8
0
 62
     4
100
AcDbCircle
 10
2.669017852000654
 20
14.15412459782921
 30
0.0
 40
0.0426669999993051
100
AcDbArc
 50
193.4890897992438
 51
283.4890897991961
  0
LINE
  5
1973A
330
2
100
AcDbEntity
  8
0
 62
     4
100
AcDbLine
 10
2.678970365038747
 20
14.11263459453724
 30
0.0
 11
3.609894716930681
 21
14.33594228348493
 31
0.0
  0
LINE
  5
1973B
330
2
100
AcDbEntity
  8
0
 62
     4
100
AcDbLine
 10
3.609894716930681
 20
14.33594228348493
 30
0.0
 11
3.602430390466401
 21
14.36705954284959
 31
0.0
  0
LINE
  5
1973C
330
2
100
AcDbEntity
  8
HATCH
100
AcDbLine
 10
5.707322509222517
 20
16.84425431291064
 30
0.0
 11
6.302282686734923
 21
17.43921449042305
 31
0.0
1001
ACAD
1010
0.0
1020
0.0
1030
0.0
  0
LINE
  5
1973D
330
2
100
AcDbEntity
  8
HATCH
100
AcDbLine
 10
5.265858758011752
 20
15.87246047580996
 30
0.0
 11
6.985655673546985
 21
17.59225739134519
 31
0.0
1001
ACAD
1010
0.0
1020
0.0
1030
0.0
  0
LINE
  5
1973E
330
2
100
AcDbEntity
  8
HATCH
100
AcDbLine
 10
5.854916476120095
 20
15.9311881080284
 30
0.0
 11
7.666954028761267
 21
17.74322566066957
 31
0.0
1001
ACAD
1010
0.0
1020
0.0
1030
0.0
  0
LINE
  5
1973F
330
2
100
AcDbEntity
  8
HATCH
100
AcDbLine
 10
6.540586151176261
 20
16.08652769719465
 30
0.0
 11
8.346199588818732
 21
17.89214113483712
 31
0.0
1001
ACAD
1010
0.0
1020
0.0
1030
0.0
  0
LINE
  5
19740
330
2
100
AcDbEntity
  8
HATCH
100
AcDbLine
 10
7.224147539334076
 20
16.23975899946256
 30
0.0
 11
9.023413779302424
 21
18.0390252394309
 31
0.0
1001
ACAD
1010
0.0
1020
0.0
1030
0.0
  0
LINE
  5
19741
330
2
100
AcDbEntity
  8
HATCH
100
AcDbLine
 10
7.905623136095405
 20
16.39090451033396
 30
0.0
 11
9.698617625723763
 21
18.18389899996233
 31
0.0
1001
ACAD
1010
0.0
1020
0.0
1030
0.0
  0
LINE
  5
19742
330
2
100
AcDbEntity
  8
HATCH
100
AcDbLine
 10
8.5850350082797
 20
16.53998629662836
 30
0.0
 11
10.06665272510985
 21
18.02160401345851
 31
0.0
1001
ACAD
1010
0.0
1020
0.0
1030
0.0
  0
LINE
  5
19743
330
2
100
AcDbEntity
  8
HATCH
100
AcDbLine
 10
9.262404805421979
 20
16.68702600788073
 30
0.0
 11
10.08221906142075
 21
17.50684026387949
 31
0.0
1001
ACAD
1010
0.0
1020
0.0
1030
0.0
  0
LINE
  5
19744
330
2
100
AcDbEntity
  8
HATCH
100
AcDbLine
 10
9.937753770782595
 20
16.83204488735143
 30
0.0
 11
10.25239839741716
 21
17.14668951398599
 31
0.0
1001
ACAD
1010
0.0
1020
0.0
1030
0.0
  0
LINE
  5
19745
330
2
100
AcDbEntity
  8
HATCH
100
AcDbLine
 10
5.734863014611686
 20
17.04857151359644
 30
0.0
 11
5.745242597140699
 21
17.05895109612546
 31
0.0
1001
ACAD
1010
0.0
1020
0.0
1030
0.0
  0
LINE
  5
19746
330
2
100
AcDbEntity
  8
HATCH
100
AcDbLine
 10
5.833630944789017
 20
17.14733944377378
 30
0.0
 11
5.922019292437336
 21
17.2357277914221
 31
0.0
1001
ACAD
1010
0.0
1020
0.0
1030
0.0
  0
LINE
  5
19747
330
2
100
AcDbEntity
  8
HATCH
100
AcDbLine
 10
6.010407640085652
 20
17.32411613907041
 30
0.0
 11
6.074026827121922
 21
17.38773532610668
 31
0.0
1001
ACAD
1010
0.0
1020
0.0
1030
0.0
  0
LINE
  5
19748
330
2
100
AcDbEntity
  8
HATCH
100
AcDbLine
 10
5.214912511250789
 20
15.99829092434563
 30
0.0
 11
5.303300858899106
 21
16.08667927199395
 31
0.0
1001
ACAD
1010
0.0
1020
0.0
1030
0.0
  0
LINE
  5
19749
330
2
100
AcDbEntity
  8
HATCH
100
AcDbLine
 10
5.568465901844064
 20
16.35184431493891
 30
0.0
 11
5.65685424949238
 21
16.44023266258723
 31
0.0
1001
ACAD
1010
0.0
1020
0.0
1030
0.0
  0
LINE
  5
1974A
330
2
100
AcDbEntity
  8
HATCH
100
AcDbLine
 10
5.745242597140699
 20
16.52862101023555
 30
0.0
 11
5.833630944789017
 21
16.61700935788387
 31
0.0
1001
ACAD
1010
0.0
1020
0.0
1030
0.0
  0
LINE
  5
1974B
330
2
100
AcDbEntity
  8
HATCH
100
AcDbLine
 10
5.922019292437336
 20
16.70539770553219
 30
0.0
 11
6.010407640085652
 21
16.79378605318051
 31
0.0
1001
ACAD
1010
0.0
1020
0.0
1030
0.0
  0
LINE
  5
1974C
330
2
100
AcDbEntity
  8
HATCH
100
AcDbLine
 10
6.098795987733971
 20
16.88217440082883
 30
0.0
 11
6.187184335382291
 21
16.97056274847714
 31
0.0
1001
ACAD
1010
0.0
1020
0.0
1030
0.0
  0
LINE
  5
1974D
330
2
100
AcDbEntity
  8
HATCH
100
AcDbLine
 10
6.275572683030609
 20
17.05895109612546
 30
0.0
 11
6.363961030678927
 21
17.14733944377378
 31
0.0
1001
ACAD
1010
0.0
1020
0.0
1030
0.0
  0
LINE
  5
1974E
330
2
100
AcDbEntity
  8
HATCH
100
AcDbLine
 10
6.452349378327245
 20
17.2357277914221
 30
0.0
 11
6.540737725975563
 21
17.32411613907042
 31
0.0
1001
ACAD
1010
0.0
1020
0.0
1030
0.0
  0
LINE
  5
1974F
330
2
100
AcDbEntity
  8
HATCH
100
AcDbLine
 10
6.629126073623882
 20
17.41250448671874
 30
0.0
 11
6.7175144212722
 21
17.50089283436706
 31
0.0
1001
ACAD
1010
0.0
1020
0.0
1030
0.0
  0
LINE
  5
19750
330
2
100
AcDbEntity
  8
HATCH
100
AcDbLine
 10
5.65685424949238
 20
15.90990257669732
 30
0.0
 11
5.745242597140699
 21
15.99829092434563
 31
0.0
1001
ACAD
1010
0.0
1020
0.0
1030
0.0
  0
LINE
  5
19751
330
2
100
AcDbEntity
  8
HATCH
100
AcDbLine
 10
5.833630944789017
 20
16.08667927199395
 30
0.0
 11
5.922019292437336
 21
16.17506761964227
 31
0.0
1001
ACAD
1010
0.0
1020
0.0
1030
0.0
  0
LINE
  5
19752
330
2
100
AcDbEntity
  8
HATCH
100
AcDbLine
 10
6.010407640085652
 20
16.26345596729059
 30
0.0
 11
6.098795987733971
 21
16.35184431493891
 31
0.0
1001
ACAD
1010
0.0
1020
0.0
1030
0.0
  0
LINE
  5
19753
330
2
100
AcDbEntity
  8
HATCH
100
AcDbLine
 10
6.187184335382291
 20
16.44023266258723
 30
0.0
 11
6.275572683030609
 21
16.52862101023555
 31
0.0
1001
ACAD
1010
0.0
1020
0.0
1030
0.0
  0
LINE
  5
19754
330
2
100
AcDbEntity
  8
HATCH
100
AcDbLine
 10
6.363961030678927
 20
16.61700935788387
 30
0.0
 11
6.452349378327245
 21
16.70539770553219
 31
0.0
1001
ACAD
1010
0.0
1020
0.0
1030
0.0
  0
LINE
  5
19755
330
2
100
AcDbEntity
  8
HATCH
100
AcDbLine
 10
6.540737725975563
 20
16.79378605318051
 30
0.0
 11
6.629126073623882
 21
16.88217440082883
 31
0.0
1001
ACAD
1010
0.0
1020
0.0
1030
0.0
  0
LINE
  5
19756
330
2
100
AcDbEntity
  8
HATCH
100
AcDbLine
 10
6.7175144212722
 20
16.97056274847714
 30
0.0
 11
6.805902768920518
 21
17.05895109612546
 31
0.0
1001
ACAD
1010
0.0
1020
0.0
1030
0.0
  0
LINE
  5
19757
330
2
100
AcDbEntity
  8
HATCH
100
AcDbLine
 10
6.894291116568838
 20
17.14733944377378
 30
0.0
 11
6.982679464217154
 21
17.2357277914221
 31
0.0
1001
ACAD
1010
0.0
1020
0.0
1030
0.0
  0
LINE
  5
19758
330
2
100
AcDbEntity
  8
HATCH
100
AcDbLine
 10
7.071067811865472
 20
17.32411613907042
 30
0.0
 11
7.15945615951379
 21
17.41250448671874
 31
0.0
1001
ACAD
1010
0.0
1020
0.0
1030
0.0
  0
LINE
  5
19759
330
2
100
AcDbEntity
  8
HATCH
100
AcDbLine
 10
7.247844507162111
 20
17.50089283436706
 30
0.0
 11
7.336232854810427
 21
17.58928118201538
 31
0.0
1001
ACAD
1010
0.0
1020
0.0
1030
0.0
  0
LINE
  5
1975A
330
2
100
AcDbEntity
  8
HATCH
100
AcDbLine
 10
7.424621202458746
 20
17.6776695296637
 30
0.0
 11
7.440083735157251
 21
17.6931320623622
 31
0.0
1001
ACAD
1010
0.0
1020
0.0
1030
0.0
  0
LINE
  5
1975B
330
2
100
AcDbEntity
  8
HATCH
100
AcDbLine
 10
6.312264970386278
 20
16.0349832117013
 30
0.0
 11
6.363961030678927
 21
16.08667927199395
 31
0.0
1001
ACAD
1010
0.0
1020
0.0
1030
0.0
  0
LINE
  5
1975C
330
2
100
AcDbEntity
  8
HATCH
100
AcDbLine
 10
6.452349378327245
 20
16.17506761964227
 30
0.0
 11
6.540737725975565
 21
16.26345596729059
 31
0.0
1001
ACAD
1010
0.0
1020
0.0
1030
0.0
  0
LINE
  5
1975D
330
2
100
AcDbEntity
  8
HATCH
100
AcDbLine
 10
6.629126073623882
 20
16.35184431493891
 30
0.0
 11
6.717514421272201
 21
16.44023266258723
 31
0.0
1001
ACAD
1010
0.0
1020
0.0
1030
0.0
  0
LINE
  5
1975E
330
2
100
AcDbEntity
  8
HATCH
100
AcDbLine
 10
6.805902768920518
 20
16.52862101023555
 30
0.0
 11
6.894291116568838
 21
16.61700935788387
 31
0.0
1001
ACAD
1010
0.0
1020
0.0
1030
0.0
  0
LINE
  5
1975F
330
2
100
AcDbEntity
  8
HATCH
100
AcDbLine
 10
6.982679464217156
 20
16.70539770553219
 30
0.0
 11
7.071067811865473
 21
16.79378605318051
 31
0.0
1001
ACAD
1010
0.0
1020
0.0
1030
0.0
  0
LINE
  5
19760
330
2
100
AcDbEntity
  8
HATCH
100
AcDbLine
 10
7.159456159513792
 20
16.88217440082883
 30
0.0
 11
7.247844507162111
 21
16.97056274847714
 31
0.0
1001
ACAD
1010
0.0
1020
0.0
1030
0.0
  0
LINE
  5
19761
330
2
100
AcDbEntity
  8
HATCH
100
AcDbLine
 10
7.336232854810428
 20
17.05895109612546
 30
0.0
 11
7.424621202458747
 21
17.14733944377378
 31
0.0
1001
ACAD
1010
0.0
1020
0.0
1030
0.0
  0
LINE
  5
19762
330
2
100
AcDbEntity
  8
HATCH
100
AcDbLine
 10
7.513009550107065
 20
17.2357277914221
 30
0.0
 11
7.601397897755383
 21
17.32411613907042
 31
0.0
1001
ACAD
1010
0.0
1020
0.0
1030
0.0
  0
LINE
  5
19763
330
2
100
AcDbEntity
  8
HATCH
100
AcDbLine
 10
7.689786245403702
 20
17.41250448671874
 30
0.0
 11
7.778174593052019
 21
17.50089283436706
 31
0.0
1001
ACAD
1010
0.0
1020
0.0
1030
0.0
  0
LINE
  5
19764
330
2
100
AcDbEntity
  8
HATCH
100
AcDbLine
 10
7.866562940700339
 20
17.58928118201538
 30
0.0
 11
7.954951288348657
 21
17.6776695296637
 31
0.0
1001
ACAD
1010
0.0
1020
0.0
1030
0.0
  0
LINE
  5
19765
330
2
100
AcDbEntity
  8
HATCH
100
AcDbLine
 10
8.043339635996975
 20
17.76605787731202
 30
0.0
 11
8.120011159582892
 21
17.84272940089794
 31
0.0
1001
ACAD
1010
0.0
1020
0.0
1030
0.0
  0
LINE
  5
19766
330
2
100
AcDbEntity
  8
HATCH
100
AcDbLine
 10
7.071067811865476
 20
16.26345596729059
 30
0.0
 11
7.159456159513793
 21
16.35184431493891
 31
0.0
1001
ACAD
1010
0.0
1020
0.0
1030
0.0
  0
LINE
  5
19767
330
2
100
AcDbEntity
  8
HATCH
100
AcDbLine
 10
7.247844507162112
 20
16.44023266258723
 30
0.0
 11
7.336232854810432
 21
16.52862101023555
 31
0.0
1001
ACAD
1010
0.0
1020
0.0
1030
0.0
  0
LINE
  5
19768
330
2
100
AcDbEntity
  8
HATCH
100
AcDbLine
 10
7.424621202458748
 20
16.61700935788387
 30
0.0
 11
7.513009550107067
 21
16.70539770553219
 31
0.0
1001
ACAD
1010
0.0
1020
0.0
1030
0.0
  0
LINE
  5
19769
330
2
100
AcDbEntity
  8
HATCH
100
AcDbLine
 10
7.601397897755384
 20
16.79378605318051
 30
0.0
 11
7.689786245403704
 21
16.88217440082883
 31
0.0
1001
ACAD
1010
0.0
1020
0.0
1030
0.0
  0
LINE
  5
1976A
330
2
100
AcDbEntity
  8
HATCH
100
AcDbLine
 10
7.778174593052022
 20
16.97056274847714
 30
0.0
 11
7.866562940700339
 21
17.05895109612546
 31
0.0
1001
ACAD
1010
0.0
1020
0.0
1030
0.0
  0
LINE
  5
1976B
330
2
100
AcDbEntity
  8
HATCH
100
AcDbLine
 10
7.954951288348659
 20
17.14733944377378
 30
0.0
 11
8.043339635996977
 21
17.2357277914221
 31
0.0
1001
ACAD
1010
0.0
1020
0.0
1030
0.0
  0
LINE
  5
1976C
330
2
100
AcDbEntity
  8
HATCH
100
AcDbLine
 10
8.131727983645296
 20
17.32411613907042
 30
0.0
 11
8.220116331293615
 21
17.41250448671874
 31
0.0
1001
ACAD
1010
0.0
1020
0.0
1030
0.0
  0
LINE
  5
1976D
330
2
100
AcDbEntity
  8
HATCH
100
AcDbLine
 10
8.308504678941934
 20
17.50089283436706
 30
0.0
 11
8.396893026590253
 21
17.58928118201538
 31
0.0
1001
ACAD
1010
0.0
1020
0.0
1030
0.0
  0
LINE
  5
1976E
330
2
100
AcDbEntity
  8
HATCH
100
AcDbLine
 10
8.485281374238571
 20
17.6776695296637
 30
0.0
 11
8.573669721886892
 21
17.76605787731202
 31
0.0
1001
ACAD
1010
0.0
1020
0.0
1030
0.0
  0
LINE
  5
1976F
330
2
100
AcDbEntity
  8
HATCH
100
AcDbLine
 10
8.662058069535211
 20
17.85444622496034
 30
0.0
 11
8.75044641718353
 21
17.94283457260864
 31
0.0
1001
ACAD
1010
0.0
1020
0.0
1030
0.0
  0
LINE
  5
19770
330
2
100
AcDbEntity
  8
HATCH
100
AcDbLine
 10
7.689786245403706
 20
16.35184431493891
 30
0.0
 11
7.778174593052025
 21
16.44023266258723
 31
0.0
1001
ACAD
1010
0.0
1020
0.0
1030
0.0
  0
LINE
  5
19771
330
2
100
AcDbEntity
  8
HATCH
100
AcDbLine
 10
7.866562940700342
 20
16.52862101023555
 30
0.0
 11
7.954951288348661
 21
16.61700935788387
 31
0.0
1001
ACAD
1010
0.0
1020
0.0
1030
0.0
  0
LINE
  5
19772
330
2
100
AcDbEntity
  8
HATCH
100
AcDbLine
 10
8.04333963599698
 20
16.70539770553219
 30
0.0
 11
8.1317279836453
 21
16.79378605318051
 31
0.0
1001
ACAD
1010
0.0
1020
0.0
1030
0.0
  0
LINE
  5
19773
330
2
100
AcDbEntity
  8
HATCH
100
AcDbLine
 10
8.220116331293619
 20
16.88217440082883
 30
0.0
 11
8.308504678941938
 21
16.97056274847714
 31
0.0
1001
ACAD
1010
0.0
1020
0.0
1030
0.0
  0
LINE
  5
19774
330
2
100
AcDbEntity
  8
HATCH
100
AcDbLine
 10
8.396893026590257
 20
17.05895109612546
 30
0.0
 11
8.485281374238574
 21
17.14733944377378
 31
0.0
1001
ACAD
1010
0.0
1020
0.0
1030
0.0
  0
LINE
  5
19775
330
2
100
AcDbEntity
  8
HATCH
100
AcDbLine
 10
8.573669721886894
 20
17.2357277914221
 30
0.0
 11
8.662058069535213
 21
17.32411613907042
 31
0.0
1001
ACAD
1010
0.0
1020
0.0
1030
0.0
  0
LINE
  5
19776
330
2
100
AcDbEntity
  8
HATCH
100
AcDbLine
 10
8.750446417183534
 20
17.41250448671874
 30
0.0
 11
8.838834764831851
 21
17.50089283436706
 31
0.0
1001
ACAD
1010
0.0
1020
0.0
1030
0.0
  0
LINE
  5
19777
330
2
100
AcDbEntity
  8
HATCH
100
AcDbLine
 10
8.927223112480172
 20
17.58928118201538
 30
0.0
 11
9.015611460128491
 21
17.6776695296637
 31
0.0
1001
ACAD
1010
0.0
1020
0.0
1030
0.0
  0
LINE
  5
19778
330
2
100
AcDbEntity
  8
HATCH
100
AcDbLine
 10
9.10399980777681
 20
17.76605787731202
 30
0.0
 11
9.192388155425126
 21
17.85444622496034
 31
0.0
1001
ACAD
1010
0.0
1020
0.0
1030
0.0
  0
LINE
  5
19779
330
2
100
AcDbEntity
  8
HATCH
100
AcDbLine
 10
9.280776503073447
 20
17.94283457260864
 30
0.0
 11
9.369164850721768
 21
18.03122292025697
 31
0.0
1001
ACAD
1010
0.0
1020
0.0
1030
0.0
  0
LINE
  5
1977A
330
2
100
AcDbEntity
  8
HATCH
100
AcDbLine
 10
9.457553198370089
 20
18.11961126790529
 30
0.0
 11
9.473771766754982
 21
18.13582983629019
 31
0.0
1001
ACAD
1010
0.0
1020
0.0
1030
0.0
  0
LINE
  5
1977B
330
2
100
AcDbEntity
  8
HATCH
100
AcDbLine
 10
8.358792342094297
 20
16.49052032573959
 30
0.0
 11
8.396893026590253
 21
16.52862101023554
 31
0.0
1001
ACAD
1010
0.0
1020
0.0
1030
0.0
  0
LINE
  5
1977C
330
2
100
AcDbEntity
  8
HATCH
100
AcDbLine
 10
8.485281374238571
 20
16.61700935788386
 30
0.0
 11
8.57366972188689
 21
16.70539770553218
 31
0.0
1001
ACAD
1010
0.0
1020
0.0
1030
0.0
  0
LINE
  5
1977D
330
2
100
AcDbEntity
  8
HATCH
100
AcDbLine
 10
8.662058069535209
 20
16.7937860531805
 30
0.0
 11
8.750446417183527
 21
16.88217440082882
 31
0.0
1001
ACAD
1010
0.0
1020
0.0
1030
0.0
  0
LINE
  5
1977E
330
2
100
AcDbEntity
  8
HATCH
100
AcDbLine
 10
8.838834764831847
 20
16.97056274847714
 30
0.0
 11
8.927223112480168
 21
17.05895109612546
 31
0.0
1001
ACAD
1010
0.0
1020
0.0
1030
0.0
  0
LINE
  5
1977F
330
2
100
AcDbEntity
  8
HATCH
100
AcDbLine
 10
9.015611460128486
 20
17.14733944377378
 30
0.0
 11
9.103999807776805
 21
17.2357277914221
 31
0.0
1001
ACAD
1010
0.0
1020
0.0
1030
0.0
  0
LINE
  5
19780
330
2
100
AcDbEntity
  8
HATCH
100
AcDbLine
 10
9.192388155425122
 20
17.32411613907042
 30
0.0
 11
9.280776503073443
 21
17.41250448671874
 31
0.0
1001
ACAD
1010
0.0
1020
0.0
1030
0.0
  0
LINE
  5
19781
330
2
100
AcDbEntity
  8
HATCH
100
AcDbLine
 10
9.369164850721762
 20
17.50089283436706
 30
0.0
 11
9.457553198370082
 21
17.58928118201537
 31
0.0
1001
ACAD
1010
0.0
1020
0.0
1030
0.0
  0
LINE
  5
19782
330
2
100
AcDbEntity
  8
HATCH
100
AcDbLine
 10
9.545941546018399
 20
17.67766952966369
 30
0.0
 11
9.63432989366672
 21
17.76605787731201
 31
0.0
1001
ACAD
1010
0.0
1020
0.0
1030
0.0
  0
LINE
  5
19783
330
2
100
AcDbEntity
  8
HATCH
100
AcDbLine
 10
9.722718241315039
 20
17.85444622496032
 30
0.0
 11
9.811106588963356
 21
17.94283457260864
 31
0.0
1001
ACAD
1010
0.0
1020
0.0
1030
0.0
  0
LINE
  5
19784
330
2
100
AcDbEntity
  8
HATCH
100
AcDbLine
 10
9.899494936611676
 20
18.03122292025697
 30
0.0
 11
9.987883284259996
 21
18.11961126790529
 31
0.0
1001
ACAD
1010
0.0
1020
0.0
1030
0.0
  0
LINE
  5
19785
330
2
100
AcDbEntity
  8
HATCH
100
AcDbLine
 10
9.1039998077768
 20
16.70539770553218
 30
0.0
 11
9.192388155425119
 21
16.7937860531805
 31
0.0
1001
ACAD
1010
0.0
1020
0.0
1030
0.0
  0
LINE
  5
19786
330
2
100
AcDbEntity
  8
HATCH
100
AcDbLine
 10
9.28077650307344
 20
16.88217440082882
 30
0.0
 11
9.369164850721759
 21
16.97056274847714
 31
0.0
1001
ACAD
1010
0.0
1020
0.0
1030
0.0
  0
LINE
  5
19787
330
2
100
AcDbEntity
  8
HATCH
100
AcDbLine
 10
9.457553198370078
 20
17.05895109612546
 30
0.0
 11
9.545941546018395
 21
17.14733944377378
 31
0.0
1001
ACAD
1010
0.0
1020
0.0
1030
0.0
  0
LINE
  5
19788
330
2
100
AcDbEntity
  8
HATCH
100
AcDbLine
 10
9.634329893666716
 20
17.2357277914221
 30
0.0
 11
9.722718241315037
 21
17.32411613907042
 31
0.0
1001
ACAD
1010
0.0
1020
0.0
1030
0.0
  0
LINE
  5
19789
330
2
100
AcDbEntity
  8
HATCH
100
AcDbLine
 10
9.811106588963356
 20
17.41250448671874
 30
0.0
 11
9.899494936611674
 21
17.50089283436706
 31
0.0
1001
ACAD
1010
0.0
1020
0.0
1030
0.0
  0
LINE
  5
1978A
330
2
100
AcDbEntity
  8
HATCH
100
AcDbLine
 10
9.987883284259991
 20
17.58928118201537
 30
0.0
 11
10.07627163190831
 21
17.67766952966369
 31
0.0
1001
ACAD
1010
0.0
1020
0.0
1030
0.0
  0
LINE
  5
1978B
330
2
100
AcDbEntity
  8
HATCH
100
AcDbLine
 10
9.722718241315034
 20
16.7937860531805
 30
0.0
 11
9.811106588963351
 21
16.88217440082882
 31
0.0
1001
ACAD
1010
0.0
1020
0.0
1030
0.0
  0
LINE
  5
1978C
330
2
100
AcDbEntity
  8
HATCH
100
AcDbLine
 10
9.89949493661167
 20
16.97056274847714
 30
0.0
 11
9.987883284259988
 21
17.05895109612546
 31
0.0
1001
ACAD
1010
0.0
1020
0.0
1030
0.0
  0
LINE
  5
1978D
330
2
100
AcDbEntity
  8
HATCH
100
AcDbLine
 10
10.07627163190831
 20
17.14733944377378
 30
0.0
 11
10.16465997955663
 21
17.2357277914221
 31
0.0
1001
ACAD
1010
0.0
1020
0.0
1030
0.0
  0
LINE
  5
1978E
330
2
100
AcDbEntity
  8
HATCH
100
AcDbLine
 10
5.807098788321958
 20
17.29758398260335
 30
0.0
 11
5.833630944789017
 21
17.32411613907041
 31
0.0
1001
ACAD
1010
0.0
1020
0.0
1030
0.0
  0
LINE
  5
1978F
330
2
100
AcDbEntity
  8
HATCH
100
AcDbLine
 10
5.533408632464066
 20
16.49356374085555
 30
0.0
 11
5.568465901844064
 21
16.52862101023554
 31
0.0
1001
ACAD
1010
0.0
1020
0.0
1030
0.0
  0
LINE
  5
19790
330
2
100
AcDbEntity
  8
HATCH
100
AcDbLine
 10
5.833630944789018
 20
16.7937860531805
 30
0.0
 11
5.922019292437338
 21
16.88217440082882
 31
0.0
1001
ACAD
1010
0.0
1020
0.0
1030
0.0
  0
LINE
  5
19791
330
2
100
AcDbEntity
  8
HATCH
100
AcDbLine
 10
6.010407640085656
 20
16.97056274847714
 30
0.0
 11
6.098795987733973
 21
17.05895109612546
 31
0.0
1001
ACAD
1010
0.0
1020
0.0
1030
0.0
  0
LINE
  5
19792
330
2
100
AcDbEntity
  8
HATCH
100
AcDbLine
 10
6.187184335382293
 20
17.14733944377378
 30
0.0
 11
6.275572683030611
 21
17.2357277914221
 31
0.0
1001
ACAD
1010
0.0
1020
0.0
1030
0.0
  0
LINE
  5
19793
330
2
100
AcDbEntity
  8
HATCH
100
AcDbLine
 10
6.363961030678929
 20
17.32411613907042
 30
0.0
 11
6.452349378327246
 21
17.41250448671874
 31
0.0
1001
ACAD
1010
0.0
1020
0.0
1030
0.0
  0
LINE
  5
19794
330
2
100
AcDbEntity
  8
HATCH
100
AcDbLine
 10
5.396620780997001
 20
15.82644580349857
 30
0.0
 11
5.480077554195744
 21
15.90990257669732
 31
0.0
1001
ACAD
1010
0.0
1020
0.0
1030
0.0
  0
LINE
  5
19795
330
2
100
AcDbEntity
  8
HATCH
100
AcDbLine
 10
5.568465901844064
 20
15.99829092434563
 30
0.0
 11
5.65685424949238
 21
16.08667927199395
 31
0.0
1001
ACAD
1010
0.0
1020
0.0
1030
0.0
  0
LINE
  5
19796
330
2
100
AcDbEntity
  8
HATCH
100
AcDbLine
 10
5.745242597140699
 20
16.17506761964227
 30
0.0
 11
5.833630944789017
 21
16.26345596729059
 31
0.0
1001
ACAD
1010
0.0
1020
0.0
1030
0.0
  0
LINE
  5
19797
330
2
100
AcDbEntity
  8
HATCH
100
AcDbLine
 10
5.922019292437336
 20
16.35184431493891
 30
0.0
 11
6.010407640085652
 21
16.44023266258723
 31
0.0
1001
ACAD
1010
0.0
1020
0.0
1030
0.0
  0
LINE
  5
19798
330
2
100
AcDbEntity
  8
HATCH
100
AcDbLine
 10
6.098795987733971
 20
16.52862101023555
 30
0.0
 11
6.187184335382291
 21
16.61700935788387
 31
0.0
1001
ACAD
1010
0.0
1020
0.0
1030
0.0
  0
LINE
  5
19799
330
2
100
AcDbEntity
  8
HATCH
100
AcDbLine
 10
6.275572683030609
 20
16.70539770553219
 30
0.0
 11
6.363961030678927
 21
16.79378605318051
 31
0.0
1001
ACAD
1010
0.0
1020
0.0
1030
0.0
  0
LINE
  5
1979A
330
2
100
AcDbEntity
  8
HATCH
100
AcDbLine
 10
6.452349378327245
 20
16.88217440082883
 30
0.0
 11
6.540737725975563
 21
16.97056274847714
 31
0.0
1001
ACAD
1010
0.0
1020
0.0
1030
0.0
  0
LINE
  5
1979B
330
2
100
AcDbEntity
  8
HATCH
100
AcDbLine
 10
6.629126073623882
 20
17.05895109612546
 30
0.0
 11
6.7175144212722
 21
17.14733944377378
 31
0.0
1001
ACAD
1010
0.0
1020
0.0
1030
0.0
  0
LINE
  5
1979C
330
2
100
AcDbEntity
  8
HATCH
100
AcDbLine
 10
6.805902768920518
 20
17.2357277914221
 30
0.0
 11
6.894291116568838
 21
17.32411613907042
 31
0.0
1001
ACAD
1010
0.0
1020
0.0
1030
0.0
  0
LINE
  5
1979D
330
2
100
AcDbEntity
  8
HATCH
100
AcDbLine
 10
6.982679464217154
 20
17.41250448671874
 30
0.0
 11
7.071067811865472
 21
17.50089283436706
 31
0.0
1001
ACAD
1010
0.0
1020
0.0
1030
0.0
  0
LINE
  5
1979E
330
2
100
AcDbEntity
  8
HATCH
100
AcDbLine
 10
7.15945615951379
 20
17.58928118201538
 30
0.0
 11
7.212984552989602
 21
17.64280957549119
 31
0.0
1001
ACAD
1010
0.0
1020
0.0
1030
0.0
  0
LINE
  5
1979F
330
2
100
AcDbEntity
  8
HATCH
100
AcDbLine
 10
6.083708695177862
 20
15.98320363178952
 30
0.0
 11
6.098795987733973
 21
15.99829092434563
 31
0.0
1001
ACAD
1010
0.0
1020
0.0
1030
0.0
  0
LINE
  5
197A0
330
2
100
AcDbEntity
  8
HATCH
100
AcDbLine
 10
6.187184335382293
 20
16.08667927199395
 30
0.0
 11
6.275572683030611
 21
16.17506761964227
 31
0.0
1001
ACAD
1010
0.0
1020
0.0
1030
0.0
  0
LINE
  5
197A1
330
2
100
AcDbEntity
  8
HATCH
100
AcDbLine
 10
6.363961030678929
 20
16.26345596729059
 30
0.0
 11
6.452349378327246
 21
16.35184431493891
 31
0.0
1001
ACAD
1010
0.0
1020
0.0
1030
0.0
  0
LINE
  5
197A2
330
2
100
AcDbEntity
  8
HATCH
100
AcDbLine
 10
6.540737725975565
 20
16.44023266258723
 30
0.0
 11
6.629126073623883
 21
16.52862101023555
 31
0.0
1001
ACAD
1010
0.0
1020
0.0
1030
0.0
  0
LINE
  5
197A3
330
2
100
AcDbEntity
  8
HATCH
100
AcDbLine
 10
6.717514421272202
 20
16.61700935788387
 30
0.0
 11
6.805902768920518
 21
16.70539770553219
 31
0.0
1001
ACAD
1010
0.0
1020
0.0
1030
0.0
  0
LINE
  5
197A4
330
2
100
AcDbEntity
  8
HATCH
100
AcDbLine
 10
6.894291116568838
 20
16.79378605318051
 30
0.0
 11
6.982679464217157
 21
16.88217440082883
 31
0.0
1001
ACAD
1010
0.0
1020
0.0
1030
0.0
  0
LINE
  5
197A5
330
2
100
AcDbEntity
  8
HATCH
100
AcDbLine
 10
7.071067811865475
 20
16.97056274847714
 30
0.0
 11
7.159456159513792
 21
17.05895109612546
 31
0.0
1001
ACAD
1010
0.0
1020
0.0
1030
0.0
  0
LINE
  5
197A6
330
2
100
AcDbEntity
  8
HATCH
100
AcDbLine
 10
7.247844507162112
 20
17.14733944377378
 30
0.0
 11
7.336232854810429
 21
17.2357277914221
 31
0.0
1001
ACAD
1010
0.0
1020
0.0
1030
0.0
  0
LINE
  5
197A7
330
2
100
AcDbEntity
  8
HATCH
100
AcDbLine
 10
7.424621202458747
 20
17.32411613907042
 30
0.0
 11
7.513009550107066
 21
17.41250448671874
 31
0.0
1001
ACAD
1010
0.0
1020
0.0
1030
0.0
  0
LINE
  5
197A8
330
2
100
AcDbEntity
  8
HATCH
100
AcDbLine
 10
7.601397897755384
 20
17.50089283436706
 30
0.0
 11
7.689786245403702
 21
17.58928118201538
 31
0.0
1001
ACAD
1010
0.0
1020
0.0
1030
0.0
  0
LINE
  5
197A9
330
2
100
AcDbEntity
  8
HATCH
100
AcDbLine
 10
7.778174593052021
 20
17.6776695296637
 30
0.0
 11
7.866562940700339
 21
17.76605787731202
 31
0.0
1001
ACAD
1010
0.0
1020
0.0
1030
0.0
  0
LINE
  5
197AA
330
2
100
AcDbEntity
  8
HATCH
100
AcDbLine
 10
6.805902768920521
 20
16.17506761964227
 30
0.0
 11
6.894291116568838
 21
16.26345596729059
 31
0.0
1001
ACAD
1010
0.0
1020
0.0
1030
0.0
  0
LINE
  5
197AB
330
2
100
AcDbEntity
  8
HATCH
100
AcDbLine
 10
6.982679464217157
 20
16.35184431493891
 30
0.0
 11
7.071067811865476
 21
16.44023266258723
 31
0.0
1001
ACAD
1010
0.0
1020
0.0
1030
0.0
  0
LINE
  5
197AC
330
2
100
AcDbEntity
  8
HATCH
100
AcDbLine
 10
7.159456159513793
 20
16.52862101023555
 30
0.0
 11
7.247844507162112
 21
16.61700935788387
 31
0.0
1001
ACAD
1010
0.0
1020
0.0
1030
0.0
  0
LINE
  5
197AD
330
2
100
AcDbEntity
  8
HATCH
100
AcDbLine
 10
7.336232854810432
 20
16.70539770553219
 30
0.0
 11
7.424621202458748
 21
16.79378605318051
 31
0.0
1001
ACAD
1010
0.0
1020
0.0
1030
0.0
  0
LINE
  5
197AE
330
2
100
AcDbEntity
  8
HATCH
100
AcDbLine
 10
7.513009550107067
 20
16.88217440082883
 30
0.0
 11
7.601397897755384
 21
16.97056274847714
 31
0.0
1001
ACAD
1010
0.0
1020
0.0
1030
0.0
  0
LINE
  5
197AF
330
2
100
AcDbEntity
  8
HATCH
100
AcDbLine
 10
7.689786245403704
 20
17.05895109612546
 30
0.0
 11
7.778174593052022
 21
17.14733944377378
 31
0.0
1001
ACAD
1010
0.0
1020
0.0
1030
0.0
  0
LINE
  5
197B0
330
2
100
AcDbEntity
  8
HATCH
100
AcDbLine
 10
7.866562940700339
 20
17.2357277914221
 30
0.0
 11
7.954951288348659
 21
17.32411613907042
 31
0.0
1001
ACAD
1010
0.0
1020
0.0
1030
0.0
  0
LINE
  5
197B1
330
2
100
AcDbEntity
  8
HATCH
100
AcDbLine
 10
8.043339635996977
 20
17.41250448671874
 30
0.0
 11
8.131727983645296
 21
17.50089283436706
 31
0.0
1001
ACAD
1010
0.0
1020
0.0
1030
0.0
  0
LINE
  5
197B2
330
2
100
AcDbEntity
  8
HATCH
100
AcDbLine
 10
8.220116331293615
 20
17.58928118201538
 30
0.0
 11
8.308504678941934
 21
17.6776695296637
 31
0.0
1001
ACAD
1010
0.0
1020
0.0
1030
0.0
  0
LINE
  5
197B3
330
2
100
AcDbEntity
  8
HATCH
100
AcDbLine
 10
8.396893026590253
 20
17.76605787731202
 30
0.0
 11
8.485281374238571
 21
17.85444622496034
 31
0.0
1001
ACAD
1010
0.0
1020
0.0
1030
0.0
  0
LINE
  5
197B4
330
2
100
AcDbEntity
  8
HATCH
100
AcDbLine
 10
7.451536727758548
 20
16.29037149259039
 30
0.0
 11
7.513009550107067
 21
16.35184431493891
 31
0.0
1001
ACAD
1010
0.0
1020
0.0
1030
0.0
  0
LINE
  5
197B5
330
2
100
AcDbEntity
  8
HATCH
100
AcDbLine
 10
7.601397897755387
 20
16.44023266258723
 30
0.0
 11
7.689786245403706
 21
16.52862101023554
 31
0.0
1001
ACAD
1010
0.0
1020
0.0
1030
0.0
  0
LINE
  5
197B6
330
2
100
AcDbEntity
  8
HATCH
100
AcDbLine
 10
7.778174593052023
 20
16.61700935788386
 30
0.0
 11
7.866562940700342
 21
16.70539770553218
 31
0.0
1001
ACAD
1010
0.0
1020
0.0
1030
0.0
  0
LINE
  5
197B7
330
2
100
AcDbEntity
  8
HATCH
100
AcDbLine
 10
7.95495128834866
 20
16.7937860531805
 30
0.0
 11
8.043339635996979
 21
16.88217440082882
 31
0.0
1001
ACAD
1010
0.0
1020
0.0
1030
0.0
  0
LINE
  5
197B8
330
2
100
AcDbEntity
  8
HATCH
100
AcDbLine
 10
8.131727983645296
 20
16.97056274847714
 30
0.0
 11
8.220116331293617
 21
17.05895109612546
 31
0.0
1001
ACAD
1010
0.0
1020
0.0
1030
0.0
  0
LINE
  5
197B9
330
2
100
AcDbEntity
  8
HATCH
100
AcDbLine
 10
8.308504678941936
 20
17.14733944377378
 30
0.0
 11
8.396893026590253
 21
17.2357277914221
 31
0.0
1001
ACAD
1010
0.0
1020
0.0
1030
0.0
  0
LINE
  5
197BA
330
2
100
AcDbEntity
  8
HATCH
100
AcDbLine
 10
8.485281374238574
 20
17.32411613907042
 30
0.0
 11
8.573669721886894
 21
17.41250448671874
 31
0.0
1001
ACAD
1010
0.0
1020
0.0
1030
0.0
  0
LINE
  5
197BB
330
2
100
AcDbEntity
  8
HATCH
100
AcDbLine
 10
8.662058069535213
 20
17.50089283436706
 30
0.0
 11
8.750446417183532
 21
17.58928118201537
 31
0.0
1001
ACAD
1010
0.0
1020
0.0
1030
0.0
  0
LINE
  5
197BC
330
2
100
AcDbEntity
  8
HATCH
100
AcDbLine
 10
8.838834764831851
 20
17.67766952966369
 30
0.0
 11
8.927223112480168
 21
17.76605787731201
 31
0.0
1001
ACAD
1010
0.0
1020
0.0
1030
0.0
  0
LINE
  5
197BD
330
2
100
AcDbEntity
  8
HATCH
100
AcDbLine
 10
9.015611460128488
 20
17.85444622496032
 30
0.0
 11
9.103999807776807
 21
17.94283457260864
 31
0.0
1001
ACAD
1010
0.0
1020
0.0
1030
0.0
  0
LINE
  5
197BE
330
2
100
AcDbEntity
  8
HATCH
100
AcDbLine
 10
9.192388155425126
 20
18.03122292025697
 30
0.0
 11
9.248704072697814
 21
18.08753883752966
 31
0.0
1001
ACAD
1010
0.0
1020
0.0
1030
0.0
  0
LINE
  5
197BF
330
2
100
AcDbEntity
  8
HATCH
100
AcDbLine
 10
8.220116331293617
 20
16.52862101023554
 30
0.0
 11
8.308504678941936
 21
16.61700935788386
 31
0.0
1001
ACAD
1010
0.0
1020
0.0
1030
0.0
  0
LINE
  5
197C0
330
2
100
AcDbEntity
  8
HATCH
100
AcDbLine
 10
8.396893026590253
 20
16.70539770553218
 30
0.0
 11
8.485281374238574
 21
16.7937860531805
 31
0.0
1001
ACAD
1010
0.0
1020
0.0
1030
0.0
  0
LINE
  5
197C1
330
2
100
AcDbEntity
  8
HATCH
100
AcDbLine
 10
8.573669721886894
 20
16.88217440082882
 30
0.0
 11
8.662058069535213
 21
16.97056274847714
 31
0.0
1001
ACAD
1010
0.0
1020
0.0
1030
0.0
  0
LINE
  5
197C2
330
2
100
AcDbEntity
  8
HATCH
100
AcDbLine
 10
8.750446417183532
 20
17.05895109612546
 30
0.0
 11
8.838834764831851
 21
17.14733944377378
 31
0.0
1001
ACAD
1010
0.0
1020
0.0
1030
0.0
  0
LINE
  5
197C3
330
2
100
AcDbEntity
  8
HATCH
100
AcDbLine
 10
8.927223112480168
 20
17.2357277914221
 30
0.0
 11
9.015611460128488
 21
17.32411613907042
 31
0.0
1001
ACAD
1010
0.0
1020
0.0
1030
0.0
  0
LINE
  5
197C4
330
2
100
AcDbEntity
  8
HATCH
100
AcDbLine
 10
9.103999807776807
 20
17.41250448671874
 30
0.0
 11
9.192388155425126
 21
17.50089283436706
 31
0.0
1001
ACAD
1010
0.0
1020
0.0
1030
0.0
  0
LINE
  5
197C5
330
2
100
AcDbEntity
  8
HATCH
100
AcDbLine
 10
9.280776503073447
 20
17.58928118201537
 30
0.0
 11
9.369164850721766
 21
17.67766952966369
 31
0.0
1001
ACAD
1010
0.0
1020
0.0
1030
0.0
  0
LINE
  5
197C6
330
2
100
AcDbEntity
  8
HATCH
100
AcDbLine
 10
9.457553198370083
 20
17.76605787731201
 30
0.0
 11
9.545941546018402
 21
17.85444622496032
 31
0.0
1001
ACAD
1010
0.0
1020
0.0
1030
0.0
  0
LINE
  5
197C7
330
2
100
AcDbEntity
  8
HATCH
100
AcDbLine
 10
9.634329893666725
 20
17.94283457260864
 30
0.0
 11
9.722718241315043
 21
18.03122292025697
 31
0.0
1001
ACAD
1010
0.0
1020
0.0
1030
0.0
  0
LINE
  5
197C8
330
2
100
AcDbEntity
  8
HATCH
100
AcDbLine
 10
9.811106588963363
 20
18.11961126790529
 30
0.0
 11
9.899494936611679
 21
18.20799961555361
 31
0.0
1001
ACAD
1010
0.0
1020
0.0
1030
0.0
  0
LINE
  5
197C9
330
2
100
AcDbEntity
  8
HATCH
100
AcDbLine
 10
8.838834764831842
 20
16.61700935788386
 30
0.0
 11
8.927223112480161
 21
16.70539770553218
 31
0.0
1001
ACAD
1010
0.0
1020
0.0
1030
0.0
  0
LINE
  5
197CA
330
2
100
AcDbEntity
  8
HATCH
100
AcDbLine
 10
9.015611460128482
 20
16.7937860531805
 30
0.0
 11
9.1039998077768
 21
16.88217440082882
 31
0.0
1001
ACAD
1010
0.0
1020
0.0
1030
0.0
  0
LINE
  5
197CB
330
2
100
AcDbEntity
  8
HATCH
100
AcDbLine
 10
9.192388155425119
 20
16.97056274847714
 30
0.0
 11
9.28077650307344
 21
17.05895109612546
 31
0.0
1001
ACAD
1010
0.0
1020
0.0
1030
0.0
  0
LINE
  5
197CC
330
2
100
AcDbEntity
  8
HATCH
100
AcDbLine
 10
9.369164850721759
 20
17.14733944377378
 30
0.0
 11
9.457553198370078
 21
17.2357277914221
 31
0.0
1001
ACAD
1010
0.0
1020
0.0
1030
0.0
  0
LINE
  5
197CD
330
2
100
AcDbEntity
  8
HATCH
100
AcDbLine
 10
9.545941546018395
 20
17.32411613907042
 30
0.0
 11
9.634329893666716
 21
17.41250448671874
 31
0.0
1001
ACAD
1010
0.0
1020
0.0
1030
0.0
  0
LINE
  5
197CE
330
2
100
AcDbEntity
  8
HATCH
100
AcDbLine
 10
9.722718241315037
 20
17.50089283436706
 30
0.0
 11
9.811106588963356
 21
17.58928118201537
 31
0.0
1001
ACAD
1010
0.0
1020
0.0
1030
0.0
  0
LINE
  5
197CF
330
2
100
AcDbEntity
  8
HATCH
100
AcDbLine
 10
9.899494936611674
 20
17.67766952966369
 30
0.0
 11
9.987883284259991
 21
17.76605787731201
 31
0.0
1001
ACAD
1010
0.0
1020
0.0
1030
0.0
  0
LINE
  5
197D0
330
2
100
AcDbEntity
  8
HATCH
100
AcDbLine
 10
10.07627163190831
 20
17.85444622496032
 30
0.0
 11
10.09761033716107
 21
17.87578493021309
 31
0.0
1001
ACAD
1010
0.0
1020
0.0
1030
0.0
  0
LINE
  5
197D1
330
2
100
AcDbEntity
  8
HATCH
100
AcDbLine
 10
9.487744626520797
 20
16.73558913368291
 30
0.0
 11
9.545941546018394
 21
16.7937860531805
 31
0.0
1001
ACAD
1010
0.0
1020
0.0
1030
0.0
  0
LINE
  5
197D2
330
2
100
AcDbEntity
  8
HATCH
100
AcDbLine
 10
9.634329893666713
 20
16.88217440082882
 30
0.0
 11
9.722718241315034
 21
16.97056274847714
 31
0.0
1001
ACAD
1010
0.0
1020
0.0
1030
0.0
  0
LINE
  5
197D3
330
2
100
AcDbEntity
  8
HATCH
100
AcDbLine
 10
9.811106588963351
 20
17.05895109612546
 30
0.0
 11
9.89949493661167
 21
17.14733944377378
 31
0.0
1001
ACAD
1010
0.0
1020
0.0
1030
0.0
  0
LINE
  5
197D4
330
2
100
AcDbEntity
  8
HATCH
100
AcDbLine
 10
9.987883284259988
 20
17.2357277914221
 30
0.0
 11
10.07627163190831
 21
17.32411613907042
 31
0.0
1001
ACAD
1010
0.0
1020
0.0
1030
0.0
  0
LINE
  5
197D5
330
2
100
AcDbEntity
  8
HATCH
100
AcDbLine
 10
10.16465997955663
 20
17.41250448671874
 30
0.0
 11
10.23717899435805
 21
17.48502350152016
 31
0.0
1001
ACAD
1010
0.0
1020
0.0
1030
0.0
  0
LINE
  5
197D6
330
2
100
AcDbEntity
  8
HATCH
100
AcDbLine
 10
10.16242463333089
 20
16.87993905460309
 30
0.0
 11
10.16465997955662
 21
16.88217440082882
 31
0.0
1001
ACAD
1010
0.0
1020
0.0
1030
0.0
  0
LINE
  5
197D7
330
2
100
AcDbEntity
  8
HATCH
100
AcDbLine
 10
10.25304832720494
 20
16.97056274847714
 30
0.0
 11
10.28335600946837
 21
17.00087043074058
 31
0.0
1001
ACAD
1010
0.0
1020
0.0
1030
0.0
  0
LINE
  5
197D8
330
2
100
AcDbEntity
  8
HATCH
 62
     1
100
AcDbLine
 10
1.88305698261197
 20
16.65843291174712
 30
0.0
 11
1.931266053338459
 21
16.71588624498105
 31
0.0
1001
ACAD
1010
0.0
1020
0.0
1030
0.0
  0
LINE
  5
197D9
330
2
100
AcDbEntity
  8
HATCH
 62
     1
100
AcDbLine
 10
3.178826013930611
 20
17.2851207755716
 30
0.0
 11
3.192836799204429
 21
17.30181817925674
 31
0.0
1001
ACAD
1010
0.0
1020
0.0
1030
0.0
  0
LINE
  5
197DA
330
2
100
AcDbEntity
  8
HATCH
 62
     1
100
AcDbLine
 10
3.89608619653136
 20
17.22236864058902
 30
0.0
 11
3.944295267257849
 21
17.27982197382294
 31
0.0
1001
ACAD
1010
0.0
1020
0.0
1030
0.0
  0
LINE
  5
197DB
330
2
100
AcDbEntity
  8
HATCH
 62
     1
100
AcDbLine
 10
4.613346379132118
 20
17.15961650560642
 30
0.0
 11
4.661555449858608
 21
17.21706983884034
 31
0.0
1001
ACAD
1010
0.0
1020
0.0
1030
0.0
  0
LINE
  5
197DC
330
2
100
AcDbEntity
  8
HATCH
 62
     1
100
AcDbLine
 10
5.909115410450755
 20
17.7863043694309
 30
0.0
 11
5.957324481177246
 21
17.84375770266483
 31
0.0
1001
ACAD
1010
0.0
1020
0.0
1030
0.0
  0
LINE
  5
197DD
330
2
100
AcDbEntity
  8
HATCH
 62
     1
100
AcDbLine
 10
6.626375593051508
 20
17.72355223444831
 30
0.0
 11
6.674584663777999
 21
17.78100556768223
 31
0.0
1001
ACAD
1010
0.0
1020
0.0
1030
0.0
  0
LINE
  5
197DE
330
2
100
AcDbEntity
  8
HATCH
 62
     1
100
AcDbLine
 10
7.922144624370146
 20
18.35024009827279
 30
0.0
 11
7.949468708770715
 21
18.38280367402152
 31
0.0
1001
ACAD
1010
0.0
1020
0.0
1030
0.0
  0
LINE
  5
197DF
330
2
100
AcDbEntity
  8
HATCH
 62
     1
100
AcDbLine
 10
8.639404806970901
 20
18.2874879632902
 30
0.0
 11
8.687613877697392
 21
18.34494129652412
 31
0.0
1001
ACAD
1010
0.0
1020
0.0
1030
0.0
  0
LINE
  5
197E0
330
2
100
AcDbEntity
  8
HATCH
 62
     1
100
AcDbLine
 10
9.356664989571655
 20
18.2247358283076
 30
0.0
 11
9.404874060298148
 21
18.28218916154153
 31
0.0
1001
ACAD
1010
0.0
1020
0.0
1030
0.0
  0
LINE
  5
197E1
330
2
100
AcDbEntity
  8
HATCH
 62
     1
100
AcDbLine
 10
7.922144634540948
 20
18.35024010552796
 30
0.0
 11
7.981916316426452
 21
18.3450107609631
 31
0.0
1001
ACAD
1010
0.0
1020
0.0
1030
0.0
  0
LINE
  5
197E2
330
2
100
AcDbEntity
  8
HATCH
 62
     1
100
AcDbLine
 10
8.639404817167005
 20
18.28748797074964
 30
0.0
 11
8.69917649905251
 21
18.28225862618478
 31
0.0
1001
ACAD
1010
0.0
1020
0.0
1030
0.0
  0
LINE
  5
197E3
330
2
100
AcDbEntity
  8
HATCH
 62
     1
100
AcDbLine
 10
9.356664999793062
 20
18.22473583597133
 30
0.0
 11
9.416436681678566
 21
18.21950649140647
 31
0.0
1001
ACAD
1010
0.0
1020
0.0
1030
0.0
  0
LINE
  5
197E4
330
2
100
AcDbEntity
  8
HATCH
 62
     1
100
AcDbLine
 10
5.909115420275774
 20
17.78630437616289
 30
0.0
 11
5.968887102161279
 21
17.78107503159803
 31
0.0
1001
ACAD
1010
0.0
1020
0.0
1030
0.0
  0
LINE
  5
197E5
330
2
100
AcDbEntity
  8
HATCH
 62
     1
100
AcDbLine
 10
6.626375602901831
 20
17.72355224138457
 30
0.0
 11
6.686147284787337
 21
17.71832289681971
 31
0.0
1001
ACAD
1010
0.0
1020
0.0
1030
0.0
  0
LINE
  5
197E6
330
2
100
AcDbEntity
  8
HATCH
 62
     1
100
AcDbLine
 10
3.178826023384553
 20
17.28512078157613
 30
0.0
 11
3.238597705270058
 21
17.27989143701127
 31
0.0
1001
ACAD
1010
0.0
1020
0.0
1030
0.0
  0
LINE
  5
197E7
330
2
100
AcDbEntity
  8
HATCH
 62
     1
100
AcDbLine
 10
3.896086206010611
 20
17.22236864679782
 30
0.0
 11
3.955857887896115
 21
17.21713930223296
 31
0.0
1001
ACAD
1010
0.0
1020
0.0
1030
0.0
  0
LINE
  5
197E8
330
2
100
AcDbEntity
  8
HATCH
 62
     1
100
AcDbLine
 10
4.613346388636666
 20
17.1596165120195
 30
0.0
 11
4.673118070522171
 21
17.15438716745464
 31
0.0
1001
ACAD
1010
0.0
1020
0.0
1030
0.0
  0
LINE
  5
197E9
330
2
100
AcDbEntity
  8
HATCH
 62
     1
100
AcDbLine
 10
1.883056991745439
 20
16.65843291743275
 30
0.0
 11
1.942828673630943
 21
16.65320357286789
 31
0.0
1001
ACAD
1010
0.0
1020
0.0
1030
0.0
  0
LINE
  5
197EA
330
2
100
AcDbEntity
  8
HATCH
 62
     1
100
AcDbLine
 10
1.942844050941259
 20
16.65318367373066
 30
0.0
 11
1.931281489090501
 21
16.71586635861798
 31
0.0
1001
ACAD
1010
0.0
1020
0.0
1030
0.0
  0
LINE
  5
197EB
330
2
100
AcDbEntity
  8
HATCH
 62
     1
100
AcDbLine
 10
3.238613560569238
 20
17.27987051756969
 30
0.0
 11
3.232828218218671
 21
17.31123387771483
 31
0.0
1001
ACAD
1010
0.0
1020
0.0
1030
0.0
  0
LINE
  5
197EC
330
2
100
AcDbEntity
  8
HATCH
 62
     1
100
AcDbLine
 10
3.955873688483191
 20
17.21711781934776
 30
0.0
 11
3.944311126632431
 21
17.27980050423508
 31
0.0
1001
ACAD
1010
0.0
1020
0.0
1030
0.0
  0
LINE
  5
197ED
330
2
100
AcDbEntity
  8
HATCH
 62
     1
100
AcDbLine
 10
4.673133816397144
 20
17.15436512112583
 30
0.0
 11
4.661571254546386
 21
17.21704780601315
 31
0.0
1001
ACAD
1010
0.0
1020
0.0
1030
0.0
  0
LINE
  5
197EE
330
2
100
AcDbEntity
  8
HATCH
 62
     1
100
AcDbLine
 10
5.968903326025122
 20
17.78105196496486
 30
0.0
 11
5.957340764174363
 21
17.84373464985218
 31
0.0
1001
ACAD
1010
0.0
1020
0.0
1030
0.0
  0
LINE
  5
197EF
330
2
100
AcDbEntity
  8
HATCH
 62
     1
100
AcDbLine
 10
6.686163453939077
 20
17.71829926674292
 30
0.0
 11
6.674600892088317
 21
17.78098195163025
 31
0.0
1001
ACAD
1010
0.0
1020
0.0
1030
0.0
  0
LINE
  5
197F0
330
2
100
AcDbEntity
  8
HATCH
 62
     1
100
AcDbLine
 10
7.981932963567049
 20
18.34498611058195
 30
0.0
 11
7.97396742656267
 21
18.38816869005253
 31
0.0
1001
ACAD
1010
0.0
1020
0.0
1030
0.0
  0
LINE
  5
197F1
330
2
100
AcDbEntity
  8
HATCH
 62
     1
100
AcDbLine
 10
8.699193091481003
 20
18.28223341236002
 30
0.0
 11
8.687630529630245
 21
18.34491609724734
 31
0.0
1001
ACAD
1010
0.0
1020
0.0
1030
0.0
  0
LINE
  5
197F2
330
2
100
AcDbEntity
  8
HATCH
 62
     1
100
AcDbLine
 10
9.416453219394956
 20
18.21948071413809
 30
0.0
 11
9.404890657544198
 21
18.28216339902542
 31
0.0
1001
ACAD
1010
0.0
1020
0.0
1030
0.0
  0
LINE
  5
197F3
330
2
100
AcDbEntity
  8
HATCH
 62
     1
100
AcDbLine
 10
3.603938598060044
 20
17.30300156191469
 30
0.0
 11
3.681827093491254
 21
17.38417811197358
 31
0.0
1001
ACAD
1010
0.0
1020
0.0
1030
0.0
  0
LINE
  5
197F4
330
2
100
AcDbEntity
  8
HATCH
 62
     1
100
AcDbLine
 10
4.671179646685691
 20
17.13748254758568
 30
0.0
 11
4.7490681421169
 21
17.21865909764456
 31
0.0
1001
ACAD
1010
0.0
1020
0.0
1030
0.0
  0
LINE
  5
197F5
330
2
100
AcDbEntity
  8
HATCH
 62
     1
100
AcDbLine
 10
6.673082640485841
 20
17.94608213396327
 30
0.0
 11
6.750971135917048
 21
18.02725868402216
 31
0.0
1001
ACAD
1010
0.0
1020
0.0
1030
0.0
  0
LINE
  5
197F6
330
2
100
AcDbEntity
  8
HATCH
 62
     1
100
AcDbLine
 10
7.79427292440734
 20
17.83678981621361
 30
0.0
 11
7.818212184542687
 21
17.86173966969314
 31
0.0
1001
ACAD
1010
0.0
1020
0.0
1030
0.0
  0
LINE
  5
197F7
330
2
100
AcDbEntity
  8
HATCH
 62
     1
100
AcDbLine
 10
9.742226682911633
 20
18.58916270601185
 30
0.0
 11
9.820115178342838
 21
18.67033925607073
 31
0.0
1001
ACAD
1010
0.0
1020
0.0
1030
0.0
  0
LINE
  5
197F8
330
2
100
AcDbEntity
  8
HATCH
 62
     1
100
AcDbLine
 10
3.692891177934458
 20
17.28918819938352
 30
0.0
 11
3.681842993468035
 21
17.38415800927824
 31
0.0
1001
ACAD
1010
0.0
1020
0.0
1030
0.0
  0
LINE
  5
197F9
330
2
100
AcDbEntity
  8
HATCH
 62
     1
100
AcDbLine
 10
4.756595186212023
 20
17.1540715145095
 30
0.0
 11
4.749083893200682
 21
17.21863832831665
 31
0.0
1001
ACAD
1010
0.0
1020
0.0
1030
0.0
  0
LINE
  5
197FA
330
2
100
AcDbEntity
  8
HATCH
 62
     1
100
AcDbLine
 10
6.762035682948452
 20
17.9322667083608
 30
0.0
 11
6.750987498482031
 21
18.02723651825552
 31
0.0
1001
ACAD
1010
0.0
1020
0.0
1030
0.0
  0
LINE
  5
197FB
330
2
100
AcDbEntity
  8
HATCH
 62
     1
100
AcDbLine
 10
7.820458446186339
 20
17.84254742239425
 30
0.0
 11
7.818228398214674
 21
17.86171683729395
 31
0.0
1001
ACAD
1010
0.0
1020
0.0
1030
0.0
  0
LINE
  5
197FC
330
2
100
AcDbEntity
  8
HATCH
 62
     1
100
AcDbLine
 10
9.831180187962447
 20
18.57534521733809
 30
0.0
 11
9.820132003496023
 21
18.67031502723281
 31
0.0
1001
ACAD
1010
0.0
1020
0.0
1030
0.0
  0
LINE
  5
197FD
330
2
100
AcDbEntity
  8
HATCH
 62
     1
100
AcDbLine
 10
9.742226682513241
 20
18.58916271429304
 30
0.0
 11
9.831163436570236
 21
18.57536946312422
 31
0.0
1001
ACAD
1010
0.0
1020
0.0
1030
0.0
  0
LINE
  5
197FE
330
2
100
AcDbEntity
  8
HATCH
 62
     1
100
AcDbLine
 10
6.6730826400118
 20
17.94608214141932
 30
0.0
 11
6.762019394068794
 21
17.9322888902505
 31
0.0
1001
ACAD
1010
0.0
1020
0.0
1030
0.0
  0
LINE
  5
197FF
330
2
100
AcDbEntity
  8
HATCH
 62
     1
100
AcDbLine
 10
3.603938597510356
 20
17.3030015685456
 30
0.0
 11
3.692875351567348
 21
17.28920831737679
 31
0.0
1001
ACAD
1010
0.0
1020
0.0
1030
0.0
  0
LINE
  5
19800
330
2
100
AcDbEntity
  8
HATCH
 62
     1
100
AcDbLine
 10
4.671179646194262
 20
17.1374825545198
 30
0.0
 11
4.6798100556193
 21
17.13614405947182
 31
0.0
1001
ACAD
1010
0.0
1020
0.0
1030
0.0
  0
LINE
  5
19801
330
2
100
AcDbEntity
  8
HATCH
 62
     1
100
AcDbLine
 10
2.476756800165955
 20
16.80371717580104
 30
0.0
 11
2.546775332153246
 21
16.83059477201693
 31
0.0
1001
ACAD
1010
0.0
1020
0.0
1030
0.0
  0
LINE
  5
19802
330
2
100
AcDbEntity
  8
HATCH
 62
     1
100
AcDbLine
 10
3.316979184013438
 20
17.1262483303918
 30
0.0
 11
3.386997716000728
 21
17.1531259266077
 31
0.0
1001
ACAD
1010
0.0
1020
0.0
1030
0.0
  0
LINE
  5
19803
330
2
100
AcDbEntity
  8
HATCH
 62
     1
100
AcDbLine
 10
4.157201567860919
 20
17.44877948498257
 30
0.0
 11
4.22722009984821
 21
17.47565708119847
 31
0.0
1001
ACAD
1010
0.0
1020
0.0
1030
0.0
  0
LINE
  5
19804
330
2
100
AcDbEntity
  8
HATCH
 62
     1
100
AcDbLine
 10
5.594331003826872
 20
17.36869174890801
 30
0.0
 11
5.664349535814162
 21
17.39556934512391
 31
0.0
1001
ACAD
1010
0.0
1020
0.0
1030
0.0
  0
LINE
  5
19805
330
2
100
AcDbEntity
  8
HATCH
 62
     1
100
AcDbLine
 10
6.434553387674353
 20
17.69122290349878
 30
0.0
 11
6.504571919661643
 21
17.71810049971468
 31
0.0
1001
ACAD
1010
0.0
1020
0.0
1030
0.0
  0
LINE
  5
19806
330
2
100
AcDbEntity
  8
HATCH
 62
     1
100
AcDbLine
 10
7.274775771521835
 20
18.01375405808955
 30
0.0
 11
7.344794303509124
 21
18.04063165430545
 31
0.0
1001
ACAD
1010
0.0
1020
0.0
1030
0.0
  0
LINE
  5
19807
330
2
100
AcDbEntity
  8
HATCH
 62
     1
100
AcDbLine
 10
8.114998155369317
 20
18.33628521268032
 30
0.0
 11
8.185016687356608
 21
18.36316280889622
 31
0.0
1001
ACAD
1010
0.0
1020
0.0
1030
0.0
  0
LINE
  5
19808
330
2
100
AcDbEntity
  8
HATCH
 62
     1
100
AcDbLine
 10
9.552127591335246
 20
18.25619747660575
 30
0.0
 11
9.622146123322536
 21
18.28307507282165
 31
0.0
1001
ACAD
1010
0.0
1020
0.0
1030
0.0
  0
LINE
  5
19809
330
2
100
AcDbEntity
  8
HATCH
 62
     1
100
AcDbLine
 10
9.552127605011675
 20
18.25619747217625
 30
0.0
 11
9.59507392626264
 21
18.22722981272542
 31
0.0
1001
ACAD
1010
0.0
1020
0.0
1030
0.0
  0
LINE
  5
1980A
330
2
100
AcDbEntity
  8
HATCH
 62
     1
100
AcDbLine
 10
8.114998168610831
 20
18.33628520812727
 30
0.0
 11
8.164740422964136
 21
18.30273363391902
 31
0.0
1001
ACAD
1010
0.0
1020
0.0
1030
0.0
  0
LINE
  5
1980B
330
2
100
AcDbEntity
  8
HATCH
 62
     1
100
AcDbLine
 10
7.274775784449619
 20
18.01375405357935
 30
0.0
 11
7.324518038802922
 21
17.98020247937111
 31
0.0
1001
ACAD
1010
0.0
1020
0.0
1030
0.0
  0
LINE
  5
1980C
330
2
100
AcDbEntity
  8
HATCH
 62
     1
100
AcDbLine
 10
6.434553400288407
 20
17.69122289903144
 30
0.0
 11
6.484295654641706
 21
17.65767132482319
 31
0.0
1001
ACAD
1010
0.0
1020
0.0
1030
0.0
  0
LINE
  5
1980D
330
2
100
AcDbEntity
  8
HATCH
 62
     1
100
AcDbLine
 10
5.594331016127197
 20
17.36869174448353
 30
0.0
 11
5.621045438594919
 21
17.35067263900652
 31
0.0
1001
ACAD
1010
0.0
1020
0.0
1030
0.0
  0
LINE
  5
1980E
330
2
100
AcDbEntity
  8
HATCH
 62
     1
100
AcDbLine
 10
4.157201579726355
 20
17.44877948043455
 30
0.0
 11
4.206943834079656
 21
17.4152279062263
 31
0.0
1001
ACAD
1010
0.0
1020
0.0
1030
0.0
  0
LINE
  5
1980F
330
2
100
AcDbEntity
  8
HATCH
 62
     1
100
AcDbLine
 10
3.31697919556514
 20
17.12624832588663
 30
0.0
 11
3.366721449918443
 21
17.09269675167839
 31
0.0
1001
ACAD
1010
0.0
1020
0.0
1030
0.0
  0
LINE
  5
19810
330
2
100
AcDbEntity
  8
HATCH
 62
     1
100
AcDbLine
 10
2.476756811403931
 20
16.80371717133872
 30
0.0
 11
2.526499065757233
 21
16.77016559713047
 31
0.0
1001
ACAD
1010
0.0
1020
0.0
1030
0.0
  0
LINE
  5
19811
330
2
100
AcDbEntity
  8
HATCH
 62
     1
100
AcDbLine
 10
2.526514446298292
 20
16.77014539652724
 30
0.0
 11
2.546790770494845
 21
16.83057454924604
 31
0.0
1001
ACAD
1010
0.0
1020
0.0
1030
0.0
  0
LINE
  5
19812
330
2
100
AcDbEntity
  8
HATCH
 62
     1
100
AcDbLine
 10
3.366737074879786
 20
17.09267589323719
 30
0.0
 11
3.387013399076337
 21
17.15310504595599
 31
0.0
1001
ACAD
1010
0.0
1020
0.0
1030
0.0
  0
LINE
  5
19813
330
2
100
AcDbEntity
  8
HATCH
 62
     1
100
AcDbLine
 10
4.206959703461271
 20
17.41520638994714
 30
0.0
 11
4.227236027657823
 21
17.47563554266594
 31
0.0
1001
ACAD
1010
0.0
1020
0.0
1030
0.0
  0
LINE
  5
19814
330
2
100
AcDbEntity
  8
HATCH
 62
     1
100
AcDbLine
 10
5.651643039487978
 20
17.35763050502967
 30
0.0
 11
5.664365387463776
 21
17.39554668260302
 31
0.0
1001
ACAD
1010
0.0
1020
0.0
1030
0.0
  0
LINE
  5
19815
330
2
100
AcDbEntity
  8
HATCH
 62
     1
100
AcDbLine
 10
6.484311691848717
 20
17.65764802659417
 30
0.0
 11
6.50458801604527
 21
17.71807717931298
 31
0.0
1001
ACAD
1010
0.0
1020
0.0
1030
0.0
  0
LINE
  5
19816
330
2
100
AcDbEntity
  8
HATCH
 62
     1
100
AcDbLine
 10
7.324534320430207
 20
17.98017852330412
 30
0.0
 11
7.344810644626758
 21
18.04060767602293
 31
0.0
1001
ACAD
1010
0.0
1020
0.0
1030
0.0
  0
LINE
  5
19817
330
2
100
AcDbEntity
  8
HATCH
 62
     1
100
AcDbLine
 10
8.164756949011698
 20
18.30270902001408
 30
0.0
 11
8.185033273208251
 21
18.36313817273287
 31
0.0
1001
ACAD
1010
0.0
1020
0.0
1030
0.0
  0
LINE
  5
19818
330
2
100
AcDbEntity
  8
HATCH
 62
     1
100
AcDbLine
 10
9.604078694720644
 20
18.22915408697197
 30
0.0
 11
9.6221626330142
 21
18.28304931266995
 31
0.0
1001
ACAD
1010
0.0
1020
0.0
1030
0.0
  0
VIEWPORT
  5
5D
102
{ACAD_XDICTIONARY
360
198DF
102
}
330
D
100
AcDbEntity
 67
     1
  8
0
100
AcDbViewport
 10
3.88251290151722
 20
5.102795993105661
 30
0.0
 40
24.45477509986057
 41
10.28546948340247
 68
     1
 69
     1
 12
3.88251290151722
 22
5.102795993105661
 13
0.0
 23
0.0
 14
0.5
 24
0.5
 15
0.5
 25
0.5
 16
0.0
 26
0.0
 36
1.0
 17
0.0
 27
0.0
 37
0.0
 42
50.0
 43
0.0
 44
0.0
 45
10.28546948340247
 50
0.0
 51
0.0
 72
   100
 90
    32800
  1

281
     0
 71
     1
 74
     0
110
0.0
120
0.0
130
0.0
111
1.0
121
0.0
131
0.0
112
0.0
122
1.0
132
0.0
 79
     0
146
0.0
  0
ENDSEC
  0
SECTION
  2
OBJECTS
  0
DICTIONARY
  5
7
330
0
100
AcDbDictionary
281
     1
  3
ACAD_CIP_PREVIOUS_PRODUCT_INFO
350
194FB
  3
ACAD_COLOR
350
885
  3
ACAD_FIELDLIST
350
1393
  3
ACAD_GROUP
350
24
  3
ACAD_LAYOUT
350
C
  3
ACAD_MATERIAL
350
884
  3
ACAD_MLEADERSTYLE
350
18015
  3
ACAD_MLINESTYLE
350
25
  3
ACAD_PLOTSETTINGS
350
26
  3
ACAD_PLOTSTYLENAME
350
6
  3
ACAD_SCALELIST
350
18003
  3
ACAD_TABLESTYLE
350
886
  3
ACAD_VISUALSTYLE
350
10B2
  3
AcadDim
350
17473
  3
ACDB_RECOMPOSE_DATA
350
198DB
  3
AcDbVariableDictionary
350
3AC
  3
AEC_CLASSIFICATION_SYSTEM_DEFS
350
A2E
  3
ASE_INDEX_DICTIONARY
350
1053
  3
DWGPROPS
350
198DC
  0
DICTIONARY
  5
139C
330
1A
100
AcDbDictionary
280
     1
281
     1
  0
DICTIONARY
  5
899
330
11
100
AcDbDictionary
280
     1
281
     1
  3
ACAD_LAYERFILTERS
360
1092
  3
ACAD_LAYERSTATES
360
89A
  3
ACLYDICTIONARY
360
1091
  0
DICTIONARY
  5
194BF
330
4
100
AcDbDictionary
280
     1
281
     1
  3
ADSK_XREC_LAYER_RECONCILED
360
194C0
  0
DICTIONARY
  5
1A62
330
1A61
100
AcDbDictionary
280
     1
281
     1
  3
ADSK_XREC_LAYER_RECONCILED
360
1A63
  0
DICTIONARY
  5
1A7A
330
1A79
100
AcDbDictionary
280
     1
281
     1
  3
ADSK_XREC_LAYER_RECONCILED
360
1A7B
  0
DICTIONARY
  5
1A7D
330
1A7C
100
AcDbDictionary
280
     1
281
     1
  3
ADSK_XREC_LAYER_RECONCILED
360
1A7E
  0
DICTIONARY
  5
1A80
330
1A7F
100
AcDbDictionary
280
     1
281
     1
  3
ADSK_XREC_LAYER_RECONCILED
360
1A81
  0
DICTIONARY
  5
1A92
330
1A91
100
AcDbDictionary
280
     1
281
     1
  3
ADSK_XREC_LAYER_RECONCILED
360
1A93
  0
DICTIONARY
  5
17B05
330
2
100
AcDbDictionary
280
     1
281
     1
  3
ACAD_SORTENTS
360
17B06
  0
DICTIONARY
  5
1D72
330
D
100
AcDbDictionary
280
     1
281
     1
  3
ACAD_SORTENTS
360
1D73
  0
DICTIONARY
  5
198DF
330
5D
100
AcDbDictionary
280
     1
281
     1
  3
ACAD_XREC_ROUNDTRIP
360
198E0
  0
XRECORD
  5
194FB
102
{ACAD_REACTORS
330
7
102
}
330
7
100
AcDbXrecord
280
     1
300
ACD
300
2012
300
ACD_F_S
  0
DICTIONARY
  5
885
102
{ACAD_REACTORS
330
7
102
}
330
7
100
AcDbDictionary
281
     1
  0
FIELDLIST
  5
1393
102
{ACAD_REACTORS
330
7
102
}
330
7
100
AcDbIdSet
 90
        0
100
AcDbFieldList
  0
DICTIONARY
  5
24
102
{ACAD_REACTORS
330
7
102
}
330
7
100
AcDbDictionary
281
     1
  3
*A1
350
27C
  3
*A2
350
27D
  3
*A3
350
398
  3
*A4
350
399
  0
DICTIONARY
  5
C
102
{ACAD_REACTORS
330
7
102
}
330
7
100
AcDbDictionary
281
     1
  3
Layout1
350
10
  3
Model
350
B
  0
DICTIONARY
  5
884
102
{ACAD_REACTORS
330
7
102
}
330
7
100
AcDbDictionary
281
     1
  3
ByBlock
350
10B0
  3
ByLayer
350
10AF
  3
Global
350
10B1
  0
DICTIONARY
  5
18015
102
{ACAD_REACTORS
330
7
102
}
330
7
100
AcDbDictionary
281
     1
  3
Standard
350
18016
  0
DICTIONARY
  5
25
102
{ACAD_REACTORS
330
7
102
}
330
7
100
AcDbDictionary
281
     1
  3
STANDARD
350
28
  0
DICTIONARY
  5
26
102
{ACAD_REACTORS
330
7
102
}
330
7
100
AcDbDictionary
281
     1
  3
3010
350
1A21
  3
5000N
350
1A1F
  3
Minolta
350
1A22
  3
PDF
350
1A20
  0
ACDBDICTIONARYWDFLT
  5
6
102
{ACAD_REACTORS
330
7
102
}
330
7
100
AcDbDictionary
281
     1
  3
Normal
350
5
100
AcDbDictionaryWithDefault
340
5
  0
DICTIONARY
  5
18003
102
{ACAD_REACTORS
330
7
102
}
330
7
100
AcDbDictionary
281
     1
  3
A0
350
18004
  3
A1
350
18005
  3
A2
350
18006
  3
A3
350
18007
  3
A4
350
18008
  3
A5
350
18009
  3
A6
350
1800A
  3
A7
350
1800B
  3
A8
350
1800C
  3
A9
350
1800D
  3
B0
350
1800E
  3
B1
350
1800F
  3
B2
350
18010
  3
B3
350
18011
  3
B4
350
18012
  3
B5
350
18013
  3
B6
350
18014
  0
DICTIONARY
  5
886
102
{ACAD_REACTORS
330
7
102
}
330
7
100
AcDbDictionary
281
     1
  3
Standard
350
887
  0
DICTIONARY
  5
10B2
102
{ACAD_REACTORS
330
7
102
}
330
7
100
AcDbDictionary
281
     1
  3
2dWireframe
350
10B8
  3
3D Hidden
350
1D4F
  3
3dWireframe
350
1D50
  3
Basic
350
10B7
  3
Brighten
350
10BE
  3
ColorChange
350
10C2
  3
Conceptual
350
1D51
  3
Dim
350
10BD
  3
EdgeColorOff
350
18002
  3
Facepattern
350
10C1
  3
Flat
350
10B3
  3
FlatWithEdges
350
10B4
  3
Gouraud
350
10B5
  3
GouraudWithEdges
350
10B6
  3
Hidden
350
17FFA
  3
JitterOff
350
18000
  3
Linepattern
350
10C0
  3
OverhangOff
350
18001
  3
Realistic
350
1D52
  3
Shaded
350
17FFF
  3
Shaded with edges
350
17FFE
  3
Shades of Gray
350
17FFB
  3
Sketchy
350
17FFC
  3
Thicken
350
10BF
  3
Wireframe
350
17FF9
  3
X-Ray
350
17FFD
  0
XRECORD
  5
17473
102
{ACAD_REACTORS
330
7
102
}
330
7
100
AcDbXrecord
280
     1
 90
   990106
  3

 60
     0
 61
     0
 62
     1
 63
     1
 64
     0
 65
     0
 66
     1
 67
     3
 68
     0
 69
     0
 70
     0
 71
     0
 72
     0
 40
0.0
170
     2
340
17E25
  0
XRECORD
  5
198DB
102
{ACAD_REACTORS
330
7
102
}
330
7
100
AcDbXrecord
280
     1
 90
        1
330
887
  0
DICTIONARY
  5
3AC
102
{ACAD_REACTORS
330
7
102
}
330
7
100
AcDbDictionary
281
     1
  3
CANNOSCALE
350
194CC
  3
CMLEADERSTYLE
350
194CA
  3
CTABLESTYLE
350
89F
  3
DIMASSOC
350
3AD
  3
DRAWORDERCTL
350
198D8
  3
INDEXCTL
350
19884
  3
LAYEREVAL
350
194CE
  3
LAYERNOTIFY
350
194CF
  3
LIGHTINGUNITS
350
194CD
  3
MSLTSCALE
350
194CB
  3
SORTENTS
350
19883
  3
UPDATETHUMBNAIL
350
1951F
  3
XCLIPFRAME
350
198D9
  0
DICTIONARY
  5
A2E
102
{ACAD_REACTORS
330
7
102
}
330
7
100
AcDbDictionary
281
     1
  0
DICTIONARY
  5
1053
102
{ACAD_REACTORS
330
7
102
}
330
7
100
AcDbDictionary
281
     1
  3
ASEBlockHierarchyIndexRecord
350
1054
1001
DCO15
1040
1542711923.111
  0
XRECORD
  5
198DC
102
{ACAD_REACTORS
330
7
102
}
330
7
100
AcDbXrecord
280
     1
  1
DWGPROPS COOKIE
  2

  3

  4

  6

  7

  8
afrazier
  9

300
=
301
=
302
=
303
=
304
=
305
=
306
=
307
=
308
=
309
=
 40
0.6179327083333334
 41
2451225.386950695
 42
2456169.517058218
  1

 90
        0
  0
DICTIONARY
  5
1092
102
{ACAD_REACTORS
330
899
102
}
330
899
100
AcDbDictionary
281
     1
  0
DICTIONARY
  5
89A
102
{ACAD_REACTORS
330
899
102
}
330
899
100
AcDbDictionary
281
     1
  3
_LAYISO_STATE
350
17B22
1001
AcLayerTools
1000
B
1000
0
  0
DICTIONARY
  5
1091
102
{ACAD_REACTORS
330
899
102
}
330
899
100
AcDbDictionary
281
     1
1001
ACAD
1000
<All
  0
XRECORD
  5
194C0
102
{ACAD_REACTORS
330
194BF
102
}
330
194BF
100
AcDbXrecord
280
     1
290
     1
  0
XRECORD
  5
1A63
102
{ACAD_REACTORS
330
1A62
102
}
330
1A62
100
AcDbXrecord
280
     1
290
     1
  0
XRECORD
  5
1A7B
102
{ACAD_REACTORS
330
1A7A
102
}
330
1A7A
100
AcDbXrecord
280
     1
290
     1
  0
XRECORD
  5
1A7E
102
{ACAD_REACTORS
330
1A7D
102
}
330
1A7D
100
AcDbXrecord
280
     1
290
     1
  0
XRECORD
  5
1A81
102
{ACAD_REACTORS
330
1A80
102
}
330
1A80
100
AcDbXrecord
280
     1
290
     1
  0
XRECORD
  5
1A93
102
{ACAD_REACTORS
330
1A92
102
}
330
1A92
100
AcDbXrecord
280
     1
290
     1
  0
SORTENTSTABLE
  5
17B06
102
{ACAD_REACTORS
330
17B05
102
}
330
17B05
100
AcDbSortentsTable
330
2
331
17FD7
  5
19852
331
195E6
  5
19746
331
196AD
  5
196DF
331
17FD3
  5
1984E
331
195E2
  5
19742
331
195DE
  5
197DB
331
195AE
  5
1980A
331
196A9
  5
196E4
331
17FCF
  5
1984A
331
195DA
  5
197E1
331
17FCB
  5
19846
331
195AA
  5
1980E
331
19619
  5
19779
331
196A5
  5
196E9
331
196E4
  5
1961A
331
196E0
  5
19616
331
17D2E
  5
196FD
331
17CB4
  5
19662
331
196A1
  5
196EE
331
17CB0
  5
1965E
331
17CEF
  5
1969D
331
17D2A
  5
196F9
331
17CAC
  5
1965A
331
17CEB
  5
19699
331
17D26
  5
196F5
331
17CA8
  5
195F5
331
19726
  5
195F8
331
19814
  5
17CDC
331
1979C
  5
195A3
331
19722
  5
19658
331
19810
  5
17CD8
331
1980C
  5
17CD4
331
1975D
  5
17FB6
331
19798
  5
1959F
331
197D7
  5
195DE
331
1971E
  5
19654
331
19808
  5
17CD0
331
1971A
  5
19650
331
19759
  5
17FB2
331
19794
  5
17FED
331
197D3
  5
195DA
331
19790
  5
17FE9
331
195D6
  5
197DD
331
17FC7
  5
19842
331
195A6
  5
19812
331
19615
  5
19775
331
19611
  5
19771
331
195D2
  5
197E3
331
1969D
  5
19705
331
196DC
  5
19612
331
17FC3
  5
1983E
331
195A2
  5
1986F
331
195CE
  5
197EA
331
1960D
  5
1976D
331
19699
  5
19709
331
196D8
  5
1960E
331
17FBF
  5
1983A
331
17FBB
  5
19836
331
195CA
  5
197EE
331
19609
  5
19769
331
19695
  5
1970F
331
17CE7
  5
19695
331
196D4
  5
1960A
331
196D0
  5
19606
331
17CE3
  5
19691
331
17CA4
  5
195E6
331
19691
  5
19715
331
17CDF
  5
1968D
331
17D1A
  5
196DD
331
17CA0
  5
195E2
331
17CDB
  5
19689
331
17D12
  5
196CC
331
19804
  5
17CCC
331
197CF
  5
195D6
331
19716
  5
1964C
331
19755
  5
17FAE
331
19800
  5
17CC8
331
197CB
  5
195D2
331
19712
  5
19648
331
19751
  5
17FAA
331
1978C
  5
17FE5
331
197FC
  5
17CC4
331
1974D
  5
17FA6
331
19788
  5
17FE1
331
197C7
  5
195CE
331
1970E
  5
19644
331
197F8
  5
17CC0
331
1970A
  5
19640
331
19749
  5
17FA2
331
19784
  5
17FDD
331
197C3
  5
195CA
331
19780
  5
17FD9
331
17FB7
  5
19832
331
195C6
  5
197F0
331
19605
  5
19765
331
19601
  5
19761
331
1968D
  5
1971B
331
196CC
  5
196BA
331
17FB3
  5
1982E
331
195C2
  5
197F2
331
195FD
  5
1975D
331
17FEE
  5
19869
331
19689
  5
19721
331
196C8
  5
196BE
331
17FAF
  5
1982A
331
195BE
  5
197F8
331
195BA
  5
197FC
331
17FAB
  5
19826
331
17FEA
  5
19865
331
19685
  5
19727
331
195F9
  5
19759
331
17CD7
  5
19685
331
196C0
  5
196CA
331
19681
  5
1972D
331
17D0E
  5
196C5
331
17CD3
  5
19681
331
17CCF
  5
1967D
331
17CCB
  5
19679
331
17D06
  5
196B4
331
17D45
  5
19726
331
17D41
  5
1971F
331
17D02
  5
196B0
331
197F4
  5
17CBC
331
19706
  5
1963C
331
19745
  5
17F9E
331
197BF
  5
195C6
331
197F0
  5
17CB8
331
197BB
  5
195C2
331
19702
  5
19638
331
19741
  5
17F9A
331
1977C
  5
17FD5
331
1973D
  5
17DEF
331
19778
  5
17FD1
331
197B7
  5
195BE
331
196FE
  5
19634
331
197EC
  5
17CB4
331
197E8
  5
17CB0
331
19739
  5
195F1
331
19774
  5
17FCD
331
197B3
  5
195BA
331
196FA
  5
19630
331
19770
  5
17FC9
331
195B6
  5
19801
331
17FA7
  5
19822
331
17FE6
  5
19861
331
195F5
  5
19755
331
195B2
  5
19806
331
196BC
  5
196D0
331
17FA3
  5
1981E
331
17FE2
  5
1985D
331
1967D
  5
19732
331
195F1
  5
19751
331
17FDE
  5
19859
331
195ED
  5
1974D
331
19679
  5
19737
331
196B8
  5
196D6
331
17F9F
  5
1981A
331
17F9B
  5
19816
331
17FDA
  5
19855
331
195E9
  5
19749
331
19675
  5
1973C
331
17CC7
  5
19675
331
196B4
  5
196DC
331
17CFE
  5
196AC
331
17CC3
  5
19671
331
196B0
  5
196E2
331
17CBF
  5
1966D
331
17CFA
  5
196A8
331
17D39
  5
1970E
331
17CBB
  5
19669
331
17CF6
  5
196A4
331
17D35
  5
19704
331
17D31
  5
19700
331
17CF2
  5
196A0
331
197E4
  5
17CAB
331
196F6
  5
1962C
331
19735
  5
195ED
331
197AF
  5
195B6
331
197E0
  5
17CA5
331
197AB
  5
195B2
331
196F2
  5
19628
331
19731
  5
195E9
331
1976C
  5
17FC5
331
197DC
  5
17CA1
331
19768
  5
17FC1
331
197A7
  5
195AE
331
196EE
  5
19624
331
1972D
  5
195FF
331
197D8
  5
17C9B
331
19729
  5
195FB
331
19764
  5
17FBD
331
197A3
  5
195AA
331
196EA
  5
19620
331
19760
  5
17FB9
331
17FD6
  5
19851
331
195E5
  5
19745
331
196AC
  5
196E7
331
17FD2
  5
1984D
331
195E1
  5
19741
331
195DD
  5
197DA
331
17FCE
  5
19849
331
195AD
  5
19809
331
1961C
  5
1977C
331
196A8
  5
196EC
331
196E7
  5
1961D
331
195D9
  5
197E0
331
17FCA
  5
19845
331
195A9
  5
1980D
331
19618
  5
19778
331
17CB7
  5
19665
331
196A4
  5
196F1
331
196E3
  5
19619
331
17D2D
  5
196FC
331
17CB3
  5
19661
331
196A0
  5
19708
331
17CAF
  5
1965D
331
17CEE
  5
1969C
331
17D29
  5
196F8
331
17CEA
  5
19698
331
17D25
  5
196F4
331
17E48
  5
197D6
331
17D21
  5
196ED
331
19817
  5
17CDF
331
19725
  5
195F7
331
19813
  5
17CDB
331
1979F
  5
195A6
331
1979B
  5
195A2
331
19721
  5
19657
331
1980F
  5
17CD7
331
1980B
  5
17CD3
331
1975C
  5
17FB5
331
19797
  5
19504
331
197D6
  5
195DD
331
1971D
  5
19653
331
19719
  5
1964F
331
19758
  5
17FB1
331
19793
  5
17FEC
331
197D2
  5
195D9
331
195D5
  5
197E6
331
196DF
  5
19615
331
17FC6
  5
19841
331
195A5
  5
19811
331
19614
  5
19774
331
19610
  5
19770
331
195A1
  5
1986E
331
1969C
  5
1970C
331
196DB
  5
19611
331
17FC2
  5
1983D
331
195D1
  5
197E2
331
195CD
  5
197E9
331
1960C
  5
1976C
331
19698
  5
19712
331
196D7
  5
1960D
331
17FBE
  5
19839
331
17FBA
  5
19835
331
195C9
  5
197ED
331
19608
  5
19768
331
19694
  5
19718
331
17CA7
  5
195F4
331
17CE6
  5
19694
331
196D3
  5
19609
331
17CE2
  5
19690
331
17D1D
  5
196E3
331
17CA3
  5
195E5
331
19690
  5
1971E
331
17C9F
  5
195E1
331
17CDE
  5
1968C
331
17DE8
  5
197D7
331
17C9B
  5
17D4F
331
17CDA
  5
19688
331
17D15
  5
196D2
331
17DD4
  5
197D5
331
17D11
  5
196CB
331
19807
  5
17CCF
331
19803
  5
17CCB
331
197CE
  5
195D5
331
19715
  5
1964B
331
19754
  5
17FAD
331
1978F
  5
17FE8
331
197FF
  5
17CC7
331
1978B
  5
17FE4
331
197CA
  5
195D1
331
19711
  5
19647
331
19750
  5
17FA9
331
197FB
  5
17CC3
331
1974C
  5
17FA5
331
19787
  5
17FE0
331
197C6
  5
195CD
331
1970D
  5
19643
331
19709
  5
1963F
331
19748
  5
17FA1
331
19783
  5
17FDC
331
197C2
  5
195C9
331
196CF
  5
19605
331
17FB6
  5
19831
331
195C5
  5
197F5
331
19604
  5
19764
331
19600
  5
19760
331
1968C
  5
19724
331
196CB
  5
196B9
331
17FB2
  5
1982D
331
195C1
  5
197F7
331
195BD
  5
197FB
331
17FED
  5
19868
331
195FC
  5
1975C
331
19688
  5
1972A
331
196C7
  5
196BD
331
17FAE
  5
19829
331
195B9
  5
197FF
331
17FAA
  5
19825
331
17FE9
  5
19864
331
19684
  5
19730
331
195F8
  5
19758
331
17CD6
  5
19684
331
17CD2
  5
19680
331
17D4C
  5
19736
331
19680
  5
19735
331
17CCE
  5
1967C
331
17D48
  5
1972C
331
17CCA
  5
19678
331
17D05
  5
196B3
331
17D44
  5
19725
331
17D01
  5
196AF
331
197F7
  5
17CBF
331
197F3
  5
17CBB
331
197BE
  5
195C5
331
19705
  5
1963B
331
19744
  5
17F9D
331
1977F
  5
17FD8
331
197EF
  5
17CB7
331
197BA
  5
195C1
331
19701
  5
19637
331
19740
  5
17F99
331
1977B
  5
17FD4
331
197EB
  5
17CB3
331
1973C
  5
17DD5
331
19777
  5
17FD0
331
197B6
  5
195BD
331
196FD
  5
19633
331
196F9
  5
1962F
331
19738
  5
195F0
331
19773
  5
17FCC
331
197B2
  5
195B9
331
195B5
  5
19800
331
196BF
  5
196C9
331
17FA6
  5
19821
331
17FE5
  5
19860
331
195F4
  5
19754
331
195F0
  5
19750
331
195B1
  5
19805
331
1967C
  5
1973A
331
196BB
  5
196CF
331
17FA2
  5
1981D
331
17FE1
  5
1985C
331
17FDD
  5
19858
331
195EC
  5
1974C
331
19678
  5
1973F
331
196B7
  5
196D5
331
17F9E
  5
19819
331
17F9A
  5
19815
331
17FD9
  5
19854
331
195E8
  5
19748
331
17CC6
  5
19674
331
196B3
  5
196DB
331
17CFD
  5
196AB
331
17D3C
  5
19714
331
17CC2
  5
19670
331
17CBE
  5
1966C
331
17CF9
  5
196A7
331
17D38
  5
1970D
331
17CBA
  5
19668
331
17CF5
  5
196A3
331
17D34
  5
19703
331
17D30
  5
196FF
331
17CF1
  5
1969F
331
197E7
  5
17CAF
331
197E3
  5
17CA9
331
196F5
  5
1962B
331
19734
  5
195EC
331
1976F
  5
17FC8
331
197AE
  5
195B5
331
197DF
  5
17CA4
331
197AA
  5
195B1
331
196F1
  5
19627
331
19730
  5
195E8
331
1976B
  5
17FC4
331
1972C
  5
195FE
331
19767
  5
17FC0
331
197A6
  5
195AD
331
196ED
  5
19623
331
197DB
  5
17CA0
331
19728
  5
195FA
331
19763
  5
17FBC
331
197A2
  5
195A9
331
196E9
  5
1961F
331
196AF
  5
196E1
331
17FD5
  5
19850
331
195E4
  5
19744
331
196AB
  5
196E6
331
17FD1
  5
1984C
331
195E0
  5
19740
331
195DC
  5
197D9
331
17FCD
  5
19848
331
195AC
  5
1980C
331
1961B
  5
1977B
331
196A7
  5
196EB
331
196E6
  5
1961C
331
195D8
  5
197DF
331
196E2
  5
19618
331
17FC9
  5
19844
331
195A8
  5
19810
331
17CB6
  5
19664
331
196A3
  5
196F0
331
17D2C
  5
196FB
331
17CB2
  5
19660
331
17CAE
  5
1965C
331
17CED
  5
1969B
331
17D28
  5
196F7
331
17CAA
  5
19602
331
17CE9
  5
19697
331
17D24
  5
196F3
331
19816
  5
17CDE
331
19724
  5
195F6
331
19812
  5
17CDA
331
1979E
  5
195A5
331
1975F
  5
17FB8
331
1979A
  5
195A1
331
19720
  5
19656
331
1980E
  5
17CD6
331
1980A
  5
17CD2
331
1975B
  5
17FB4
331
19796
  5
19503
331
197D5
  5
195DC
331
1971C
  5
19652
331
19718
  5
1964E
331
19792
  5
17FEB
331
197D1
  5
195D8
331
19617
  5
19777
331
195D4
  5
197E5
331
196DE
  5
19614
331
17FC5
  5
19840
331
195A4
  5
1986B
331
19613
  5
19773
331
1969F
  5
19707
331
1960F
  5
1976F
331
195A0
  5
1986D
331
1969B
  5
1970B
331
196DA
  5
19610
331
17FC1
  5
1983C
331
195D0
  5
197EC
331
17FBD
  5
19838
331
195CC
  5
197E8
331
1960B
  5
1976B
331
19697
  5
19711
331
196D6
  5
1960C
331
17FB9
  5
19834
331
195C8
  5
197EF
331
19693
  5
19717
331
17CE5
  5
19693
331
196D2
  5
19608
331
17CE1
  5
1968F
331
17CA2
  5
195E4
331
17C9E
  5
195E0
331
17CDD
  5
1968B
331
17D18
  5
196D8
331
17CD9
  5
19687
331
17D14
  5
196D1
331
19806
  5
17CCE
331
19757
  5
17FB0
331
19802
  5
17CCA
331
197CD
  5
195D4
331
19714
  5
1964A
331
19753
  5
17FAC
331
1978E
  5
17FE7
331
197FE
  5
17CC6
331
1978A
  5
17FE3
331
197C9
  5
195D0
331
19710
  5
19646
331
1974F
  5
17FA8
331
197FA
  5
17CC2
331
1974B
  5
17FA4
331
19786
  5
17FDF
331
197C5
  5
195CC
331
1970C
  5
19642
331
19708
  5
1963E
331
19782
  5
17FDB
331
197C1
  5
195C8
331
19607
  5
19767
331
195C4
  5
197F4
331
196CE
  5
19604
331
17FB5
  5
19830
331
19504
  5
19871
331
1968F
  5
1971D
331
19603
  5
19763
331
195FF
  5
1975F
331
1968B
  5
19723
331
196CA
  5
196B8
331
17FB1
  5
1982C
331
195C0
  5
197F6
331
195BC
  5
197FA
331
17FEC
  5
19867
331
195FB
  5
1975B
331
19687
  5
19729
331
196C6
  5
196BC
331
17FAD
  5
19828
331
195B8
  5
197FE
331
17FA9
  5
19824
331
17FE8
  5
19863
331
19683
  5
1972F
331
17CD5
  5
19683
331
17CD1
  5
1967F
331
17D0C
  5
196C0
331
17CCD
  5
1967B
331
17D08
  5
196B6
331
17D47
  5
1972B
331
17CC9
  5
19677
331
17D04
  5
196B2
331
17D00
  5
196AE
331
197F6
  5
17CBE
331
19747
  5
17FA0
331
197F2
  5
17CBA
331
197BD
  5
195C4
331
19704
  5
1963A
331
19743
  5
17F9C
331
1977E
  5
17FD7
331
197EE
  5
17CB6
331
1977A
  5
17FD3
331
197B9
  5
195C0
331
19700
  5
19636
331
1973F
  5
17F98
331
197EA
  5
17CB2
331
1973B
  5
195F3
331
19776
  5
17FCF
331
197B5
  5
195BC
331
196FC
  5
19632
331
196F8
  5
1962E
331
19772
  5
17FCB
331
197B1
  5
195B8
331
195F7
  5
19757
331
195B4
  5
19804
331
196BE
  5
196C8
331
17FA5
  5
19820
331
17FE4
  5
1985F
331
1967F
  5
19734
331
195F3
  5
19753
331
195EF
  5
1974F
331
195B0
  5
19808
331
1967B
  5
19739
331
196BA
  5
196CE
331
17FA1
  5
1981C
331
17FE0
  5
1985B
331
17FDC
  5
19857
331
195EB
  5
1974B
331
19677
  5
1973E
331
196B6
  5
196D4
331
17F9D
  5
19818
331
17F99
  5
19814
331
17FD8
  5
19853
331
17D3F
  5
1971A
331
17CC5
  5
19673
331
196B2
  5
196DA
331
17CC1
  5
1966F
331
17CFC
  5
196AA
331
17D3B
  5
19713
331
17CBD
  5
1966B
331
17CF8
  5
196A6
331
17CB9
  5
19667
331
17CF4
  5
196A2
331
17D33
  5
19702
331
17CF0
  5
1969E
331
197E6
  5
17CAE
331
19737
  5
195EF
331
197E2
  5
17CA8
331
197AD
  5
195B4
331
196F4
  5
1962A
331
19733
  5
195EB
331
1976E
  5
17FC7
331
197DE
  5
17CA3
331
197A9
  5
195B0
331
196F0
  5
19626
331
1972F
  5
19601
331
1976A
  5
17FC3
331
197DA
  5
17C9E
331
1972B
  5
195FD
331
19766
  5
17FBF
331
197A5
  5
195AC
331
196EC
  5
19622
331
196E8
  5
1961E
331
19762
  5
17FBB
331
197A1
  5
195A8
331
195E7
  5
19747
331
196AE
  5
196E0
331
17FD4
  5
1984F
331
195E3
  5
19743
331
195DF
  5
197DC
331
195AF
  5
19807
331
196AA
  5
196E5
331
17FD0
  5
1984B
331
195DB
  5
197D8
331
17FCC
  5
19847
331
195AB
  5
1980B
331
1961A
  5
1977A
331
196A6
  5
196EA
331
196E5
  5
1961B
331
196E1
  5
19617
331
17FC8
  5
19843
331
17D2F
  5
196FE
331
17CB5
  5
19663
331
196A2
  5
196EF
331
17D2B
  5
196FA
331
17CB1
  5
1965F
331
17CAD
  5
1965B
331
17CEC
  5
1969A
331
17D27
  5
196F6
331
17CE8
  5
19696
331
17D23
  5
196F2
331
19727
  5
195F9
331
19815
  5
17CDD
331
19723
  5
19659
331
19811
  5
17CD9
331
1979D
  5
195A4
331
1980D
  5
17CD5
331
1975E
  5
17FB7
331
19799
  5
195A0
331
1971F
  5
19655
331
19809
  5
17CD1
331
1971B
  5
19651
331
1975A
  5
17FB3
331
19795
  5
17FEE
331
197D4
  5
195DB
331
19791
  5
17FEA
331
197D0
  5
195D7
331
195D7
  5
197DE
331
195A7
  5
1980F
331
19616
  5
19776
331
19612
  5
19772
331
195D3
  5
197E4
331
1969E
  5
19706
331
196DD
  5
19613
331
17FC4
  5
1983F
331
195A3
  5
1986A
331
1960E
  5
1976E
331
1959F
  5
1986C
331
1969A
  5
1970A
331
196D9
  5
1960F
331
17FC0
  5
1983B
331
195CF
  5
197EB
331
17FBC
  5
19837
331
195CB
  5
197E7
331
1960A
  5
1976A
331
19696
  5
19710
331
196D5
  5
1960B
331
196D1
  5
19607
331
17FB8
  5
19833
331
19692
  5
19716
331
17D1F
  5
196E8
331
17CA5
  5
195E7
331
17CE4
  5
19692
331
17CE0
  5
1968E
331
17D1B
  5
196DE
331
17CA1
  5
195E3
331
17C9D
  5
195DF
331
17CDC
  5
1968A
331
17D17
  5
196D7
331
17CD8
  5
19686
331
19805
  5
17CCD
331
19717
  5
1964D
331
19756
  5
17FAF
331
19801
  5
17CC9
331
197CC
  5
195D3
331
19713
  5
19649
331
19752
  5
17FAB
331
1978D
  5
17FE6
331
1974E
  5
17FA7
331
19789
  5
17FE2
331
197C8
  5
195CF
331
1970F
  5
19645
331
197FD
  5
17CC5
331
197F9
  5
17CC1
331
1974A
  5
17FA3
331
19785
  5
17FDE
331
197C4
  5
195CB
331
1970B
  5
19641
331
19781
  5
17FDA
331
197C0
  5
195C7
331
195C7
  5
197F1
331
19606
  5
19766
331
195C3
  5
197F3
331
196CD
  5
19603
331
17FB4
  5
1982F
331
19503
  5
19870
331
1968E
  5
1971C
331
19602
  5
19762
331
195FE
  5
1975E
331
1968A
  5
19722
331
196C9
  5
196B7
331
17FB0
  5
1982B
331
195BF
  5
197F9
331
195BB
  5
197FD
331
17FAC
  5
19827
331
17FEB
  5
19866
331
195FA
  5
1975A
331
19686
  5
19728
331
196C5
  5
196BB
331
17FA8
  5
19823
331
19682
  5
1972E
331
17D0F
  5
196C6
331
17D4E
  5
1973B
331
17CD4
  5
19682
331
17CD0
  5
1967E
331
17D0B
  5
196BF
331
17D4A
  5
19731
331
17CCC
  5
1967A
331
17D07
  5
196B5
331
17D42
  5
19720
331
17CC8
  5
19676
331
17D03
  5
196B1
331
197F5
  5
17CBD
331
19707
  5
1963D
331
19746
  5
17F9F
331
197F1
  5
17CB9
331
197BC
  5
195C3
331
19703
  5
19639
331
19742
  5
17F9B
331
1977D
  5
17FD6
331
197ED
  5
17CB5
331
19779
  5
17FD2
331
197B8
  5
195BF
331
196FF
  5
19635
331
1973E
  5
17DF0
331
197E9
  5
17CB1
331
1973A
  5
195F2
331
19775
  5
17FCE
331
197B4
  5
195BB
331
196FB
  5
19631
331
19771
  5
17FCA
331
197B0
  5
195B7
331
195B7
  5
19802
331
17FE7
  5
19862
331
195F6
  5
19756
331
195B3
  5
19803
331
196BD
  5
196C7
331
17FA4
  5
1981F
331
17FE3
  5
1985E
331
1967E
  5
19733
331
195F2
  5
19752
331
17FDF
  5
1985A
331
195EE
  5
1974E
331
1967A
  5
19738
331
196B9
  5
196CD
331
17FA0
  5
1981B
331
17FDB
  5
19856
331
195EA
  5
1974A
331
19676
  5
1973D
331
196B5
  5
196D3
331
17F9C
  5
19817
331
17F98
  5
19813
331
17D3E
  5
19719
331
17CC4
  5
19672
331
196B1
  5
196D9
331
17CFF
  5
196AD
331
17CC0
  5
1966E
331
17CFB
  5
196A9
331
17CBC
  5
1966A
331
17CF7
  5
196A5
331
17CB8
  5
19666
331
17CF3
  5
196A1
331
17D32
  5
19701
331
197E5
  5
17CAD
331
196F7
  5
1962D
331
19736
  5
195EE
331
197E1
  5
17CA6
331
197AC
  5
195B3
331
196F3
  5
19629
331
19732
  5
195EA
331
1976D
  5
17FC6
331
197DD
  5
17CA2
331
19769
  5
17FC2
331
197A8
  5
195AF
331
196EF
  5
19625
331
1972E
  5
19600
331
197D9
  5
17C9D
331
1972A
  5
195FC
331
19818
  5
17CE0
331
19765
  5
17FBE
331
197A4
  5
195AB
331
196EB
  5
19621
331
19761
  5
17FBA
331
197A0
  5
195A7
  0
SORTENTSTABLE
  5
1D73
102
{ACAD_REACTORS
330
1D72
102
}
330
1D72
100
AcDbSortentsTable
330
D
331
5D
  5
5D
  0
XRECORD
  5
198E0
102
{ACAD_REACTORS
330
198DF
102
}
330
198DF
100
AcDbXrecord
280
     1
102
SHADEPLOT
 70
     0
  0
GROUP
  5
27C
102
{ACAD_REACTORS
330
24
102
}
330
24
100
AcDbGroup
300

 70
     3
 71
     1
  0
GROUP
  5
27D
102
{ACAD_REACTORS
330
24
102
}
330
24
100
AcDbGroup
300

 70
     3
 71
     1
  0
GROUP
  5
398
102
{ACAD_REACTORS
330
24
102
}
330
24
100
AcDbGroup
300

 70
     3
 71
     1
  0
GROUP
  5
399
102
{ACAD_REACTORS
330
24
102
}
330
24
100
AcDbGroup
300

 70
     3
 71
     1
  0
LAYOUT
  5
10
102
{ACAD_XDICTIONARY
360
89C
102
}
102
{ACAD_REACTORS
330
C
102
}
330
C
100
AcDbPlotSettings
  1

  2
HP 5000 N
  4
Letter
  6

 40
5.027082920074462
 41
5.408084392547606
 42
5.365737915039061
 43
5.365753173828125
 44
215.8999938964844
 45
279.3999938964844
 46
4.140880409212495
 47
4.709578165054337
 48
0.0
 49
0.0
140
7.764780009564798
141
10.205
142
1.0
143
1.0
 70
   692
 72
     0
 73
     0
 74
     4
  7
GORDON-BLK.ctb
 75
    16
147
1.0
148
0.0
149
0.0
100
AcDbLayout
  1
Layout1
 70
     1
 71
     1
 10
-0.2079161059762549
 20
-0.2079166691697489
 11
8.291999999999998
 21
10.792
 12
0.0
 22
0.0
 32
0.0
 14
0.0000000000000009
 24
-0.0000000000000004
 34
0.0
 15
7.764780009564798
 25
10.205
 35
0.0
146
0.0
 13
0.0
 23
0.0
 33
0.0
 16
1.0
 26
0.0
 36
0.0
 17
0.0
 27
1.0
 37
0.0
 76
     0
330
D
331
5D
1001
ACAD_PSEXT
1000
HP 5000 N
1000
HP LaserJet 5100 PS
1000
IP_192.168.100.208
1000

1070
     0
  0
LAYOUT
  5
B
102
{ACAD_XDICTIONARY
360
1950E
102
}
102
{ACAD_REACTORS
330
C
102
}
330
C
100
AcDbPlotSettings
  1

  2
HP 1055CM+ Roll.pc3
  4
User257
  6

 40
4.995333194732666
 41
13.2922945022583
 42
4.99530029296875
 43
13.29296875
 44
899.1599731445312
 45
15239.9150390625
 46
0.0
 47
0.0
 48
1.592118068029931
 49
1.083964621542295
140
10.45538313863936
141
6.686027752030966
142
1.0
143
1.0
 70
 11952
 72
     0
 73
     1
 74
     4
  7
5000N-BLACK.ctb
 75
    16
147
1.0
148
-40.4397989279603
149
-27.53270138717434
100
AcDbLayout
  1
Model
 70
     1
 71
     0
 10
0.0
 20
0.0
 11
12.0
 21
9.0
 12
0.0
 22
0.0
 32
0.0
 14
0.0
 24
0.0
 34
0.0
 15
0.0
 25
0.0
 35
0.0
146
0.0
 13
0.0
 23
0.0
 33
0.0
 16
1.0
 26
0.0
 36
0.0
 17
0.0
 27
1.0
 37
0.0
 76
     0
330
2
331
882
  0
MATERIAL
  5
10B0
102
{ACAD_XDICTIONARY
360
19891
102
}
102
{ACAD_REACTORS
330
884
102
}
330
884
100
AcDbMaterial
  1
ByBlock
 73
     1
 78
     1
172
     1
176
     1
270
     1
274
     1
  0
MATERIAL
  5
10AF
102
{ACAD_XDICTIONARY
360
1988F
102
}
102
{ACAD_REACTORS
330
884
102
}
330
884
100
AcDbMaterial
  1
ByLayer
 73
     1
 78
     1
172
     1
176
     1
270
     1
274
     1
  0
MATERIAL
  5
10B1
102
{ACAD_XDICTIONARY
360
19893
102
}
102
{ACAD_REACTORS
330
884
102
}
330
884
100
AcDbMaterial
  1
Global
 73
     1
 78
     1
172
     1
176
     1
270
     1
274
     1
  0
MLEADERSTYLE
  5
18016
102
{ACAD_REACTORS
330
18015
102
}
330
18015
100
AcDbMLeaderStyle
170
     2
171
     1
172
     0
 90
        2
 40
0.0
 41
0.0
173
     1
 91
-1056964608
340
16
 92
       -2
290
     1
 42
0.09
291
     1
 43
0.36
  3
Standard
 44
0.18
300

342
13
174
     1
178
     6
175
     1
176
     0
 93
-1056964608
 45
0.18
292
     0
297
     0
 46
0.18
 94
-1056964608
 47
1.0
 49
1.0
140
1.0
293
     1
141
0.0
294
     1
177
     0
142
1.0
295
     0
296
     0
143
0.125
1001
ACAD_MLEADERVER
1070
     2
  0
MLINESTYLE
  5
28
102
{ACAD_REACTORS
330
25
102
}
330
25
100
AcDbMlineStyle
  2
STANDARD
 70
     0
  3

 62
   256
 51
90.0
 52
90.0
 71
     2
 49
0.5
 62
   256
  6
BYLAYER
 49
-0.5
 62
   256
  6
BYLAYER
  0
PLOTSETTINGS
  5
1A21
102
{ACAD_XDICTIONARY
360
198FE
102
}
102
{ACAD_REACTORS
330
26
102
}
330
26
100
AcDbPlotSettings
  1
3010
  2
\\User-server\3010
  4
Letter
  6

 40
6.000749588012695
 41
6.000745773315428
 42
6.000747680664062
 43
6.000762939453125
 44
215.8999938964844
 45
279.3999938964844
 46
3.336542192430866
 47
4.095742591857943
 48
0.0
 49
0.0
140
10.205
141
7.764780009564798
142
1.0
143
1.0
 70
  2740
 72
     0
 73
     1
 74
     4
  7
GORDON-BLK.ctb
 75
    16
147
1.0
148
0.0
149
0.0
1001
ACAD_PSEXT
1000
\\User-server\3010
1000
KONICA MINOLTA Di3010 PCL6
1000
\\User-server
1000

1070
     0
  0
PLOTSETTINGS
  5
1A1F
102
{ACAD_XDICTIONARY
360
198FA
102
}
102
{ACAD_REACTORS
330
26
102
}
330
26
100
AcDbPlotSettings
  1
5000N
  2
HP 5000 N
  4
Letter
  6

 40
4.233333110809326
 41
4.233341693878172
 42
4.233322143554686
 43
4.23333740234375
 44
215.8999938964844
 45
279.3999938964844
 46
5.103963199587251
 47
5.863157400131249
 48
0.0
 49
0.0
140
10.205
141
7.764780009564798
142
1.0
143
1.0
 70
  2740
 72
     0
 73
     1
 74
     4
  7
GORDON-BLK.ctb
 75
    16
147
1.0
148
0.0
149
0.0
1001
ACAD_PSEXT
1000
HP 5000 N
1000
HP LaserJet 5100 PCL 6
1000
IP_192.168.100.208
1000

1070
     0
  0
PLOTSETTINGS
  5
1A22
102
{ACAD_XDICTIONARY
360
19900
102
}
102
{ACAD_REACTORS
330
26
102
}
330
26
100
AcDbPlotSettings
  1
Minolta
  2
\\User-server\Minolta
  4
Letter
  6

 40
6.085416316986081
 41
6.085421085357666
 42
6.085403442382812
 43
6.085418701171875
 44
215.8999938964844
 45
279.3999938964844
 46
3.251880947084776
 47
4.011077054977445
 48
0.0
 49
0.0
140
10.205
141
7.764780009564798
142
1.0
143
1.0
 70
  2740
 72
     0
 73
     1
 74
     4
  7
GORDON-BLK.ctb
 75
    16
147
1.0
148
0.0
149
0.0
1001
ACAD_PSEXT
1000
\\User-server\Minolta
1000
CopierBW Ver 1.1
1000
\\User-server
1000

1070
     0
  0
PLOTSETTINGS
  5
1A20
102
{ACAD_XDICTIONARY
360
198FC
102
}
102
{ACAD_REACTORS
330
26
102
}
330
26
100
AcDbPlotSettings
  1
PDF
  2
Acrobat PDFWriter
  4
Letter
  6

 40
3.174999952316283
 41
3.174999952316283
 42
3.175003051757812
 43
3.17498779296875
 44
215.8999938964844
 45
279.3999938964844
 46
6.162289324732188
 47
6.921503075599713
 48
0.0
 49
0.0
140
10.205
141
7.764780009564798
142
1.0
143
1.0
 70
  2740
 72
     0
 73
     1
 74
     4
  7
GORDON-BLK.ctb
 75
    16
147
1.0
148
0.0
149
0.0
1001
ACAD_PSEXT
1000
Acrobat PDFWriter
1000
Adobe PDF Converter
1000
My Documents
1000
Creates Adobe PDF
1070
     0
  0
ACDBPLACEHOLDER
  5
5
102
{ACAD_REACTORS
330
6
102
}
330
6
  0
SCALE
  5
18004
102
{ACAD_REACTORS
330
18003
102
}
330
18003
100
AcDbScale
 70
     0
300
1:1
140
1.0
141
1.0
290
     1
  0
SCALE
  5
18005
102
{ACAD_REACTORS
330
18003
102
}
330
18003
100
AcDbScale
 70
     0
300
1/128" = 1'-0"
140
0.0078125
141
12.0
290
     0
  0
SCALE
  5
18006
102
{ACAD_REACTORS
330
18003
102
}
330
18003
100
AcDbScale
 70
     0
300
1/64" = 1'-0"
140
0.015625
141
12.0
290
     0
  0
SCALE
  5
18007
102
{ACAD_REACTORS
330
18003
102
}
330
18003
100
AcDbScale
 70
     0
300
1/32" = 1'-0"
140
0.03125
141
12.0
290
     0
  0
SCALE
  5
18008
102
{ACAD_REACTORS
330
18003
102
}
330
18003
100
AcDbScale
 70
     0
300
1/16" = 1'-0"
140
0.0625
141
12.0
290
     0
  0
SCALE
  5
18009
102
{ACAD_REACTORS
330
18003
102
}
330
18003
100
AcDbScale
 70
     0
300
3/32" = 1'-0"
140
0.09375
141
12.0
290
     0
  0
SCALE
  5
1800A
102
{ACAD_REACTORS
330
18003
102
}
330
18003
100
AcDbScale
 70
     0
300
1/8" = 1'-0"
140
0.125
141
12.0
290
     0
  0
SCALE
  5
1800B
102
{ACAD_REACTORS
330
18003
102
}
330
18003
100
AcDbScale
 70
     0
300
3/16" = 1'-0"
140
0.1875
141
12.0
290
     0
  0
SCALE
  5
1800C
102
{ACAD_REACTORS
330
18003
102
}
330
18003
100
AcDbScale
 70
     0
300
1/4" = 1'-0"
140
0.25
141
12.0
290
     0
  0
SCALE
  5
1800D
102
{ACAD_REACTORS
330
18003
102
}
330
18003
100
AcDbScale
 70
     0
300
3/8" = 1'-0"
140
0.375
141
12.0
290
     0
  0
SCALE
  5
1800E
102
{ACAD_REACTORS
330
18003
102
}
330
18003
100
AcDbScale
 70
     0
300
1/2" = 1'-0"
140
0.5
141
12.0
290
     0
  0
SCALE
  5
1800F
102
{ACAD_REACTORS
330
18003
102
}
330
18003
100
AcDbScale
 70
     0
300
3/4" = 1'-0"
140
0.75
141
12.0
290
     0
  0
SCALE
  5
18010
102
{ACAD_REACTORS
330
18003
102
}
330
18003
100
AcDbScale
 70
     0
300
1" = 1'-0"
140
1.0
141
12.0
290
     0
  0
SCALE
  5
18011
102
{ACAD_REACTORS
330
18003
102
}
330
18003
100
AcDbScale
 70
     0
300
1-1/2" = 1'-0"
140
1.5
141
12.0
290
     0
  0
SCALE
  5
18012
102
{ACAD_REACTORS
330
18003
102
}
330
18003
100
AcDbScale
 70
     0
300
3" = 1'-0"
140
3.0
141
12.0
290
     0
  0
SCALE
  5
18013
102
{ACAD_REACTORS
330
18003
102
}
330
18003
100
AcDbScale
 70
     0
300
6" = 1'-0"
140
6.0
141
12.0
290
     0
  0
SCALE
  5
18014
102
{ACAD_REACTORS
330
18003
102
}
330
18003
100
AcDbScale
 70
     0
300
1'-0" = 1'-0"
140
12.0
141
12.0
290
     0
  0
TABLESTYLE
  5
887
102
{ACAD_XDICTIONARY
360
19886
102
}
102
{ACAD_REACTORS
330
886
102
}
330
886
100
AcDbTableStyle
  3
Standard
 70
     0
 71
     0
 40
0.06
 41
0.06
280
     0
281
     0
  7
STANDARD
140
0.18
170
     2
 62
     0
 63
     7
283
     0
274
    -2
284
     1
 64
     0
275
    -2
285
     1
 65
     0
276
    -2
286
     1
 66
     0
277
    -2
287
     1
 67
     0
278
    -2
288
     1
 68
     0
279
    -2
289
     1
 69
     0
  7
STANDARD
140
0.25
170
     5
 62
     0
 63
     7
283
     0
274
    -2
284
     1
 64
     0
275
    -2
285
     1
 65
     0
276
    -2
286
     1
 66
     0
277
    -2
287
     1
 67
     0
278
    -2
288
     1
 68
     0
279
    -2
289
     1
 69
     0
  7
STANDARD
140
0.18
170
     5
 62
     0
 63
     7
283
     0
274
    -2
284
     1
 64
     0
275
    -2
285
     1
 65
     0
276
    -2
286
     1
 66
     0
277
    -2
287
     1
 67
     0
278
    -2
288
     1
 68
     0
279
    -2
289
     1
 69
     0
  0
VISUALSTYLE
  5
10B8
102
{ACAD_XDICTIONARY
360
198EC
102
}
102
{ACAD_REACTORS
330
10B2
102
}
330
10B2
100
AcDbVisualStyle
  2

 70
     4
 71
     0
 72
     2
 73
     0
 90
        0
 40
-0.6
 41
-30.0
 62
     5
 63
     7
 74
     1
 91
        4
 64
     7
 65
   257
 75
     1
175
     1
 42
1.0
 92
        0
 66
   257
 43
1.0
 76
     1
 77
     6
 78
     2
 67
     7
 79
     5
170
     0
171
     0
290
     0
174
     0
 93
        1
 44
0.0
173
     0
291
     0
 45
0.0
1001
ACAD
1000
AcDbSavedByObjectVersion
1070
     0
  0
VISUALSTYLE
  5
1D4F
102
{ACAD_XDICTIONARY
360
19902
102
}
102
{ACAD_REACTORS
330
10B2
102
}
330
10B2
100
AcDbVisualStyle
  2

 70
     6
 71
     1
 72
     2
 73
     2
 90
        0
 40
-0.6
 41
-30.0
 62
     5
 63
     7
 74
     2
 91
        2
 64
     7
 65
   257
 75
     2
175
     1
 42
40.0
 92
        0
 66
   257
 43
1.0
 76
     1
 77
     6
 78
     2
 67
     7
 79
     3
170
     0
171
     0
290
     0
174
     0
 93
        1
 44
0.0
173
     0
291
     0
 45
0.0
1001
ACAD
1000
AcDbSavedByObjectVersion
1070
     0
  0
VISUALSTYLE
  5
1D50
102
{ACAD_XDICTIONARY
360
19904
102
}
102
{ACAD_REACTORS
330
10B2
102
}
330
10B2
100
AcDbVisualStyle
  2

 70
     5
 71
     0
 72
     2
 73
     0
 90
        0
 40
-0.6
 41
-30.0
 62
     5
 63
     7
 74
     1
 91
        4
 64
     7
 65
   257
 75
     1
175
     1
 42
1.0
 92
        0
 66
   257
 43
1.0
 76
     1
 77
     6
 78
     2
 67
     7
 79
     5
170
     0
171
     0
290
     0
174
     0
 93
        1
 44
0.0
173
     0
291
     0
 45
0.0
1001
ACAD
1000
AcDbSavedByObjectVersion
1070
     0
  0
VISUALSTYLE
  5
10B7
102
{ACAD_XDICTIONARY
360
198EA
102
}
102
{ACAD_REACTORS
330
10B2
102
}
330
10B2
100
AcDbVisualStyle
  2

 70
     7
 71
     1
 72
     0
 73
     1
 90
        0
 40
-0.6
 41
-30.0
 62
     5
 63
     7
 74
     0
 91
        4
 64
     7
 65
   257
 75
     1
175
     1
 42
1.0
 92
        8
 66
     7
 43
1.0
 76
     1
 77
     6
 78
     2
 67
     7
 79
     5
170
     0
171
     0
290
     0
174
     0
 93
        1
 44
0.0
173
     0
291
     1
 45
0.0
1001
ACAD
1000
AcDbSavedByObjectVersion
1070
     0
  0
VISUALSTYLE
  5
10BE
102
{ACAD_XDICTIONARY
360
198F0
102
}
102
{ACAD_REACTORS
330
10B2
102
}
330
10B2
100
AcDbVisualStyle
  2

 70
    12
 71
     2
 72
     2
 73
     0
 90
        0
 40
-0.6
 41
-30.0
 62
     5
 63
     7
 74
     1
 91
        4
 64
     7
 65
   257
 75
     1
175
     1
 42
1.0
 92
        8
 66
     7
 43
1.0
 76
     1
 77
     6
 78
     2
 67
     7
 79
     5
170
     0
171
     0
290
     0
174
     0
 93
        1
 44
50.0
173
     0
291
     1
 45
0.0
1001
ACAD
1000
AcDbSavedByObjectVersion
1070
     0
  0
VISUALSTYLE
  5
10C2
102
{ACAD_XDICTIONARY
360
198F8
102
}
102
{ACAD_REACTORS
330
10B2
102
}
330
10B2
100
AcDbVisualStyle
  2

 70
    16
 71
     2
 72
     2
 73
     3
 90
        0
 40
-0.6
 41
-30.0
 62
     5
 63
     8
 74
     1
 91
        4
 64
     7
 65
   257
 75
     1
175
     1
 42
1.0
 92
        8
 66
     8
 43
1.0
 76
     1
 77
     6
 78
     2
 67
     7
 79
     5
170
     0
171
     0
290
     0
174
     0
 93
        1
 44
0.0
173
     0
291
     1
 45
0.0
1001
ACAD
1000
AcDbSavedByObjectVersion
1070
     0
  0
VISUALSTYLE
  5
1D51
102
{ACAD_XDICTIONARY
360
19906
102
}
102
{ACAD_REACTORS
330
10B2
102
}
330
10B2
100
AcDbVisualStyle
  2

 70
     9
 71
     3
 72
     2
 73
     0
 90
        0
 40
-0.6
 41
-30.0
 62
     5
 63
     7
 74
     2
 91
        2
 64
     7
 65
   257
 75
     1
175
     1
 42
40.0
 92
        8
 66
     7
 43
1.0
 76
     1
 77
     6
 78
     2
 67
     7
 79
     3
170
     0
171
     0
290
     0
174
     0
 93
        1
 44
0.0
173
     0
291
     0
 45
0.0
1001
ACAD
1000
AcDbSavedByObjectVersion
1070
     0
  0
VISUALSTYLE
  5
10BD
102
{ACAD_XDICTIONARY
360
198EE
102
}
102
{ACAD_REACTORS
330
10B2
102
}
330
10B2
100
AcDbVisualStyle
  2

 70
    11
 71
     2
 72
     2
 73
     0
 90
        0
 40
-0.6
 41
-30.0
 62
     5
 63
     7
 74
     1
 91
        4
 64
     7
 65
   257
 75
     1
175
     1
 42
1.0
 92
        8
 66
     7
 43
1.0
 76
     1
 77
     6
 78
     2
 67
     7
 79
     5
170
     0
171
     0
290
     0
174
     0
 93
        1
 44
-50.0
173
     0
291
     1
 45
0.0
1001
ACAD
1000
AcDbSavedByObjectVersion
1070
     0
  0
VISUALSTYLE
  5
18002
102
{ACAD_XDICTIONARY
360
1991C
102
}
102
{ACAD_REACTORS
330
10B2
102
}
330
10B2
100
AcDbVisualStyle
  2

 70
    22
 71
     2
 72
     2
 73
     0
 90
        0
 40
-0.6
 41
-30.0
 62
     5
 63
     7
 74
     1
 91
        4
 64
     7
 65
   257
 75
     1
175
     1
 42
1.0
 92
        8
 66
     7
 43
1.0
 76
     1
 77
     6
 78
     2
 67
     7
 79
     5
170
     0
171
     0
290
     0
174
     0
 93
        1
 44
0.0
173
     0
291
     1
 45
0.0
1001
ACAD
1000
AcDbSavedByObjectVersion
1070
     0
  0
VISUALSTYLE
  5
10C1
102
{ACAD_XDICTIONARY
360
198F6
102
}
102
{ACAD_REACTORS
330
10B2
102
}
330
10B2
100
AcDbVisualStyle
  2

 70
    15
 71
     2
 72
     2
 73
     0
 90
        0
 40
-0.6
 41
-30.0
 62
     5
 63
     7
 74
     1
 91
        4
 64
     7
 65
   257
 75
     1
175
     1
 42
1.0
 92
        8
 66
     7
 43
1.0
 76
     1
 77
     6
 78
     2
 67
     7
 79
     5
170
     0
171
     0
290
     0
174
     0
 93
        1
 44
0.0
173
     0
291
     1
 45
0.0
1001
ACAD
1000
AcDbSavedByObjectVersion
1070
     0
  0
VISUALSTYLE
  5
10B3
102
{ACAD_XDICTIONARY
360
198E2
102
}
102
{ACAD_REACTORS
330
10B2
102
}
330
10B2
100
AcDbVisualStyle
  2

 70
     0
 71
     2
 72
     1
 73
     1
 90
        2
 40
-0.6
 41
30.0
 62
     5
 63
     7
 74
     0
 91
        4
 64
     7
 65
   257
 75
     1
175
     1
 42
1.0
 92
        8
 66
     7
 43
1.0
 76
     1
 77
     6
 78
     2
 67
     7
 79
     5
170
     0
171
     0
290
     0
174
     0
 93
       13
 44
0.0
173
     0
291
     1
 45
0.0
1001
ACAD
1000
AcDbSavedByObjectVersion
1070
     0
  0
VISUALSTYLE
  5
10B4
102
{ACAD_XDICTIONARY
360
198E4
102
}
102
{ACAD_REACTORS
330
10B2
102
}
330
10B2
100
AcDbVisualStyle
  2

 70
     1
 71
     2
 72
     1
 73
     1
 90
        2
 40
-0.6
 41
30.0
 62
     5
 63
     7
 74
     1
 91
        4
 64
     7
 65
   257
 75
     1
175
     1
 42
1.0
 92
        0
 66
   257
 43
1.0
 76
     1
 77
     6
 78
     2
 67
     7
 79
     5
170
     0
171
     0
290
     0
174
     0
 93
       13
 44
0.0
173
     0
291
     1
 45
0.0
1001
ACAD
1000
AcDbSavedByObjectVersion
1070
     0
  0
VISUALSTYLE
  5
10B5
102
{ACAD_XDICTIONARY
360
198E6
102
}
102
{ACAD_REACTORS
330
10B2
102
}
330
10B2
100
AcDbVisualStyle
  2

 70
     2
 71
     2
 72
     2
 73
     1
 90
        2
 40
-0.6
 41
30.0
 62
     5
 63
     7
 74
     0
 91
        4
 64
     7
 65
   257
 75
     1
175
     1
 42
1.0
 92
        0
 66
     7
 43
1.0
 76
     1
 77
     6
 78
     2
 67
     7
 79
     5
170
     0
171
     0
290
     0
174
     0
 93
       13
 44
0.0
173
     0
291
     1
 45
0.0
1001
ACAD
1000
AcDbSavedByObjectVersion
1070
     0
  0
VISUALSTYLE
  5
10B6
102
{ACAD_XDICTIONARY
360
198E8
102
}
102
{ACAD_REACTORS
330
10B2
102
}
330
10B2
100
AcDbVisualStyle
  2

 70
     3
 71
     2
 72
     2
 73
     1
 90
        2
 40
-0.6
 41
30.0
 62
     5
 63
     7
 74
     1
 91
        4
 64
     7
 65
   257
 75
     1
175
     1
 42
1.0
 92
        0
 66
   257
 43
1.0
 76
     1
 77
     6
 78
     2
 67
     7
 79
     5
170
     0
171
     0
290
     0
174
     0
 93
       13
 44
0.0
173
     0
291
     1
 45
0.0
1001
ACAD
1000
AcDbSavedByObjectVersion
1070
     0
  0
VISUALSTYLE
  5
17FFA
102
{ACAD_XDICTIONARY
360
1990C
102
}
102
{ACAD_REACTORS
330
10B2
102
}
330
10B2
100
AcDbVisualStyle
  2

 70
     6
 71
     1
 72
     2
 73
     2
 90
        0
 40
-0.6
 41
-30.0
 62
     5
 63
     7
 74
     2
 91
        2
 64
     7
 65
   257
 75
     2
175
     1
 42
40.0
 92
        0
 66
   257
 43
1.0
 76
     1
 77
     6
 78
     2
 67
     7
 79
     3
170
     0
171
     0
290
     0
174
     0
 93
        1
 44
0.0
173
     0
291
     0
 45
0.0
1001
ACAD
1000
AcDbSavedByObjectVersion
1070
     0
  0
VISUALSTYLE
  5
18000
102
{ACAD_XDICTIONARY
360
19918
102
}
102
{ACAD_REACTORS
330
10B2
102
}
330
10B2
100
AcDbVisualStyle
  2

 70
    20
 71
     2
 72
     2
 73
     0
 90
        0
 40
-0.6
 41
-30.0
 62
     5
 63
     7
 74
     1
 91
        4
 64
     7
 65
   257
 75
     1
175
     1
 42
1.0
 92
       10
 66
     7
 43
1.0
 76
     1
 77
     6
 78
     2
 67
     7
 79
     5
170
     0
171
     0
290
     0
174
     0
 93
        1
 44
0.0
173
     0
291
     1
 45
0.0
1001
ACAD
1000
AcDbSavedByObjectVersion
1070
     0
  0
VISUALSTYLE
  5
10C0
102
{ACAD_XDICTIONARY
360
198F4
102
}
102
{ACAD_REACTORS
330
10B2
102
}
330
10B2
100
AcDbVisualStyle
  2

 70
    14
 71
     2
 72
     2
 73
     0
 90
        0
 40
-0.6
 41
-30.0
 62
     5
 63
     7
 74
     1
 91
        4
 64
     7
 65
   257
 75
     7
175
     7
 42
1.0
 92
        8
 66
     7
 43
1.0
 76
     1
 77
     6
 78
     2
 67
     7
 79
     5
170
     0
171
     0
290
     0
174
     0
 93
        1
 44
0.0
173
     0
291
     1
 45
0.0
1001
ACAD
1000
AcDbSavedByObjectVersion
1070
     0
  0
VISUALSTYLE
  5
18001
102
{ACAD_XDICTIONARY
360
1991A
102
}
102
{ACAD_REACTORS
330
10B2
102
}
330
10B2
100
AcDbVisualStyle
  2

 70
    21
 71
     2
 72
     2
 73
     0
 90
        0
 40
-0.6
 41
-30.0
 62
     5
 63
     7
 74
     1
 91
        4
 64
     7
 65
   257
 75
     1
175
     1
 42
1.0
 92
        9
 66
     7
 43
1.0
 76
     1
 77
     6
 78
     2
 67
     7
 79
     5
170
     0
171
     0
290
     0
174
     0
 93
        1
 44
0.0
173
     0
291
     1
 45
0.0
1001
ACAD
1000
AcDbSavedByObjectVersion
1070
     0
  0
VISUALSTYLE
  5
1D52
102
{ACAD_XDICTIONARY
360
19908
102
}
102
{ACAD_REACTORS
330
10B2
102
}
330
10B2
100
AcDbVisualStyle
  2

 70
     8
 71
     2
 72
     2
 73
     0
 90
        0
 40
-0.6
 41
-30.0
 62
     5
 63
     7
 74
     1
 91
        0
 64
     7
 65
   257
 75
     1
175
     1
 42
1.0
 92
        8
 66
     8
 43
1.0
 76
     1
 77
     6
 78
     2
 67
     7
 79
     5
170
     0
171
     0
290
     0
174
     0
 93
       13
 44
0.0
173
     0
291
     0
 45
0.0
1001
ACAD
1000
AcDbSavedByObjectVersion
1070
     0
  0
VISUALSTYLE
  5
17FFF
102
{ACAD_XDICTIONARY
360
19916
102
}
102
{ACAD_REACTORS
330
10B2
102
}
330
10B2
100
AcDbVisualStyle
  2

 70
    27
 71
     2
 72
     2
 73
     1
 90
        2
 40
-0.6
 41
30.0
 62
     5
 63
     7
 74
     0
 91
        4
 64
     7
 65
   257
 75
     1
175
     1
 42
1.0
 92
        8
 66
   257
 43
1.0
 76
     1
 77
     6
 78
     2
 67
     8
 79
     3
170
     0
171
     0
290
     0
174
     0
 93
        5
 44
0.0
173
     0
291
     0
 45
0.0
1001
ACAD
1000
AcDbSavedByObjectVersion
1070
     0
  0
VISUALSTYLE
  5
17FFE
102
{ACAD_XDICTIONARY
360
19914
102
}
102
{ACAD_REACTORS
330
10B2
102
}
330
10B2
100
AcDbVisualStyle
  2

 70
    26
 71
     2
 72
     2
 73
     1
 90
        2
 40
-0.6
 41
30.0
 62
     5
 63
     7
 74
     1
 91
       10
 64
     7
 65
   257
 75
     2
175
     1
 42
1.0
 92
        8
 66
   257
 43
1.0
 76
     1
 77
     6
 78
     2
 67
     7
 79
     3
170
     0
171
     0
290
     0
174
     0
 93
        5
 44
0.0
173
     0
291
     0
 45
0.0
1001
ACAD
1000
AcDbSavedByObjectVersion
1070
     0
  0
VISUALSTYLE
  5
17FFB
102
{ACAD_XDICTIONARY
360
1990E
102
}
102
{ACAD_REACTORS
330
10B2
102
}
330
10B2
100
AcDbVisualStyle
  2

 70
    23
 71
     2
 72
     2
 73
     3
 90
        0
 40
-0.6
 41
-30.0
 62
     5
 63
     7
 74
     2
 91
        2
 64
     7
 65
     7
 75
     1
175
     1
 42
40.0
 92
        8
 66
     7
 43
1.0
 76
     1
 77
     6
 78
     2
 67
     7
 79
     3
170
     0
171
     0
290
     0
174
     0
 93
        1
 44
0.0
173
     0
291
     0
 45
0.0
1001
ACAD
1000
AcDbSavedByObjectVersion
1070
     0
  0
VISUALSTYLE
  5
17FFC
102
{ACAD_XDICTIONARY
360
19910
102
}
102
{ACAD_REACTORS
330
10B2
102
}
330
10B2
100
AcDbVisualStyle
  2

 70
    24
 71
     1
 72
     2
 73
     2
 90
        0
 40
-0.6
 41
-30.0
 62
     5
 63
     7
 74
     2
 91
        2
 64
     7
 65
     7
 75
     1
175
     1
 42
40.0
 92
       11
 66
     7
 43
1.0
 76
     1
 77
     6
 78
     2
 67
     7
 79
     6
170
     0
171
     0
290
     0
174
     0
 93
        1
 44
0.0
173
     0
291
     0
 45
0.0
1001
ACAD
1000
AcDbSavedByObjectVersion
1070
     0
  0
VISUALSTYLE
  5
10BF
102
{ACAD_XDICTIONARY
360
198F2
102
}
102
{ACAD_REACTORS
330
10B2
102
}
330
10B2
100
AcDbVisualStyle
  2

 70
    13
 71
     2
 72
     2
 73
     0
 90
        0
 40
-0.6
 41
-30.0
 62
     5
 63
     7
 74
     1
 91
        4
 64
     7
 65
   257
 75
     1
175
     1
 42
1.0
 92
       12
 66
     7
 43
1.0
 76
     1
 77
     6
 78
     2
 67
     7
 79
     5
170
     0
171
     0
290
     0
174
     0
 93
        1
 44
0.0
173
     0
291
     1
 45
0.0
1001
ACAD
1000
AcDbSavedByObjectVersion
1070
     0
  0
VISUALSTYLE
  5
17FF9
102
{ACAD_XDICTIONARY
360
1990A
102
}
102
{ACAD_REACTORS
330
10B2
102
}
330
10B2
100
AcDbVisualStyle
  2

 70
     5
 71
     0
 72
     2
 73
     0
 90
        0
 40
-0.6
 41
-30.0
 62
     5
 63
     7
 74
     1
 91
        4
 64
     7
 65
   257
 75
     1
175
     1
 42
1.0
 92
        0
 66
   257
 43
1.0
 76
     1
 77
     6
 78
     2
 67
     7
 79
     3
170
     0
171
     0
290
     0
174
     0
 93
        1
 44
0.0
173
     0
291
     0
 45
0.0
1001
ACAD
1000
AcDbSavedByObjectVersion
1070
     0
  0
VISUALSTYLE
  5
17FFD
102
{ACAD_XDICTIONARY
360
19912
102
}
102
{ACAD_REACTORS
330
10B2
102
}
330
10B2
100
AcDbVisualStyle
  2

 70
    25
 71
     2
 72
     2
 73
     1
 90
        1
 40
0.5
 41
-30.0
 62
     5
 63
     7
 74
     1
 91
        0
 64
     7
 65
   257
 75
     1
175
     1
 42
1.0
 92
        8
 66
     7
 43
1.0
 76
     1
 77
     6
 78
     2
 67
     7
 79
     3
170
     0
171
     0
290
     0
174
     0
 93
       13
 44
0.0
173
     0
291
     0
 45
0.0
1001
ACAD
1000
AcDbSavedByObjectVersion
1070
     0
  0
DICTIONARYVAR
  5
194CC
102
{ACAD_REACTORS
330
3AC
102
}
330
3AC
100
DictionaryVariables
280
     0
  1
1:1
  0
DICTIONARYVAR
  5
194CA
102
{ACAD_REACTORS
330
3AC
102
}
330
3AC
100
DictionaryVariables
280
     0
  1
STANDARD
  0
DICTIONARYVAR
  5
89F
102
{ACAD_REACTORS
330
3AC
102
}
330
3AC
100
DictionaryVariables
280
     0
  1
STANDARD
  0
DICTIONARYVAR
  5
3AD
102
{ACAD_REACTORS
330
3AC
102
}
330
3AC
100
DictionaryVariables
280
     0
  1
1
  0
DICTIONARYVAR
  5
198D8
102
{ACAD_REACTORS
330
3AC
102
}
330
3AC
100
DictionaryVariables
280
     0
  1
0
  0
DICTIONARYVAR
  5
19884
102
{ACAD_REACTORS
330
3AC
102
}
330
3AC
100
DictionaryVariables
280
     0
  1
0
  0
DICTIONARYVAR
  5
194CE
102
{ACAD_REACTORS
330
3AC
102
}
330
3AC
100
DictionaryVariables
280
     0
  1
1
  0
DICTIONARYVAR
  5
194CF
102
{ACAD_REACTORS
330
3AC
102
}
330
3AC
100
DictionaryVariables
280
     0
  1
15
  0
DICTIONARYVAR
  5
194CD
102
{ACAD_REACTORS
330
3AC
102
}
330
3AC
100
DictionaryVariables
280
     0
  1
0
  0
DICTIONARYVAR
  5
194CB
102
{ACAD_REACTORS
330
3AC
102
}
330
3AC
100
DictionaryVariables
280
     0
  1
0
  0
DICTIONARYVAR
  5
19883
102
{ACAD_REACTORS
330
3AC
102
}
330
3AC
100
DictionaryVariables
280
     0
  1
127
  0
DICTIONARYVAR
  5
1951F
102
{ACAD_REACTORS
330
3AC
102
}
330
3AC
100
DictionaryVariables
280
     0
  1
31
  0
DICTIONARYVAR
  5
198D9
102
{ACAD_REACTORS
330
3AC
102
}
330
3AC
100
DictionaryVariables
280
     0
  1
2
  0
XRECORD
  5
1054
102
{ACAD_REACTORS
330
1053
102
}
330
1053
100
AcDbXrecord
280
     1
330
0
  0
XRECORD
  5
17B22
102
{ACAD_REACTORS
330
89A
102
}
330
89A
100
AcDbXrecord
280
     1
 91
      535
301

290
     0
302
DIM
330
1A94
 90
        0
 62
   253
370
    -3
331
8
  1
Color_253
330
1A91
 90
        8
 62
    60
370
    -3
331
8
  1
Color_60
330
1A8E
 90
        8
 62
     2
370
    -3
331
8
  1
Color_2
330
1A8B
 90
        8
 62
     2
370
    -3
331
1A4E
  1
Color_2
330
1A88
 90
        8
 62
     3
370
    -3
331
8
  1
Color_3
330
1A85
 90
        8
 62
     6
370
    -3
331
8
  1
Color_6
330
1A82
 90
        0
 62
   251
370
    -3
331
8
  1
Color_251
330
1A7F
 90
        8
 62
     1
370
    -3
331
8
  1
Color_1
330
1A7C
 90
        8
 62
   253
370
    -3
331
1A5D
  1
Color_253
330
1A79
 90
        8
 62
     2
370
    -3
331
8
  1
Color_2
330
1A76
 90
        8
 62
     4
370
    -3
331
8
  1
Color_4
330
1A73
 90
        8
 62
     1
370
    -3
331
8
  1
Color_1
330
1A70
 90
        8
 62
     6
370
    -3
331
8
  1
Color_6
330
1A6D
 90
        8
 62
     5
370
    -3
331
8
  1
Color_5
330
1A6A
 90
        8
 62
    52
370
    -3
331
8
  1
Color_52
330
1A67
 90
        8
 62
     2
370
    -3
331
8
  1
Color_2
330
1A64
 90
        8
 62
     1
370
    -3
331
8
  1
Color_1
330
1A61
 90
        8
 62
     1
370
    -3
331
8
  1
Color_1
330
73
 90
        0
 62
   252
370
    -3
331
8
  1
Color_252
330
32
 90
        8
 62
     3
370
    -3
331
8
  1
Color_3
330
4
 90
        8
 62
     7
370
    -3
331
8
  1
Color_7
  0
DICTIONARY
  5
89C
330
10
100
AcDbDictionary
280
     1
281
     1
  3
ACAD_XREC_ROUNDTRIP
360
198DE
  3
ADSK_XREC_LAYOUTTHUMBNAIL
360
89D
  0
DICTIONARY
  5
1950E
330
B
100
AcDbDictionary
280
     1
281
     1
  3
ACAD_XREC_ROUNDTRIP
360
198DD
  3
ADSK_XREC_LAYOUTTHUMBNAIL
360
1950F
  0
DICTIONARY
  5
19891
330
10B0
100
AcDbDictionary
280
     1
281
     1
  3
ACAD_XREC_ROUNDTRIP
360
19892
  0
DICTIONARY
  5
1988F
330
10AF
100
AcDbDictionary
280
     1
281
     1
  3
ACAD_XREC_ROUNDTRIP
360
19890
  0
DICTIONARY
  5
19893
330
10B1
100
AcDbDictionary
280
     1
281
     1
  3
ACAD_XREC_ROUNDTRIP
360
19894
  0
DICTIONARY
  5
198FE
330
1A21
100
AcDbDictionary
280
     1
281
     1
  3
ACAD_XREC_ROUNDTRIP
360
198FF
  0
DICTIONARY
  5
198FA
330
1A1F
100
AcDbDictionary
280
     1
281
     1
  3
ACAD_XREC_ROUNDTRIP
360
198FB
  0
DICTIONARY
  5
19900
330
1A22
100
AcDbDictionary
280
     1
281
     1
  3
ACAD_XREC_ROUNDTRIP
360
19901
  0
DICTIONARY
  5
198FC
330
1A20
100
AcDbDictionary
280
     1
281
     1
  3
ACAD_XREC_ROUNDTRIP
360
198FD
  0
DICTIONARY
  5
19886
330
887
100
AcDbDictionary
280
     1
281
     1
  3
ACAD_ROUNDTRIP_2008_TABLESTYLE_CELLSTYLEMAP
360
198DA
  3
ACAD_XREC_ROUNDTRIP
360
198E1
  0
DICTIONARY
  5
198EC
330
10B8
100
AcDbDictionary
280
     1
281
     1
  3
ACAD_XREC_ROUNDTRIP
360
198ED
  0
DICTIONARY
  5
19902
330
1D4F
100
AcDbDictionary
280
     1
281
     1
  3
ACAD_XREC_ROUNDTRIP
360
19903
  0
DICTIONARY
  5
19904
330
1D50
100
AcDbDictionary
280
     1
281
     1
  3
ACAD_XREC_ROUNDTRIP
360
19905
  0
DICTIONARY
  5
198EA
330
10B7
100
AcDbDictionary
280
     1
281
     1
  3
ACAD_XREC_ROUNDTRIP
360
198EB
  0
DICTIONARY
  5
198F0
330
10BE
100
AcDbDictionary
280
     1
281
     1
  3
ACAD_XREC_ROUNDTRIP
360
198F1
  0
DICTIONARY
  5
198F8
330
10C2
100
AcDbDictionary
280
     1
281
     1
  3
ACAD_XREC_ROUNDTRIP
360
198F9
  0
DICTIONARY
  5
19906
330
1D51
100
AcDbDictionary
280
     1
281
     1
  3
ACAD_XREC_ROUNDTRIP
360
19907
  0
DICTIONARY
  5
198EE
330
10BD
100
AcDbDictionary
280
     1
281
     1
  3
ACAD_XREC_ROUNDTRIP
360
198EF
  0
DICTIONARY
  5
1991C
330
18002
100
AcDbDictionary
280
     1
281
     1
  3
ACAD_XREC_ROUNDTRIP
360
1991D
  0
DICTIONARY
  5
198F6
330
10C1
100
AcDbDictionary
280
     1
281
     1
  3
ACAD_XREC_ROUNDTRIP
360
198F7
  0
DICTIONARY
  5
198E2
330
10B3
100
AcDbDictionary
280
     1
281
     1
  3
ACAD_XREC_ROUNDTRIP
360
198E3
  0
DICTIONARY
  5
198E4
330
10B4
100
AcDbDictionary
280
     1
281
     1
  3
ACAD_XREC_ROUNDTRIP
360
198E5
  0
DICTIONARY
  5
198E6
330
10B5
100
AcDbDictionary
280
     1
281
     1
  3
ACAD_XREC_ROUNDTRIP
360
198E7
  0
DICTIONARY
  5
198E8
330
10B6
100
AcDbDictionary
280
     1
281
     1
  3
ACAD_XREC_ROUNDTRIP
360
198E9
  0
DICTIONARY
  5
1990C
330
17FFA
100
AcDbDictionary
280
     1
281
     1
  3
ACAD_XREC_ROUNDTRIP
360
1990D
  0
DICTIONARY
  5
19918
330
18000
100
AcDbDictionary
280
     1
281
     1
  3
ACAD_XREC_ROUNDTRIP
360
19919
  0
DICTIONARY
  5
198F4
330
10C0
100
AcDbDictionary
280
     1
281
     1
  3
ACAD_XREC_ROUNDTRIP
360
198F5
  0
DICTIONARY
  5
1991A
330
18001
100
AcDbDictionary
280
     1
281
     1
  3
ACAD_XREC_ROUNDTRIP
360
1991B
  0
DICTIONARY
  5
19908
330
1D52
100
AcDbDictionary
280
     1
281
     1
  3
ACAD_XREC_ROUNDTRIP
360
19909
  0
DICTIONARY
  5
19916
330
17FFF
100
AcDbDictionary
280
     1
281
     1
  3
ACAD_XREC_ROUNDTRIP
360
19917
  0
DICTIONARY
  5
19914
330
17FFE
100
AcDbDictionary
280
     1
281
     1
  3
ACAD_XREC_ROUNDTRIP
360
19915
  0
DICTIONARY
  5
1990E
330
17FFB
100
AcDbDictionary
280
     1
281
     1
  3
ACAD_XREC_ROUNDTRIP
360
1990F
  0
DICTIONARY
  5
19910
330
17FFC
100
AcDbDictionary
280
     1
281
     1
  3
ACAD_XREC_ROUNDTRIP
360
19911
  0
DICTIONARY
  5
198F2
330
10BF
100
AcDbDictionary
280
     1
281
     1
  3
ACAD_XREC_ROUNDTRIP
360
198F3
  0
DICTIONARY
  5
1990A
330
17FF9
100
AcDbDictionary
280
     1
281
     1
  3
ACAD_XREC_ROUNDTRIP
360
1990B
  0
DICTIONARY
  5
19912
330
17FFD
100
AcDbDictionary
280
     1
281
     1
  3
ACAD_XREC_ROUNDTRIP
360
19913
  0
XRECORD
  5
198DE
102
{ACAD_REACTORS
330
89C
102
}
330
89C
100
AcDbXrecord
280
     1
102
SHADEPLOT
 70
     0
102
SHADEPLOTRESLEVEL
 70
     2
102
SHADEPLOTCUSTOMDPI
 70
   300
  0
XRECORD
  5
89D
102
{ACAD_REACTORS
330
89C
102
}
330
89C
100
AcDbXrecord
280
     1
310
280000006B0000008C0000000100080000000000103B0000000000000000000000010000000000000000000000000000FFFFFF000000000000000000000000000000000000000000000000000000000000000000330000006600000099000000CC000000FF00000000330000333300006633000099330000CC330000FF3300
310
0000660000336600006666000099660000CC660000FF66000000990000339900006699000099990000CC990000FF99000000CC000033CC000066CC000099CC0000CCCC0000FFCC000000FF000033FF000066FF000099FF0000CCFF0000FFFF000000003300330033006600330099003300CC003300FF003300003333003333
310
33006633330099333300CC333300FF33330000663300336633006666330099663300CC663300FF66330000993300339933006699330099993300CC993300FF99330000CC330033CC330066CC330099CC3300CCCC3300FFCC330000FF330033FF330066FF330099FF3300CCFF3300FFFF330000006600330066006600660099
310
006600CC006600FF00660000336600333366006633660099336600CC336600FF33660000666600336666006666660099666600CC666600FF66660000996600339966006699660099996600CC996600FF99660000CC660033CC660066CC660099CC6600CCCC6600FFCC660000FF660033FF660066FF660099FF6600CCFF6600
310
FFFF660000009900330099006600990099009900CC009900FF00990000339900333399006633990099339900CC339900FF33990000669900336699006666990099669900CC669900FF66990000999900339999006699990099999900CC999900FF99990000CC990033CC990066CC990099CC9900CCCC9900FFCC990000FF99
310
0033FF990066FF990099FF9900CCFF9900FFFF99000000CC003300CC006600CC009900CC00CC00CC00FF00CC000033CC003333CC006633CC009933CC00CC33CC00FF33CC000066CC003366CC006666CC009966CC00CC66CC00FF66CC000099CC003399CC006699CC009999CC00CC99CC00FF99CC0000CCCC0033CCCC0066CC
310
CC0099CCCC00CCCCCC00FFCCCC0000FFCC0033FFCC0066FFCC0099FFCC00CCFFCC00FFFFCC000000FF003300FF006600FF009900FF00CC00FF00FF00FF000033FF003333FF006633FF009933FF00CC33FF00FF33FF000066FF003366FF006666FF009966FF00CC66FF00FF66FF000099FF003399FF006699FF009999FF00CC
310
99FF00FF99FF0000CCFF0033CCFF0066CCFF0099CCFF00CCCCFF00FFCCFF0000FFFF0033FFFF0066FFFF0099FFFF00CCFFFF00FFFFFF00000000000D0D0D001A1A1A00282828003535350043434300505050005D5D5D006B6B6B00787878008686860093939300A1A1A100AEAEAE00BBBBBB00C9C9C900D6D6D600E4E4E400
310
F1F1F100FFFFFF000000000000000000000000000000000000000000000000000000000000000000000000000000000000000000000000000000000000000000000000000000000000000000000000000000000000000000000000000000000000000000000000000000000000000000000000000000000000000000000000
310
00000000000000000000000000000000000000000000000000000000000000000000000000000000000000000000000000000000000000000000000000000000000000000000000000000000000000000000000000000000000000000000000000000000000000000000000000000000000000000000000000000000000000
310
00000000000000000040000000000000000000000000000000000000000000000000000000000000000000000000000000000000000000000000000000000000000000000000000000000000000000000000000000000000000000000000000000000000000000000000000000000000000000000000000000000000000000
310
00000000000000000000000000000000000000000000000000000000000000000000000000000000000000000000000000000000000000000000000000000000000000000000000000000000000000000000000000000000000000000000000000004000000000000000000000000000000000000000000000000000000000
310
00000000000000000000000000000000000000000000000000000000000000000000000000000000000000000000000000000000000000000000000000000000000000000000000000000000000000000000000000000000000000000000000000000000000000000000000000000000000000000000000000000000000000
310
00000000000000000000000000000000000000000000000000000000000000000000000000000000000000000000000000000000000000000000000000000000000000000000000000000000000000000000000000000000000000000000000000000000000000000000000000000000000000000000000000000000000000
310
00000000000000000000000000000000000000000000000000000000000000000000000000000000000000000000000000000000000000000000000000000000000000000000000000000000000000000000000000000000000000000000000000000000000000000000000000000000000000000000000000000000000000
310
00000000000000000000000000000000000000000000000000000000000000000000000000000000000000000000000000000000000000000000000000000000000000000000000000000000000000000000000000000000000000000000000000000000000000000000000000000000000000000000000000000000000000
310
00000000000000000000000000000000000000000000000000000000000000000000000000000000000000000000000000000000000000000000000000000000000000000000000000000000000000000000000000000000000000000000000000000000000000000000000000000000000000000000000000000000000000
310
00000000000000000000000000000000000000000000000000000000000000000000000000000000000000000000000000000000000000000000000000000000000000000000000000000000000000000000000000000000000000000000000000000000000000000000000000000000000000000000000000000000000000
310
00000000000000000000000000000000000000000000000000000000000000000000000000000000000000000000000000000000000000000000000000000000000000000000000000000000000000000000000000000000000000000000000000000000000000000000000000000000000000000000000000000000000000
310
00000000000000000000000000000000000000000000000000000000000000000000000000000000000000000000000000000000000000000000000000000000000000000000000000000000000000000000000000000000000000000000000000000000000000000000000000000000000000000000000000000000000000
310
00000000000000000000000000000000000000000000000000000000000000000000000000000000000000000000000000000000000000000000000000000000000000000000000000000000000000000000000000000000000000000000000000000000000000000000000000000000000000000000000000000000000000
310
00000000000000000000000000000000000000000000000000000000000000000000000000000000000000000000000000000000000000000000000000000000000000000000000000000000000000000000000000000000000000000000000000000000000000000000000000000000000000000000000000000000000000
310
00000000000000000000000000000000000000000000000000000000000000000000000000000000000000000000000000000000000000000000000000000000000000000000000000000000000000000000000000000000000000000000000000000000000000000000000000000000000000000000000000000000000000
310
00000000000000000000000000000000000000000000000000000000000000000000000000000000000000000000000000000000000000000000000000000000000000000000000000000000000000000000000000000000000000000000000000000000000000000000000000000000000000000000000000000000000000
310
00000000000000000000000000000000000000000000000000000000000000000000000000000000000000000000000000000000000000000000000000000000000000000000000000000000000000000000000000000000000000000000000000000000000000000000000000000000000000000000000000000000000000
310
00000000000000000000000000000000000000000000000000000000000000000000000000000000000000000000000000000000000000000000000000000000000000000000000000000000000000000000000000000000000000000000000000000000000000000000000000000000000000000000000000000000000000
310
00000000000000000000000000000000000000000000000000000000000000000000000000000000000000000000000000000000000000000000000000000000000000000000000000000000000000000000000000000000000000000000000000000000000000000000000000000000000000000000000000000000000000
310
00000000000000000000000000000000000000000000000000000000000000000000000000000000000000000000000000000000000000000000000000000000000000000000000000000000000000000000000000000000000000000000000000000000000000000000000000000000000000000000000000000000000000
310
00000000000000000000000000000000000000000000000000000000000000000000000000000000000000000000000000000000000000000000000000000000000000000000000000000000000000000000000000000000000000000000000000000000000000000000000000000000000000000000000000000000000000
310
00000000000000000000000000000000000000000000000000000000000000000000000000000000000000000000000000000000000000000000000000000000000000000000000000000000000000000000000000000000000000000000000000000000000000000000000000000000000000000000000000000000000000
310
00000000000000000000000000000000000000000000000000000000000000000000000000000000000000000000000000000000000000000000000000000000000000000000000000000000000000000000000000000000000000000000000000000000000000000000000000000000000000000000000000000000000000
310
00000000000000000000000000000000000000000000000000000000000000000000000000000000000000000000000000000000000000000000000000000000000000000000000000000000000000000000000000000000000000000000000000000000000000000000000000000000000000000000000000000000000000
310
00000000000000000000000000000000000000000000000000000000000000000000000000000000000000000000000000000000000000000000000000000000000000000000000000000000000000000000000000000000000000000000000000000000000000000000000000000000000000000000000000000000000000
310
00000000000000000000000000000000000000000000000000000000000000000000000000000000000000000000000000000000000000000000000000000000000000000000000000000000000000000000000000000000000000000000000000000000000000000000000000000000000000000000000000000000000000
310
00000000000000000000000000000000000000000000000000000000000000000000000000000000000000000000000000000000000000000000000000000000000000000000000000000000000000000000000000000000000000000000000000000000000000000000000000000000000000000000000000000000000000
310
00000000000000000000000000000000000000000000000000000000000000000000000000000000000000000000000000000000000000000000000000000000000000000000000000000000000000000000000000000000000000000000000000000000000000000000000000000000000000000000000000000000000000
310
00000000000000000000000000000000000000000000000000000000000000000000000000000000000000000000000000000000000000000000000000000000000000000000000000000000000000000000000000000000000000000000000000000000000000000000000000000000000000000000000000000000000000
310
00000000000000000000000000000000000000000000000000000000000000000000000000000000000000000000000000000000000000000000000000000000000000000000000000000000000000000000000000000000000000000000000000000000000000000000000000000000000000000000000000000000000000
310
00000000000000000000000000000000000000000000000000000000000000000000000000000000000000000000000000000000000000000000000000000000000000000000000000000000000000000000000000000000000000000000000000000000000000000000000000000000000000000000000000000000000000
310
00000000000000000000000000000000000000000000000000000000000000000000000000000000000000000000000000000000000000000000000000000000000000000000000000000000000000000000000000000000000000000000000000000000000000000000000000000000000000000000000000000000000000
310
00000000000000000000000000000000000000000000000000000000000000000000000000000000000000000000000000000000000000000000000000000000000000000000000000000000000000000000000000000000000000000000000000000000000000000000000000000000000000000000000000000000000000
310
00000000000000000000000000000000000000000000000000000000000000000000000000000000000000000000000000000000000000000000000000000000000000000000000000000000000000000000000000000000000000000000000000000000000000000000000000000000000000000000000000000000000000
310
00000000000000000000000000000000000000000000000000000000000000000000000000000000000000000000000000000000000000000000000000000000000000000000000000000000000000000000000000000000000000000000000000000000000000000000000000000000000000000000000000000000000000
310
00000000000000000000000000000000000000000000000000000000000000000000000000000000000000000000000000000000000000000000000000000000000000000000000000000000000000000000000000000000000000000000000000000000000000000000000000000000000000000000000000000000000000
310
00000000000000000000000000000000000000000000000000000000000000000000000000000000000000000000000000000000000000000000000000000000000000000000000000000000000000000000000000000000000000000000000000000000000000000000000000000000000000000000000000000000000000
310
00000000000000000000000000000000000000000000000000000000000000000000000000000000000000000000000000000000000000000000000000000000000000000000000000000000000000000000000000000000000000000000000000000000000000000000000000000000000000000000000000000000000000
310
00000000000000000000000000000000000000000000000000000000000000000000000000000000000000000000000000000000000000000000000000000000000000000000000000000000000000000000000000000000000000000000000000000000000000000000000000000000000000000000000000000000000000
310
00000000000000000000000000000000000000000000000000000000000000000000000000000000000000000000000000000000000000000000000000000000000000000000000000000000000000000000000000000000000000000000000000000000000000000000000000000000000000000000000000000000000000
310
00000000000000000000000000000000000000000000000000000000000000000000000000000000000000000000000000000000000000000000000000000000000000000000000000000000000000000000000000000000000000000000000000000000000000000000000000000000000000000000000000000000000000
310
00000000000000000000000000000000000000000000000000000000000000000000000000000000000000000000000000000000000000000000000000000000000000000000000000000000000000000000000000000000000000000000000000000000000000000000000000000000000000000000000000000000000000
310
00000000000000000000000000000000000000000000000000000000000000000000000000000000000000000000000000000000000000000000000000000000000000000000000000000000000000000000000000000000000000000000000000000000000000000000000000000000000000000000000000000000000000
310
00000000000000000000000000000000000000000000000000000000000000000000000000000000000000000000000000000000000000000000000000000000000000000000000000000000000000000000000000000000000000000000000000000000000000000000000000000000000000000000000000000000000000
310
00000000000000000000000000000000000000000000000000000000000000000000000000000000000000000000000000000000000000000000000000000000000000000000000000000000000000000000000000000000000000000000000000000000000000000000000000000000000000000000000000000000000000
310
00000000000000000000000000000000000000000000000000000000000000000000000000000000000000000000000000000000000000000000000000000000000000000000000000000000000000000000000000000000000000000000000000000000000000000000000000000000000000000000000000000000000000
310
00000000000000000000000000000000000000000000000000000000000000000000000000000000000000000000000000000000000000000000000000000000000000000000000000000000000000000000000000000000000000000000000000000000000000000000000000000000000000000000000000000000000000
310
00000000000000000000000000000000000000000000000000000000000000000000000000000000000000000000000000000000000000000000000000000000000000000000000000000000000000000000000000000000000000000000000000000000000000000000000000000000000000000000000000000000000000
310
00000000000000000000000000000000000000000000000000000000000000000000000000000000000000000000000000000000000000000000000000000000000000000000000000000000000000000000000000000000000000000000000000000000000000000000000000000000000000000000000000000000000000
310
00000000000000000000000000000000000000000000000000000000000000000000000000000000000000000000000000000000000000000000000000000000000000000000000000000000000000000000000000000000000000000000000000000000000000000000000000000000000000000000000000000000000000
310
00000000000000000000000000000000000000000000000000000000000000000000000000000000000000000000000000000000000000000000000000000000000000000000000000000000000000000000000000000000000000000000000000000000000000000000000000000000000000000000000000000000000000
310
00000000000000000000000000000000000000000000000000000000000000000000000000000000000000000000000000000000000000000000000000000000000000000000000000000000000000000000000000000000000000000000000000000000000000000000000000000000000000000000000000000000000000
310
00000000000000000000000000000000000000000000000000000000000000000000000000000000000000000000000000000000000000000000000000000000000000000000000000000000000000000000000000000000000000000000000000000000000000000000000000000000000000000000000000000000000000
310
00000000000000000000000000000000000000000000000000000000000000000000000000000000000000000000000000000000000000000000000000000000000000000000000000000000000000000000000000000000000000000000000000000000000000000000000000000000000000000000000000000000000000
310
00000000000000000000000000000000000000000000000000000000000000000000000000000000000000000000000000000000000000000000000000000000000000000000000000000000000000000000000000000000000000000000000000000000000000000000000000000000000000000000000000000000000000
310
00000000000000000000000000000000000000000000000000000000000000000000000000000000000000000000000000000000000000000000000000000000000000000000000000000000000000000000000000000000000000000000000000000000000000000000000000000000000000000000000000000000000000
310
00000000000000000000000000000000000000000000000000000000000000000000000000000000000000000000000000000000000000000000000000000000000000000000000000000000000000000000000000000000000000000000000000000000000000000000000000000000000000000000000000000000000000
310
00000000000000000000000000000000000000000000000000000000000000000000000000000000000000000000000000000000000000000000000000000000000000000000000000000000000000000000000000000000000000000000000000000000000000000000000000000000000000000000000000000000000000
310
00000000000000000000000000000000000000000000000000000000000000000000000000000000000000000000000000000000000000000000000000000000000000000000000000000000000000000000000000000000000000000000000000000000000000000000000000000000000000000000000000000000000000
310
00000000000000000000000000000000000000000000000000000000000000000000000000000000000000000000000000000000000000000000000000000000000000000000000000000000000000000000000000000000000000000000000000000000000000000000000000000000000000000000000000000000000000
310
00000000000000000000000000000000000000000000000000000000000000000000000000000000000000000000000000000000000000000000000000000000000000000000000000000000000000000000000000000000000000000000000000000000000000000000000000000000000000000000000000000000000000
310
00000000000000000000000000000000000000000000000000000000000000000000000000000000000000000000000000000000000000000000000000000000000000000000000000000000000000000000000000000000000000000000000000000000000000000000000000000000000000000000000000000000000000
310
00000000000000000000000000000000000000000000000000000000000000000000000000000000000000000000000000000000000000000000000000000000000000000000000000000000000000000000000000000000000000000000000000000000000000000000000000000000000000000000000000000000000000
310
00000000000000000000000000000000000000000000000000000000000000000000000000000000000000000000000000000000000000000000000000000000000000000000000000000000000000000000000000000000000000000000000000000000000000000000000000000000000000000000000000000000000000
310
00000000000000000000000000000000000000000000000000000000000000000000000000000000000000000000000000000000000000000000000000000000000000000000000000000000000000000000000000000000000000000000000000000000000000000000000000000000000000000000000000000000000000
310
00000000000000000000000000000000000000000000000000000000000000000000000000000000000000000000000000000000000000000000000000000000000000000000000000000000000000000000000000000000000000000000000000000000000000000000000000000000000000000000000000000000000000
310
00000000000000000000000000000000000000000000000000000000000000000000000000000000000000000000000000000000000000000000000000000000000000000000000000000000000000000000000000000000000000000000000000000000000000000000000000000000000000000000000000000000000000
310
00000000000000000000000000000000000000000000000000000000000000000000000000000000000000000000000000000000000000000000000000000000000000000000000000000000000000000000000000000000000000000000000000000000000000000000000000000000000000000000000000000000000000
310
00000000000000000000000000000000000000000000000000000000000000000000000000000000000000000000000000000000000000000000000000000000000000000000000000000000000000000000000000000000000000000000000000000000000000000000000000000000000000000000000000000000000000
310
00000000000000000000000000000000000000000000000000000000000000000000000000000000000000000000000000000000000000000000000000000000000000000000000000000000000000000000000000000000000000000000000000000000000000000000000000000000000000000000000000000000000000
310
00000000000000000000000000000000000000000000000000000000000000000000000000000000000000000000000000000000000000000000000000000000000000000000000000000000000000000000000000000000000000000000000000000000000000000000000000000000000000000000000000000000000000
310
00000000000000000000000000000000000000000000000000000000000000000000000000000000000000000000000000000000000000000000000000000000000000000000000000000000000000000000000000000000000000000000000000000000000000000000000000000000000000000000000000000000000000
310
00000000000000000000000000000000000000000000000000000000000000000000000000000000000000000000000000000000000000000000000000000000000000000000000000000000000000000000000000000000000000000000000000000000000000000000000000000000000000000000000000000000000000
310
00000000000000000000000000000000000000000000000000000000000000000000000000000000000000000000000000000000000000000000000000000000000000000000000000000000000000000000000000000000000000000000000000000000000000000000000000000000000000000000000000000000000000
310
00000000000000000000000000000000000000000000000000000000000000000000000000000000000000000000000000000000000000000000000000000000000000000000000000000000000000000000000000000000000000000000000000000000000000000000000000000000000000000000000000000000000000
310
00000000000000000000000000000000000000000000000000000000000000000000000000000000000000000000000000000000000000000000000000000000000000000000000000000000000000000000000000000000000000000000000000000000000000000000000000000000000000000000000000000000000000
310
00000000000000000000000000000000000000000000000000000000000000000000000000000000000000000000000000000000000000000000000000000000000000000000000000000000000000000000000000000000000000000000000000000000000000000000000000000000000000000000000000000000000000
310
00000000000000000000000000000000000000000000000000000000000000000000000000000000000000000000000000000000000000000000000000000000000000000000000000000000000000000000000000000000000000000000000000000000000000000000000000000000000000000000000000000000000000
310
00000000000000000000000000000000000000000000000000000000000000000000000000000000000000000000000000000000000000000000000000000000000000000000000000000000000000000000000000000000000000000000000000000000000000000000000000000000000000000000000000000000000000
310
00000000000000000000000000000000000000000000000000000000000000000000000000000000000000000000000000000000000000000000000000000000000000000000000000000000000000000000000000000000000000000000000000000000000000000000000000000000000000000000000000000000000000
310
00000000000000000000000000000000000000000000000000000000000000000000000000000000000000000000000000000000000000000000000000000000000000000000000000000000000000000000000000000000000000000000000000000000000000000000000000000000000000000000000000000000000000
310
00000000000000000000000000000000000000000000000000000000000000000000000000000000000000000000000000000000000000000000000000000000000000000000000000000000000000000000000000000000000000000000000000000000000000000000000000000000000000000000000000000000000000
310
00000000000000000000000000000000000000000000000000000000000000000000000000000000000000000000000000000000000000000000000000000000000000000000000000000000000000000000000000000000000000000000000000000000000000000000000000000000000000000000000000000000000000
310
00000000000000000000000000000000000000000000000000000000000000000000000000000000000000000000000000000000000000000000000000000000000000000000000000000000000000000000000000000000000000000000000000000000000000000000000000000000000000000000000000000000000000
310
00000000000000000000000000000000000000000000000000000000000000000000000000000000000000000000000000000000000000000000000000000000000000000000000000000000000000000000000000000000000000000000000000000000000000000000000000000000000000000000000000000000000000
310
00000000000000000000000000000000000000000000000000000000000000000000000000000000000000000000000000000000000000000000000000000000000000000000000000000000000000000000000000000000000000000000000000000000000000000000000000000000000000000000000000000000000000
310
00000000000000000000000000000000000000000000000000000000000000000000000000000000000000000000000000000000000000000000000000000000000000000000000000000000000000000000000000000000000000000000000000000000000000000000000000000000000000000000000000000000000000
310
00000000000000000000000000000000000000000000000000000000000000000000000000000000000000000000000000000000000000000000000000000000000000000000000000000000000000000000000000000000000000000000000000000000000000000000000000000000000000000000000000000000000000
310
00000000000000000000000000000000000000000000000000000000000000000000000000000000000000000000000000000000000000000000000000000000000000000000000000000000000000000000000000000000000000000000000000000000000000000000000000000000000000000000000000000000000000
310
00000000000000000000000000000000000000000000000000000000000000000000000000000000000000000000000000000000000000000000000000000000000000000000000000000000000000000000000000000000000000000000000000000000000000000000000000000000000000000000000000000000000000
310
00000000000000000000000000000000000000000000000000000000000000000000000000000000000000000000000000000000000000000000000000000000000000000000000000000000000000000000000000000000000000000000000000000000000000000000000000000000000000000000000000000000000000
310
00000000000000000000000000000000000000000000000000000000000000000000000000000000000000000000000000000000000000000000000000000000000000000000000000000000000000000000000000000000000000000000000000000000000000000000000000000000000000000000000000000000000000
310
00000000000000000000000000000000000000000000000000000000000000000000000000000000000000000000000000000000000000000000000000000000000000000000000000000000000000000000000000000000000000000000000000000000000000000000000000000000000000000000000000000000000000
310
00000000000000000000000000000000000000000000000000000000000000000000000000000000000000000000000000000000000000000000000000000000000000000000000000000000000000000000000000000000000000000000000000000000000000000000000000000000000000000000000000000000000000
310
00000000000000000000000000000000000000000000000000000000000000000000000000000000000000000000000000000000000000000000000000000000000000000000000000000000000000000000000000000000000000000000000000000000000000000000000000000000000000000000000000000000000000
310
00000000000000000000000000000000000000000000000000000000000000000000000000000000000000000000000000000000000000000000000000000000000000000000000000000000000000000000000000000000000000000000000000000000000000000000000000000000000000000000000000000000000000
310
00000000000000000000000000000000000000000000000000000000000000000000000000000000000000000000000000000000000000000000000000000000000000000000000000000000000000000000000000000000000000000000000000000000000000000000000000000000000000000000000000000000000000
310
00000000000000000000000000000000000000000000000000000000000000000000000000000000000000000000000000000000000000000000000000000000000000000000000000000000000000000000000000000000000000000000000000000000000000000000000000000000000000000000000000000000000000
310
00000000000000000000000000000000000000000000000000000000000000000000000000000000000000000000000000000000000000000000000000000000000000000000000000000000000000000000000000000000000000000000000000000000000000000000000000000000000000000000000000000000000000
310
00000000000000000000000000000000000000000000000000000000000000000000000000000000000000000000000000000000000000000000000000000000000000000000000000000000000000000000000000000000000000000000000000000000000000000000000000000000000000000000000000000000000000
310
00000000000000000000000000000000000000000000000000000000000000000000000000000000000000000000000000000000000000000000000000000000000000000000000000000000000000000000000000000000000000000000000000000000000000000000000000000000000000000000000000000000000000
310
00000000000000000000000000000000000000000000000000000000000000000000000000000000000000000000000000000000000000000000000000000000000000000000000000000000000000000000000000000000000000000000000000000000000000000000000000000000000000000000000000000000000000
310
00000000000000000000000000000000000000000000000000000000000000000000000000000000000000000000000000000000000000000000000000000000000000000000000000000000000000000000000000000000000000000000000000000000000000000000000000000000000000000000000000000000000000
310
00000000000000000000000000000000000000000000000000000000000000000000000000000000000000000000000000000000000000000000000000000000000000000000000000000000000000000000000000000000000000000000000000000000000000000000000000000000000000000000000000000000000000
310
00000000000000000000000000000000000000000000000000000000000000000000000000000000000000000000000000000000000000000000000000000000000000000000000000000000000000000000000000000000000000000000000000000000000000000000000000000000000000000000000000000000000000
310
00000000000000000000000000000000000000000000000000000000000000000000000000000000000000000000000000000000000000000000000000000000000000000000000000000000000000000000000000000000000000000000000000000000000000000000000000000000000000000000000000000000000000
310
00000000000000000000000000000000000000000000000000000000000000000000000000000000000000000000000000000000000000000000000000000000000000000000000000000000000000000000000000000000000000000000000000000000000000000000000000000000000000000000000000000000000000
310
00000000000000000000000000000000000000000000000000000000000000000000000000000000000000000000000000000000000000000000000000000000000000000000000000000000000000000000000000000000000000000000000000000000000000000000000000000000000000000000000000000000000000
310
00000000000000000000000000000000000000000000000000000000000000000000000000000000000000000000000000000000000000000000000000000000000000000000000000000000000000000000000000000000000000000000000000000000000000000000000000000000000000000000000000000000000000
310
00000000000000000000000000000000000000000000000000000000000000000000000000000000000000000000000000000000000000000000000000000000000000000000000000000000000000000000000000000000000000000000000000000000000000000000000000000000000000000000000000000000000000
310
00000000000000000000000000000000000000000000000000000000000000000000000000000000000000000000000000000000000000000000000000000000000000000000000000000000000000000000000000000000000000000000000000000000000000000000000000000000000000000000000000000000000000
310
00000000000000000000000000000000000000000000000000000000000000000000000000000000000000000000000000000000000000000000000000000000000000000000000000000000000000000000000000000000000000000000000000000000000000000000000000000000000000000000000000000000000000
310
00000000000000000000000000000000000000000000000000000000000000000000000000000000000000000000000000000000000000000000000000000000000000000000000000000000000000000000000000000000000000000000000000000000000000000000000000000000000000000000000000000000000000
310
00000000000000000000000000000000000000000000000000000000000000000000000000000000000000000000000000000000000000000000000000000000000000000000000000000000000000000000000000000000000000000000000000000000000000000000000000000000000000000000000000000000000000
310
00000000000000000000000000000000000000000000000000000000000000000000000000000000000000000000000000000000000000000000000000000000000000000000000000000000000000000000000000000000000000000000000000000000000000000000000000000000000000000000000000000000000000
310
00000000000000000000000000000000000000000000000000000000000000000000000000000000000000000000000000000000000000000000000000000000000000000000000000000000000000000000000000000000000000000000000000000000000000000000000000000000000000000000000000000000000000
310
00000000000000000000000000000000000000000000000000000000000000000000000000000000000000000000000000000000000000000000000000000000000000000000000000000000000000000000000000000000000000000000000000000000000000000000000000000000000000000000000000000000000000
310
00000000000000000000000000000000000000000000000000000000000000000000000000000000000000000000000000000000000000000000000000000000000000000000000000000000000000000000000000000000000000000000000000000000000000000000000000000000000000000000000000000000000000
310
00000000000000000000000000000000000000000000000000000000000000000000000000000000000000000000000000000000000000000000000000000000000000000000000000000000000000000000000000000000000000000000000000000000000000000000000000000000000000000000000000000000000000
310
00000000000000000000000000000000000000000000000000000000000000000000000000000000000000000000000000000000000000
  0
XRECORD
  5
198DD
102
{ACAD_REACTORS
330
1950E
102
}
330
1950E
100
AcDbXrecord
280
     1
102
SHADEPLOT
 70
     0
102
SHADEPLOTRESLEVEL
 70
     2
102
SHADEPLOTCUSTOMDPI
 70
   300
  0
XRECORD
  5
1950F
102
{ACAD_REACTORS
330
1950E
102
}
330
1950E
100
AcDbXrecord
280
     1
310
28000000000100006B0000000100080000000000006B0000000000000000000000010000000000000000000000000000FFFFFF000000000000000000000000000000000000000000000000000000000000000000330000006600000099000000CC000000FF00000000330000333300006633000099330000CC330000FF3300
310
0000660000336600006666000099660000CC660000FF66000000990000339900006699000099990000CC990000FF99000000CC000033CC000066CC000099CC0000CCCC0000FFCC000000FF000033FF000066FF000099FF0000CCFF0000FFFF000000003300330033006600330099003300CC003300FF003300003333003333
310
33006633330099333300CC333300FF33330000663300336633006666330099663300CC663300FF66330000993300339933006699330099993300CC993300FF99330000CC330033CC330066CC330099CC3300CCCC3300FFCC330000FF330033FF330066FF330099FF3300CCFF3300FFFF330000006600330066006600660099
310
006600CC006600FF00660000336600333366006633660099336600CC336600FF33660000666600336666006666660099666600CC666600FF66660000996600339966006699660099996600CC996600FF99660000CC660033CC660066CC660099CC6600CCCC6600FFCC660000FF660033FF660066FF660099FF6600CCFF6600
310
FFFF660000009900330099006600990099009900CC009900FF00990000339900333399006633990099339900CC339900FF33990000669900336699006666990099669900CC669900FF66990000999900339999006699990099999900CC999900FF99990000CC990033CC990066CC990099CC9900CCCC9900FFCC990000FF99
310
0033FF990066FF990099FF9900CCFF9900FFFF99000000CC003300CC006600CC009900CC00CC00CC00FF00CC000033CC003333CC006633CC009933CC00CC33CC00FF33CC000066CC003366CC006666CC009966CC00CC66CC00FF66CC000099CC003399CC006699CC009999CC00CC99CC00FF99CC0000CCCC0033CCCC0066CC
310
CC0099CCCC00CCCCCC00FFCCCC0000FFCC0033FFCC0066FFCC0099FFCC00CCFFCC00FFFFCC000000FF003300FF006600FF009900FF00CC00FF00FF00FF000033FF003333FF006633FF009933FF00CC33FF00FF33FF000066FF003366FF006666FF009966FF00CC66FF00FF66FF000099FF003399FF006699FF009999FF00CC
310
99FF00FF99FF0000CCFF0033CCFF0066CCFF0099CCFF00CCCCFF00FFCCFF0000FFFF0033FFFF0066FFFF0099FFFF00CCFFFF00FFFFFF00000000000D0D0D001A1A1A00282828003535350043434300505050005D5D5D006B6B6B00787878008686860093939300A1A1A100AEAEAE00BBBBBB00C9C9C900D6D6D600E4E4E400
310
F1F1F100FFFFFF000000000000000000000000000000000000000000000000000000000000000000000000000000000000000000000000000000000000000000000000000000000000000000000000000000000000000000000000000000000000000000000000000000000000000000000000000000000000000000000000
310
00000000000000000000000000000000000000000000000000000000000000000000000000000000000000000000000000000000000000000000000000000000000000000000000000000000000000000000000000000000000000000000000000000000000000000000000000000000000000000000000000000000000000
310
00000000000000000000000000000000000000000000000000000000000000000000000000000000000000000000000000000000000000000000000000000000000000000000000000000000000000000000000000000000000000000000000000000000000000000000000000000000000000000000000000000000000000
310
00000000000000000000000000000000000000000000000000000000000000000000000000000000000000000000000000000000000000000000000000000000000000000000000000000000000000000000000000000000000000000000000000000000000000000000000000000000000000000000000000000000000000
310
00000000000000000000000000000000000000000000000000000000000000000000000000000000000000000000000000000000000000000000000000000000000000000000000000000000000000000000000000000000000000000000000000000000000000000000000000000000000000000000000000000000000000
310
00000000000000000000000000000000000000000000000000000000000000000000000000000000000000000000000000000000000000000000000000000000000000000000000000000000000000000000000000000000000000000000000000000000000000000000000000000000000000000000000000000000000000
310
00000000000000000000000000000000000000000000000000000000000000000000000000000000000000000000000000000000000000000000000000000000000000000000000000000000000000000000000000000000000000000000000000000000000000000000000000000000000000000000000000000000000000
310
00000000000000000000000000000000000000000000000000000000000000000000000000000000000000000000000000000000000000000000000000000000000000000000000000000000000000000000000000000000000000000000000000000000000000000000000000000000000000000000000000000000000000
310
00000000000000000000000000000000000000000000000000000000000000000000000000000000000000000000000000000000000000000000000000000000000000000000000000000000000000000000000000000000000000000000000000000000000000000000000000000000000000000000000000000000000000
310
00000000000000000000000000000000000000000000000000000000000000000000000000000000000000000000000000000000000000000000000000000000000000000000000000000000000000000000000000000000000000000000000000000000000000000000000000000000000000000000000000000000000000
310
00000000000000000000000000000000000000000000000000000000000000000000000000000000000000000000000000000000000000000000000000000000000000000000000000000000000000000000000000000000000000000000000000000000000000000000000000000000000000000000000000000000000000
310
00000000000000000000000000000000000000000000000000000000000000000000000000000000000000000000000000000000000000000000000000000000000000000000000000000000000000000000000000000000000000000000000000000000000000000000000000000000000000000000000000000000000000
310
00000000000000000000000000000000000000000000000000000000000000000000000000000000000000000000000000000000000000000000000000000000000000000000000000000000000000000000000000000000000000000000000000000000000000000000000000000000000000000000000000000000000000
310
00000000000000000000000000000000000000000000000000000000000000000000000000000000000000000000000000000000000000000000BEBEBEBEBEBEBEBEBEBEBEBEBEBEBEBEBEBEBEBEBEBEBEBEBEBEBEBEBEBEBEBEBEBE0000000000000000000000000000000000000000000000000000000000000000000000
310
00000000000000000000000000000000000000000000000000000000000000000000000000000000000000000000000000000000000000000000000000000000000000000000000000000000000000000000000000000000000000000000000000000000000000000000000000000000000000000000000000000000000000
310
000000000000000000000000000000000000000000000000000000000000000000000000000000000000000000000000000000000000000000000000BEBEBEBEBEBEBEBEBEBEBEBEBEBEBEBEBEBEBEBEBEBEBEBEBEBEBEBEBEBEBEBEBEBE000000000000000000000000000000000000000000000000000000000000000000
310
00000000000000000000000000000000000000000000000000000000000000000000000000000000000000000000000000000000000000000000000000000000000000000000000000000000000000000000000000000000000000000000000000000000000000000000000000000000000000000000000000000000000000
310
000000000000000000000000BEBEBEBEBEBEBEBEBEBEBEBEBEBEBEBE000000000000000000000000002D0000000000000000000000000000000000000000BEBEBEBEBEBEBEBEBEBEBEBEBEBEBEBEBEBEBEBEBEBEBEBEBEBEBEBEBEBEBEBEBEBE00000000000000000000000000000000000000000000000000000000000000
310
00000000000000000000000000000000000000000000000000000000000000000000000000000000000000000000000000000000000000000000000000000000000000000000000000000000000000000000000000000000000000000000000000000000000000000000000000000000000000000000000000000000000000
310
0000000000000000000000000000BEBEBEBEBEBEBEBEBEBEBEBEBEBEBEBE0000000000000000002D2DBE002D0000000000000000000000000000000000000000BEBEBEBEBEBEBEBEBEBEBEBEBEBEBEBEBEBEBEBEBEBEBEBEBEBEBEBE0000000000000000000000000000000000000000000000000000000000000000000000
310
00000000000000000000000000000000000000000000000000000000000000000000000000000000000000000000000000000000000000000000000000000000000000000000000000000000000000000000000000000000000000000000000000000000000000000000000000000000000000000000000000000000000000
310
00000000000000000000000000000000BEBEBEBEBEBEBEBEBEBEBEBEBEBEBEBE0000000000000000000000BEBE2D2D2DBE0000000000000000000000000000000000BEBEBEBEBEBEBEBEBEBEBEBEBEBEBEBEBEBEBEBEBEBEBEBEBEBEBEBE000000000000000000000000000000000000000000000000000000000000000000
310
00000000000000000000000000000000000000000000000000000000000000000000000000000000000000000000000000000000000000000000000000000000000000000000000000000000000000000000000000000000000000000000000000000000000000000000000000000000000000000000000000000000000000
310
000000000000000000000000000000000000000000BEBEBEBEBEBEBEBEBEBEBEBEBE0000000000000000000000BE00BE2D2DBE2D2D000000000000000000000000BEBEBEBEBEBEBEBEBEBEBEBEBEBEBEBEBEBEBEBEBEBEBEBEBEBEBEBEBEBEBE00000000000000000000000000000000000000000000000000000000000000
310
00000000000000000000000000000000000000000000000000000000000000000000000000000000000000000000000000000000000000000000000000000000000000000000000000000000000000000000000000000000000000000000000000000000000000000000000000000000000000000000000000000000000000
310
0000000000000000000000000000000000000000000000BEBEBEBEBEBEBEBEBEBEBEBEBE00000000000000000000BE00BEBE2D00BE0000000000000000000000000000BE0000BEBEBEBEBEBEBEBEBEBEBEBEBEBEBEBEBEBEBEBEBEBEBEBEBEBEBEBE0000000000000000000000000000000000000000000000000000000000
310
00000000000000000000000000000000000000000000000000000000000000000000000000000000000000000000000000000000000000000000000000000000000000000000000000000000000000000000000000000000000000000000000000000000000000000000000000000000000000000000000000000000000000
310
00000000000000000000000000000000000000000000000000BEBEBEBEBEBEBEBEBEBEBEBEBE00000000000000000000BE0000BE00BE000000000000000000000000000000BE000000000000000000000000000000000000000000000000000000000000000000000000000000000000000000000000000000000000000000
310
00000000000000000000000000000000000000000000000000000000000000000000000000000000000000000000000000000000000000000000000000000000000000000000000000000000000000000000000000000000000000000000000000000000000000000000000000000000000000000000000000000000000000
310
000000000000000000000000000000000000000000000000000000BEBEBEBEBEBEBEBEBEBEBEBEBE00000000000000000000BEBE000000BE000000000000000000000000000000BE00000000000000000000000000000000000000000000000000000000000000000000000000000000000000000000000000000000000000
310
00000000000000000000000000000000000000000000000000000000000000000000000000000000000000000000000000000000000000000000000000000000000000000000000000000000000000000000000000000000000000000000000000000000000000000000000000000000000000000000000000000000000000
310
00000000000000000000000000000000000000000000000000000000BEBEBEBEBEBEBEBEBEBEBEBEBEBE00000000000000000000BEBEBE0000BE0000000000000000000000000000BE000000000000000000000000000000000000000000000000000000000000000000000000000000000000000000000000000000000000
310
00000000000000000000000000000000000000000000000000000000000000000000000000000000000000000000000000000000000000000000000000000000000000000000000000000000000000000000000000000000000000000000000000000000000000000000000000000000000000000000000000000000000000
310
000000000000000000000000000000000000000000000000000000000000BEBEBEBEBEBEBEBEBEBEBEBEBEBE000000000000000000BE0000000000BE0000000000000000000000000000BE000000000000000000000000000000BEBEBEBEBEBEBEBEBEBEBEBEBEBEBEBEBEBEBEBEBEBEBEBEBEBEBEBEBEBEBEBEBEBE000000
310
00000000000000000000000000000000000000000000000000000000000000000000000000000000000000000000000000000000000000000000000000000000000000000000000000000000000000000000000000000000000000000000000000000000000000000000000000000000000000000000000000000000000000
310
0000000000000000000000000000000000000000000000000000000000000000BEBEBEBEBEBEBEBEBEBEBEBEBEBE000000000000000000BE00BE0000BE000000000000000000000000000000BE000000000000000000000000000000BEBEBEBEBEBEBEBEBEBEBEBEBEBEBEBEBEBEBEBEBEBEBEBEBEBEBEBEBEBEBEBEBEBE00
310
00000000000000000000000000000000000000000000000000000000000000000000000000000000000000000000000000000000000000000000000000000000000000000000000000000000000000000000000000000000000000000000000000000000000000000000000000000000000000000000000000000000000000
310
000000000000000000000000000000000000000000000000000000000000000000000000000000000000000000000000000000000000000000BE00BE0000BE000000000000000000000000000000BE000000000000000000000000000000BEBEBEBEBEBEBEBEBEBEBEBEBEBEBEBEBEBEBEBEBEBEBEBEBEBEBEBEBEBEBEBEBE
310
BE000000000000000000000000000000000000000000000000000000000000000000000000000000000000000000000000000000000000000000000000000000000000000000000000000000000000000000000000000000000000000000000000000000000000000000000000000000000000000000000000000000000000
310
00000000000000000000000000000000000000000000000000000000000000000000BEBEBEBEBEBEBEBEBEBEBEBEBEBEBEBE000000000000000000BE00BEBE00BE000000000000000000000000000000BE000000000000000000000000000000BEBEBEBEBEBEBEBEBEBEBEBEBEBEBEBEBEBEBEBEBEBEBEBEBEBEBEBEBEBEBE
310
BEBEBE00000000000000000000000000000000000000000000000000000000000000000000000000000000000000000000000000000000000000000000000000000000000000000000000000000000000000000000000000000000000000000000000000000000000000000000000000000000000000000000000000000000
310
000000000000000000000000000000000000000000000000000000000000000000000000BEBEBEBEBEBEBEBEBEBEBEBEBEBEBEBE0000BEBEBE000000BE000000BE00BE000000000000000000000000000000BE000000000000000000000000000000BEBEBEBEBEBEBEBEBEBEBEBEBEBEBEBEBEBEBEBEBEBEBEBEBEBEBEBE00
310
00000000000000000000000000000000000000000000000000000000000000000000000000000000000000000000000000000000000000000000000000000000000000000000000000000000000000000000000000000000000000000000000000000000000000000000000000000000000000000000000000000000000000
310
0000000000000000000000000000000000000000000000000000000000000000000000000000BEBEBEBEBEBEBEBEBEBEBEBEBEBEBEBE0000000000BE0000BEBEBE00BEBE00000000000000000000000000000000BE000000000000000000000000000000BEBEBEBEBEBEBEBEBEBEBEBEBEBEBEBEBEBEBEBEBEBEBEBEBEBEBE
310
BE000000000000000000000000000000000000000000000000000000000000000000000000000000000000000000000000000000000000000000000000000000000000000000000000000000000000000000000000000000000000000000000000000000000000000000000000000000000000000000000000000000000000
310
0000000000000000000000000000000000000000000000000000000000000000000000000000000000000000000000000000000000000000000000000000BE00BE00BEBE00BE000000000000000000000000000000BE00000000000000000000000000000000BEBEBEBEBEBEBEBEBEBEBEBEBEBEBEBEBEBEBEBEBEBEBEBEBE
310
BEBEBE00000000000000000000000000000000000000000000000000000000000000000000000000000000000000000000000000000000000000000000000000000000000000000000000000000000000000000000000000000000000000000000000000000000000000000000000000000000000000000000000000000000
310
00000000000000000000000000000000000000000000000000000000000000000000000000000000000000000000000000000000000000000000000000000000BE00BE00BE0000BE000000000000000000000000000000BE00000000000000000000000000000000BEBEBEBEBEBEBEBEBEBEBEBEBEBEBEBEBEBEBEBEBEBEBE
310
BE000000000000000000000000000000000000000000000000000000000000000000000000000000000000000000000000000000000000000000000000000000000000000000000000000000000000000000000000000000000000000000000000000000000000000000000000000000000000000000000000000000000000
310
00000000000000000000000000000000000000000000000000000000000000000000000000000000000000000000000000000000000000000000000000000000000000BE000000BE00BE000000000000000000000000000000BE00000000000000000000000000000000BEBEBEBEBEBEBEBEBEBEBEBEBEBEBEBEBEBEBEBEBE
310
BEBEBE00000000000000000000000000000000000000000000000000000000000000000000000000000000000000000000000000000000000000000000000000000000000000000000000000000000000000000000000000000000000000000000000000000000000000000000000000000000000000000000000000000000
310
000000000000000000000000000000000000000000000000000000000000000000000000000000000000000000000000000000000000000000000000000000000000000000BEBE000000BE00000000000000000000000000000000BE000000000000000000000000BEBEBEBEBEBEBEBEBEBEBEBEBEBEBEBEBEBEBEBEBEBEBE
310
BEBEBEBEBE0000000000000000000000000000000000000000000000000000000000000000000000000000000000000000000000000000000000000000000000000000000000000000000000000000000000000000000000000000000000000000000000000000000000000000000000000000000000000000000000000000
310
0000000000000000000000000000000000000000000000000000000000000000000000000000000000000000000000000000000000000000000000000000000000000000000000BE00BEBEBEBE00000000000000000000000000000000BE000000000000000000000000BE000000BEBEBEBEBEBEBEBEBEBEBEBEBEBEBEBEBE
310
BEBEBEBEBEBEBE000000000000000000000000000000000000000000000000000000000000000000000000000000000000000000000000000000000000000000000000000000000000000000000000000000000000000000000000000000000000000000000000000000000000000000000000000000000000000000000000
310
00000000000000000000000000000000000000000000000000000000000000000000000000000000000000000000000000000000000000000000000000000000000000000000000000BE00BEBE00BE00000000000000000000000000000000BE0000000000000000000000BE00000000000000000000000000000000000000
310
00000000000000000000000000000000000000000000000000000000000000000000000000000000000000000000000000000000000000000000000000000000000000000000000000000000000000000000000000000000000000000000000000000000000000000000000000000000000000000000000000000000000000
310
0000000000000000000000000000000000000000000000000000000000000000000000000000000000000000000000000000000000000000000000000000000000000000000000000000BE00BE00BEBEBE000000000000000000000000000000BE000000000000000000000000BE0000000000000000000000000000000000
310
00000000000000000000000000000000000000000000000000000000000000000000000000000000000000000000000000000000000000000000000000000000000000000000000000000000000000000000000000000000000000000000000000000000000000000000000000000000000000000000000000000000000000
310
00000000000000000000000000000000000000000000000000000000000000000000000000000000000000000000000000000000000000000000000000000000000000000000000000000000BE00000000BE00000000000000000000000000000000BE0000000000000000000000BE00000000000000000000000000000000
310
00000000000000000000000000000000000000000000000000000000000000000000000000000000000000000000000000000000000000000000000000000000000000000000000000000000000000000000000000000000000000000000000000000000000000000000000000000000000000000000000000000000000000
310
000000000000000000000000000000000000000000000000000000000000000000000000000000000000000000000000000000000000000000000000000000000000000000000000000000000000BEBE0000BEBEBE000000000000000000000000000000BE0000000000000000000000BE0000000000000000000000000000
310
000000BEBEBEBEBEBEBEBEBEBEBEBEBEBEBEBEBEBEBEBEBE00000000000000000000000000000000000000000000000000000000000000000000000000000000000000000000000000000000000000000000000000000000000000000000000000000000000000000000000000000000000000000000000000000000000000
310
0000000000000000000000000000000000000000000000000000000000000000000000000000000000000000000000000000000000000000000000000000000000000000000000000000000000000000BEBE000000BEBE000000000000000000000000000000BE0000000000000000000000BE000000000000000000000000
310
0000000000BEBEBEBEBEBEBEBEBEBEBEBEBEBEBEBEBEBEBEBEBE0000000000000000000000000000000000000000000000000000000000000000000000000000000000000000000000000000000000000000000000000000000000000000000000000000000000000000000000000000000000000000000000000000000000
310
000000000000000000000000000000000000000000000000000000000000000000000000000000000000000000000000000000000000000000000000000000000000000000000000000000000000000000BE000000BEBEBE00BE0000000000000000000000000000BE00000000000000000000BE0000000000000000000000
310
00000000000000BEBEBEBEBEBEBEBEBEBEBEBEBEBEBEBEBEBEBEBEBE000000000000000000000000000000000000000000000000000000000000000000000000000000000000000000000000000000000000000000000000000000000000000000000000000000000000000000000000000000000000000000000000000000
310
0000000000000000000000000000000000000000000000000000000000000000000000000000000000000000000000000000000000000000000000000000000000000000000000000000000000000000000000BEBEBE00BEBE000000BE00000000000000000000000000BE00000000000000000000BE000000000000000000
310
00000000000000000000000000000000000000000000000000000000000000000000000000000000000000000000000000000000000000000000000000000000000000000000000000000000000000000000000000000000000000000000000000000000000000000000000000000000000000000000000000000000000000
310
00000000000000000000000000000000000000000000000000000000000000000000000000000000000000000000000000000000000000000000000000000000BEBEBEBEBEBEBEBEBEBE0000000000000000000000BE00000000BE00000000BE000000000000000000000000BE000000000000000000BE0000000000000000
310
0000000000000000000000BEBEBEBEBEBEBEBEBEBEBEBEBEBEBEBEBEBEBEBEBEBEBEBEBEBEBEBE00000000000000000000000000000000000000000000000000000000000000000000000000000000000000000000000000000000000000000000000000000000000000000000000000000000000000000000000000000000
310
000000000000000000000000000000000000000000000000000000000000000000000000000000000000000000000000000000000000000000000000000000000000BEBEBEBEBEBEBEBEBEBE0000000000000000000000BE00000000BE00000000BE0000000000000000000000BE00000000000000000000BE000000000000
310
000000000000000000BEBEBE00BEBEBEBEBEBEBEBEBEBEBEBEBEBEBEBEBEBEBEBEBEBEBEBEBEBEBEBE0000000000000000000000000000000000000000000000000000000000000000000000000000000000000000000000000000000000000000000000000000000000000000000000000000000000000000000000000000
310
0000000000000000000000000000000000000000000000000000000000000000000000000000000000000000000000000000000000000000000000000000000000000000BEBEBEBEBEBEBEBEBEBE00000000000000000000BEBE00BE00BEBE2D2D000000BE00000000000000000000BE00000000000000000000BE00000000
310
0000000000000000000000BE000000BEBEBEBEBEBEBEBEBEBEBEBEBEBEBEBEBEBEBEBEBEBEBEBEBEBEBEBE000000000000000000000000000000000000000000000000000000000000000000000000000000000000000000000000000000000000000000000000000000000000000000000000000000000000000000000000
310
0000000000000000000000000000000000000000000000000000000000000000000000000000000000000000000000000000000000000000000000000000000000BEBEBEBEBEBEBEBEBEBEBEBEBEBEBE00000000000000000000BEBE00BEBEBE002D2D2D2D2D2DBE000000000000000000BE000000000000000000BE000000
310
000000000000000000000000BE000000000000000000000000000000000000000000000000000000000000000000000000000000000000000000000000000000000000000000000000000000000000000000000000000000000000000000000000000000000000000000000000000000000000000000000000000000000000
310
00000000000000000000000000000000000000000000000000000000000000000000000000000000000000000000000000000000000000000000000000000000000000BEBEBEBEBEBEBEBEBEBEBEBEBEBEBE00000000000000000000BEBEBE0000BE002DB82D2D2D2D2DBEBEBEBE00000000BEBE000000000000000000BE00
310
0000000000000000000000000000BE00000000000000000000000000000000000000000000000000000000000000000000000000000000000000000000000000000000000000000000000000000000000000000000000000000000000000000000000000000000000000000000000000000000000000000000000000000000
310
000000000000000000000000000000000000000000000000000000000000000000000000000000000000000000000000000000000000000000000000000000000000000000BEBEBEBEBEBEBEBEBEBEBEBEBEBEBE0000BEBEBE0000000000BE00BE00BEBE002DB8000000002DBEB8B8B8BEBEBEBEBEBE0000000000000000BE
310
000000000000000000000000000000BE000000000000000000000000000000000000000000BEBEBEBEBEBEBEBEBEBEBEBEBEBEBEBEBEBEBEBEBEBEBEBE000000000000000000000000000000000000000000000000000000000000000000000000000000000000000000000000000000000000000000000000000000000000
310
0000000000000000000000000000000000000000000000000000000000000000000000000000000000000000000000000000000000000000000000000000000000000000000000BEBEBEBEBEBEBEBEBEBEBEBEBEBEBE0000000000BEBE0000BE0000000000BE2D00B8000000000000BE0000B8B8B8BEBEBEBEBE0000000000
310
00BEBE0000000000000000000000000000BE000000000000000000000000000000000000000000BEBEBEBEBEBEBEBEBEBEBEBEBEBEBEBEBEBEBEBEBEBEBEBE00000000000000000000000000000000000000000000000000000000000000000000000000000000000000000000000000000000000000000000000000000000
310
0000000000000000000000000000000000000000000000000000000000000000000000000000000000000000000000000000000000000000000000000000000000000000000000000000000000000000000000000000000000000000000000BE00BE00000000BE002D00B8B8B8000000B8BEBE000000B8B8BEBEBEBEBEBEBE
310
BEBEBEBEBE00000000000000000000000000BE00000000000000000000000000000000000000000000BEBEBEBEBEBEBEBEBEBEBEBEBEBEBEBEBEBEBEBEBEBEBEBE0000000000000000000000000000000000000000000000000000000000000000000000000000000000000000000000000000000000000000000000000000
310
0000000000000000000000000000000000000000000000000000000000000000000000000000000000000000000000000000000000000000000000000000000000000000000000000000000000000000000000000000000000000000000000000000BEBEBE0000BEBE002D00000000B8B8B8BE0000BE000000B800000000BE
310
BEB8BEBEBEBEBEBE000000000000000000000000BE00000000000000000000000000000000000000000000BEBEBEBEBEBEBEBEBEBEBEBEBEBEBEBEBEBEBEBEBEBEBEBE000000000000000000000000000000000000000000000000000000000000000000000000000000000000000000000000000000000000000000000000
310
0000000000000000000000000000000000000000000000000000000000000000000000000000000000000000000000000000000000000000000000000000000000000000000000000000000000000000000000000000000000000000000000000000000000BEBE000000BE002D00000000000000BE0000BEBEBEBEB8000000
310
0000B8B800BEBEB8B8BEBEBEBEBE00000000000000BE0000000000000000000000000000000000000000000000BEBEBEBEBEBEBEBEBEBEBEBEBE000000000000000000000000000000000000000000000000000000000000000000000000000000000000000000000000000000000000000000000000000000000000000000
310
00000000000000000000000000000000000000000000000000000000000000000000000000000000000000000000000000000000000000000000000000000000000000000000000000000000000000000000000000000000000000000000000000000000000000BE00BE0000BE2D0000000000000000BE000000BE0000B8B8
310
B8BEBEB8B80000BEBE00B800BEBEBEBEBEBEBEBE000000BE0000000000000000000000000000000000000000000000BEBEBEBEBEBEBEBEBEBEBEBEBE00000000000000000000000000000000000000000000000000000000000000000000000000000000000000000000000000000000000000000000000000000000000000
310
0000000000000000000000000000000000000000000000000000000000000000000000000000000000000000000000000000000000000000000000000000000000000000000000000000000000000000000000000000000000000000000000000000000000000000BEBE00BEBEBEBE2D00000000000000BE00000000BEBE00
310
000000B8B8B8BEBEBEBEBE00B8B800000000BEB8B8B8B8BEBEBEBE000000000000000000000000000000000000BEBEBEBEBEBEBEBEBEBEBEBEBEBEBEBEBE0000000000000000000000000000000000000000000000000000000000000000000000000000000000000000000000000000000000000000000000000000000000
310
00000000000000000000000000000000000000000000000000000000000000000000000000000000000000000000000000000000000000000000000000000000000000000000000000000000000000000000000000000000000000000000000000000000000000000000BE000000BEBEBE2D00000000000000BEBE0000BE00
310
00BE000000000000000000BEBEBEB8B800BEBE0000B80000B8B8B8B8BEBEBEBEBE0000000000000000000000000000BE00000000000000000000000000000000000000000000000000000000000000000000000000000000000000000000000000000000000000000000000000000000000000000000000000000000000000
310
000000000000000000000000000000000000000000000000000000000000000000000000000000000000000000000000000000000000000000000000000000000000000000000000000000000000000000000000000000000000000000000000000000000000000000000000BEBEBEBEBEBEBE2D000000000000000000BEBE
310
BE2DBEBEBEBE0000000000000000000000B8BEBEBEBEB800000000BEBEB800BEBEBEBEBEBEBEBEBE0000000000000000BE000000000000000000000000000000000000000000000000000000000000000000000000000000000000000000000000000000000000000000000000000000000000000000000000000000000000
310
0000000000000000000000000000000000000000000000000000000000000000000000000000000000000000000000000000000000000000000000000000000000000000000000000000000000000000000000000000000000000000000000000000000000000000000000000000BE00BE0000BE2D00000000000000000000
310
00002D2D2DBEBEBEBEBE0000000000000000000000B8B8B8B8BEBEBEBEBE00B8000000000000B8B8B8BEBEBEBEBE00000000BE00000000000000000000000000000000000000000000000000000000000000000000000000000000000000000000000000000000000000000000000000000000000000000000000000000000
310
00000000000000000000000000000000000000000000000000000000000000000000000000000000000000000000000000000000000000000000000000000000000000000000000000000000000000000000000000BEBEBEBEBEBEBEBEBEBEBEBEBEBEBE0000000000000000000000BE00000000BEBE2D0000000000000000
310
0000000000002DBEBEBE2D2D2DBEBEBE0000000000000000000000000000BEBEBEB8B8B800000000B80000B8B8B8B8BEBEBEBEBE00000000000000000000002D000000000000000000000000000000000000000000000000000000000000000000000000000000000000000000000000000000000000000000000000000000
310
000000000000000000000000000000000000000000000000000000000000000000000000000000000000000000000000000000000000000000000000000000000000000000000000000000000000000000000000000000BEBEBEBEBEBEBEBEBEBEBEBEBEBEBE0000000000000000000000BE0000BE00BE002D000000000000
310
000000000000000000BEBE002D2D2D00BEBEBEBEBEBEBE00000000000000000000000000B8B8B8B8B8B8000000000000B8000000BEBEBEBEB8B8BE0000000000002D00000000000000000000000000000000000000000000000000000000000000000000000000000000000000000000000000000000000000000000000000
310
0000000000000000000000000000000000000000000000000000000000000000000000000000000000000000000000000000000000000000000000000000000000000000000000000000000000000000000000000000000000BEBEBEBEBEBEBEBEBEBEBEBEBEBEBE0000000000000000000000BE00BEBE00BE002D00000000
310
0000000000000000000000BEBE0000002D00000000BEBEBEBEBEBEBEBEBE00000000000000000000B8B8B800BEBEBEBE0000B8000000BE0000B8B8B8B8B8B8BEBE00002D0000000000000000000000000000000000000000000000000000000000000000000000000000000000000000000000000000000000000000000000
310
000000000000000000000000000000000000000000000000000000000000000000000000000000000000000000000000000000000000000000000000000000000000000000000000000000000000000000000000000000000000000000000000000000000000000000000000000000000000000000BEBE0000BEBE2D000000
310
0000000000000000000000000000000000002D00000000DC00DCBEBEBEBEBEBEBEBEBEBE0000000000000000000000000000BEBEB8B8B800BE0000B80000B8B8B8B8BEBE2DBE000000000000000000000000000000000000000000000000000000000000000000000000000000000000000000000000000000000000000000
310
00000000000000000000000000000000000000000000000000000000000000000000000000000000000000000000000000000000000000000000000000000000000000000000000000000000000000000000000000000000000000000000BEBEBEBEBEBEBEBEBEBEBEBEBEBE00000000000000000000BE000000BE00BE2D00
310
000000000000000000000000000000000000002D000000002DDCDCDCDCDCDCDCBEBEBEBEBEBEBEBEBEBEBE00000000000000000000000000BEB8B8B8B8000000000000B800002D0000000000000000000000000000000000000000000000000000000000000000000000000000000000000000000000000000000000000000
310
000000000000000000000000000000000000000000000000000000000000000000000000000000000000000000000000000000000000000000000000000000000000000000000000000000000000000000000000000000000000000000000000BEBEBEBEBEBEBEBEBEBEBEBEBEBE00BEBEBEBE0000000000BE00BE0000BE00
310
2D00000000000000000000000000000000000000002D00000000002D2DDC00DCDC00DCDC00DC00BEBEBEBEBEBEBEBEBEBEBE000000000000000000000000BEBEBEBE000000B800002D000000000000000000000000000000000000000000000000000000000000000000000000000000000000000000000000000000000000
310
0000000000000000000000000000000000000000000000000000000000000000000000000000000000000000000000000000000000000000000000000000000000000000000000000000000000000000000000000000000000000000000000000000BEBEBEBEBEBEBEBEBEBEBEBEBEBE0000000000BE00000000BE000000BE
310
BE002D00000000000000000000000000000000000000002D000000000000002DDC00DCDC00DCDC00DC00DCDCDCBEBEBEBEBEBEBEBEBEBEBEBE0000000000000000000000BEBEBEB8B8B82D00000000000000000000000000000000000000000000000000000000000000000000000000000000000000000000000000000000
310
000000000000000000000000000000000000000000000000000000000000000000000000000000000000000000000000000000000000000000000000000000000000000000000000000000000000000000000000000000000000000000000000000000000000000000000000000000000000000000000000BE000000BE0000
310
00BEBE2D0000000000000000000000000000000000000000002D000000000000002D00DCDC00DC00DCDC00DC00DCDCDC00DCDCBEBEBEBEBEBEBEBEBEBEBEBE0000000000000000000000BEB82D0000000000000000000000000000000000000000000000000000000000000000000000000000000000000000000000000000
310
000000000000000000000000000000000000000000000000000000000000000000000000000000000000000000000000000000000000000000000000000000000000000000000000000000000000000000000000000000000000000000000000000000000000000000000000000000000000000000000000000000BE00BE00
310
00BEBEBEBE2D2D2D00000000BEBE0000000000000000000000002D00000000000000002DDCDCDCDCDCDC00DCDCDCDC00DCDCDCDCDCDCDCDC00DCBEBEBEBEBEBEBEBEBEBEBEBE00000000000000002D000000000000000000000000000000000000000000000000000000000000000000000000000000000000000000000000
310
0000000000000000000000000000000000000000000000000000000000000000000000000000000000000000000000000000000000000000000000000000000000000000000000000000000000000000000000000000000000000000000000000000000000000000000000000000000000000000000000000000000000BEBE
310
BE0000BE00BEBE00BEBE2D2D2D2DBEBEBEBE000000000000000000002D0000000000000000002D2DDCDC00DCDC00DCDC00DC00DCDC00DCDC00DCDC00DCDC00DCBEBEBEBEBEBEBEBEBEBEBEBEBE00002D0000000000000000000000000000000000000000000000000000000000000000000000000000000000000000000000
310
00000000000000000000000000000000000000000000000000000000000000000000000000000000000000000000000000000000000000000000000000000000000000000000000000000000000000000000000000000000000000000000000000000000000000000000000000000000000000000000000000000000000000
310
00BEBE00BE0000BEBE0000BE00BEBEBEBEBEBEBE000000000000000000002D00000000000000000000002D00DCDC00DC00DCDC00DC00DCDCDC00DCDC00DC00DCDC00DC00DCDCDCBEBEBEBEBEBEBEBEBEBE2D000000000000000000000000000000000000000000000000000000000000000000000000000000000000000000
310
00000000000000000000000000000000000000000000000000000000000000000000000000000000000000000000000000000000000000000000000000000000000000000000000000000000000000000000000000000000000000000000000000000000000000000000000000000000000000000000000000000000000000
310
00000000BEBEBEBE00BE00BE0000BEBEBE00BEBEBEBE2D2D2D2D0000000000002D0000000000000000002DDCDCDCDC00DCDCDCDCDCDCDCDC00DCDCDCDCDCDCDCDC00DCDCDCDC00DCDCDCDCDCDCBEBEBEBEBEBE2D00000000000000000000000000000000000000000000000000000000000000000000000000000000000000
310
00000000000000000000000000000000000000000000000000000000000000000000000000000000000000000000000000000000000000000000000000000000000000000000000000000000000000000000000000000000000000000000000000000000000000000000000000000000000000000000000000000000000000
310
0000000000BE00BE0000BEBEBE0000000000BE00BEBEBE00000000BE2D2D2DBE002D0000BEBEBE00000000002D00DCDC00DC00DCDCDC00DCDC00DC00DCDC00DCDC00DCDC00DCDC00DC00DCDCDC00DC00DCDCDCBEBE2D0000000000000000000000000000000000000000000000000000000000000000000000000000000000
310
00000000000000000000000000000000000000000000000000000000000000000000000000000000000000000000000000000000000000000000000000000000000000000000000000000000000000000000000000000000000000000000000000000000000000000000000000000000000000000000000000000000000000
310
00000000000000BE00000000BE0000BEBEBEBE000000BEBEBEBEBE000000000000BEBE2D2DBEBEBEBEBE0000000000DC00DCDCDC0000DCDCDC00DCDC00DC00DCDCDC00DCDC00DC00DCDC00DC00DCDCDC00DCDC00DCDC002D000000000000000000000000000000000000000000000000000000000000000000000000000000
310
00000000000000000000000000000000000000000000000000000000000000000000000000000000000000000000000000000000000000000000000000000000000000000000000000000000000000000000000000000000000000000000000000000000000000000000000000000000000000000000000000000000000000
310
000000000000000000BE00BE00BEBE000000000000BEBEBEBEBE0000BE00BE00BEBE00BE00BEBE2DBEBEBEBEBE000000002DDC00DCDCDCDC00DCDCDCDCDCDCDCDC00DCDCDCDCDCDCDCDCDCDCDCDCDC00DCDCDCDCDCDCDCDC2D0000000000000000000000000000000000000000000000000000000000000000000000000000
310
00000000000000000000000000000000000000000000000000000000000000000000000000000000000000000000000000000000000000000000000000000000000000000000000000000000000000000000000000000000000000000000000000000000000000000000000000000000000000000000000000000000000000
310
0000000000000000000000BE00BE0000BE0000000000000000BEBEBEBEBEBEBEBEBE00BE000000BE0000BEBEBE2D2DF5BEBEBEBEBEBE00DCDC00DC00DCDCDC00DC00DCDC00DCDC00DCDC00DCDC00DCDC00DC00DCDC00DCDC00DC2D000000000000000000000000000000000000000000000000000000000000000000000000
310
00000000000000000000000000000000000000000000000000000000000000000000000000000000000000000000000000000000000000000000000000000000000000000000000000000000000000000000000000000000000000000000000000000000000000000000000000000000000000000000000000000000000000
310
000000000000000000000000BEBE00BE0000BE0000000000000000BEBEBE00000000BEBEBEBEBEBEBE000000BEBEBE0000BEBEBEBEBEBEBEBEBEBEBE00DC00DCDCDC00DCDC00DC00DCDCDC00DC00DCDCDC00DC00DC00DCDCDC00DCDC2D2D000000000000000000000000000000000000000000000000000000000000000000
310
00000000000000000000000000000000000000000000000000000000000000000000000000000000000000000000000000000000000000000000000000000000000000000000000000000000000000000000000000000000000000000000000000000000000000000000000000000000000000000000000000000000000000
310
0000000000000000000000000000BE00BEBE00BE00000000000000000000BE00000000000000000000BEBEBEBE00BEBEBE0000BEBE00000000BEBE00BEBEBEBEBEBEBEDCDCDCDCDCDCDC00DCDCDCDCDCDCBEDCDC00DCDCDC00DCDCDC2D2DDC0000000000000000000000000000000000000000000000000000000000000000
310
00000000000000000000000000000000000000000000000000000000000000000000000000000000000000000000000000000000000000000000000000000000000000000000000000000000000000000000000000000000000000000000000000000000000000000000000000000000000000000000000000000000000000
310
00000000000000000000000000000000BE00BEBEBEBE00000000000000000000BEBE00000000000000000000000000BEBEBEBEBE0000BE00BE00000000BE00BE00BEBEBEBEBEBEBEBEBE00DCDC00DCDC00DCDCBEDCDCDC00DC00DC00DCDC002D00000000000000000000000000000000000000000000000000000000000000
310
00000000000000000000000000000000000000000000000000000000000000000000000000000000000000000000000000000000000000000000000000000000000000000000000000000000000000000000000000000000000000000000000000000000000000000000000000000000000000000000000000000000000000
310
000000000000000000000000000000000000BE000000BEBE00000000000000000000BEBE00000000000000000000000000BEBEBE0000BEBEBEBEBE00BEBE000000BE00BE00000000BEBEBEBEBEBEBEBE00DCDC00DCDC00DCDCDC00DC00DC00DCDC2D0000000000000000000000000000000000000000000000000000000000
310
00000000000000000000000000000000000000000000000000000000000000000000000000000000000000000000000000000000000000000000000000000000000000000000000000000000000000000000000000000000000000000000000000000000000000000000000000000000000000000000000000000000000000
310
00000000000000000000000000000000000000BE00BE00BEBEBE00000000000000000000BE000000000000000000000000000000BEBE00000000BE00BEBEBEBEBE00000000BEBEBE00000000000000BEBEBEBEBEBEBEBEBEDCDCDCDCDC00DCDCDC00DC2D000000000000000000000000000000000000000000000000000000
310
00000000000000000000000000000000000000000000000000000000000000000000000000000000000000000000000000000000000000000000000000000000000000000000000000000000000000000000000000000000000000000000000000000000000000000000000000000000000000000000000000000000000000
310
000000000000000000000000000000000000000000BE00000000BE0000000000000000000000BE000000000000000000000000000000BE0000000000BE000000000000BEBEBEBEBEBE00BEBEBEBE0000BE00BE0000BEBEBEBEBEBEBEBEBEDCDC0000DCDC2DDC00000000000000000000000000000000000000000000000000
310
00000000000000000000000000000000000000000000000000000000000000000000000000000000000000000000000000000000000000000000000000000000000000000000000000000000000000000000000000000000000000000000000000000000000000000000000000000000000000000000000000000000000000
310
0000000000000000000000000000000000000000000000BE00000000BE0000000000000000000000BE0000000000000000000000000000BEBE000000000000BE000000000000000000BEBEBEBE000000BE00000000BEBE0000BE0000BEBEBEBEBEBEBEBEDC002D000000000000000000000000000000000000000000000000
310
00000000000000000000000000000000000000000000000000000000000000000000000000000000000000000000000000000000000000000000000000000000000000000000000000000000000000000000000000000000000000000000000000000000000000000000000000000000000000000000000000000000000000
310
00000000000000000000000000000000000000000000000000BE00BEBEBEBE000000000000000000000000BE000000000000000000000000BEBE00000000000000BE00000000000000000000000000BEBEBEBEBE00000000000000BEBEBEBE0000BEBEBEBEDCBEBE2D00000000000000000000000000000000000000000000
310
00000000000000000000000000000000000000000000000000000000000000000000000000000000000000000000000000000000000000000000000000000000000000000000000000000000000000000000000000000000000000000000000000000000000000000000000000000000000000000000000000000000000000
310
0000000000000000000000000000000000000000000000000000BE00BE000000BE000000000000000000000000BE00000000000000000000000000BE00000000000000BE000000000000000000000000000000000000BEBEBEBEBE00000000BEBE00BE000000BE00BEBE2D0000000000000000000000000000000000000000
310
00000000000000000000000000000000000000000000000000000000000000000000000000000000000000000000000000000000000000000000000000000000000000000000000000000000000000000000000000000000000000000000000000000000000000000000000000000000000000000000000000000000000000
310
00000000000000000000000000000000000000000000000000000000BEBEBE0000BE00000000000000000000000000BE000000000000000000000000BE0000000000000000BE00000000000000000000000000000000000000000000BEBEBEBEBE00BE0000BE00000000002D00000000000000000000000000000000000000
310
00000000000000000000000000000000000000000000000000000000000000000000000000000000000000000000000000000000000000000000000000000000000000000000000000000000000000000000000000000000000000000000000000000000000000000000000000000000000000000000000000000000000000
310
000000000000000000000000000000000000000000000000000000000000BE00000000BE00000000000000000000000000BE000000000000000000000000BE0000000000000000BE000000000000000000000000000000000000000000000000000000BEBEBEBE00BEBE0000BE2D0000000000000000000000000000000000
310
00000000000000000000000000000000000000000000000000000000000000000000000000000000000000000000000000000000000000000000000000000000000000000000000000000000000000000000000000000000000000000000000000000000000000000000000000000000000000000000000000000000000000
310
0000000000000000000000000000000000000000000000000000000000000000BEBE000000BE00000000000000000000000000BE0000000000000000000000BE000000000000000000BE0000000000000000000000000000000000000000000000000000000000BE00BEBEBEBEBEBE2D000000000000000000000000000000
310
00000000000000000000000000000000000000000000000000000000000000000000000000000000000000000000000000000000000000000000000000000000000000000000000000000000000000000000000000000000000000000000000000000000000000000000000000000000000000000000000000000000000000
310
000000000000000000000000000000000000000000000000000000000000000000BE00BE0000BEBE00000000000000000000000000BE0000000000000000000000BE000000000000000000BE0000000000000000000000000000000000000000000000000000000000BE0000000000BEBE2D00000000000000000000000000
310
00000000000000000000000000000000000000000000000000000000000000000000000000000000000000000000000000000000000000000000000000000000000000000000000000000000000000000000000000000000000000000000000000000000000000000000000000000000000000000000000000000000000000
310
0000000000000000000000000000000000000000000000000000000000000000002D2DBEBE2DBE00BE000000000000000000000000000000BE000000000000000000BE00000000000000000000BE0000000000000000000000000000000000000000000000000000000000BE0000000000002D000000000000000000000000
310
00000000000000000000000000000000000000000000000000000000000000000000000000000000000000000000000000000000000000000000000000000000000000000000000000000000000000000000000000000000000000000000000000000000000000000000000000000000000000000000000000000000000000
310
000000000000000000000000000000000000000000000000000000000000000000000000002D2D2D0000BE000000000000000000000000000000BE000000000000000000BE00000000000000000000BE00000000BEBEBEBEBEBEBEBEBEBEBEBEBEBEBEBEBE0000000000000000BE0000000000002D00000000000000000000
310
00000000000000000000000000000000000000000000000000000000000000000000000000000000000000000000000000000000000000000000000000000000000000000000000000000000000000000000000000000000000000000000000000000000000000000000000000000000000000000000000000000000000000
310
00000000000000000000000000000000000000000000000000000000000000000000000000000000002D2D2D2D2D0000000000000000000000000000BE000000000000000000BE0000000000000000000000BE000000BEBEBEBEBEBEBEBEBEBEBEBEBEBEBEBEBE000000000000000000BE00000000002D0000000000000000
310
00000000000000000000000000000000000000000000000000000000000000000000000000000000000000000000000000000000000000000000000000000000000000000000000000000000000000000000000000000000000000000000000000000000000000000000000000000000000000000000000000000000000000
310
000000000000000000000000000000000000000000000000000000000000000000000000000000000000002D000000000000000000000000000000000000BE0000000000000000BE000000000000000000000000BE000000BEBEBEBEBEBEBEBEBEBEBEBEBEBEBEBEBE000000000000000000BE000000000000000000000000
310
00000000000000000000000000000000000000000000000000000000000000000000000000000000000000000000000000000000000000000000000000000000000000000000000000000000000000000000000000000000000000000000000000000000000000000000000000000000000000000000000000000000000000
310
00000000000000000000000000000000000000000000000000000000000000000000000000000000000000000000000000000000000000000000000000000000BE0000000000000000BE000000000000000000000000BE000000BEBEBEBEBEBEBEBEBEBEBEBEBEBEBE0000000000000000000000BE00000000000000000000
310
00000000000000000000000000000000000000000000000000000000000000000000000000000000000000000000000000000000000000000000000000000000000000000000000000000000000000000000000000000000000000000000000000000000000000000000000000000000000000000000000000000000000000
310
000000000000000000000000000000000000000000000000000000000000000000000000000000000000000000000000000000000000000000000000000000000000BE00000000000000BE00000000000000000000000000BE000000BEBEBEBEBEBEBEBEBEBEBEBEBEBEBE0000000000000000000000BE0000000000000000
310
00000000000000000000000000000000000000000000000000000000000000000000000000000000000000000000000000000000000000000000000000000000000000000000000000000000000000000000000000000000000000000000000000000000000000000000000000000000000000000000000000000000000000
310
000000000000000000000000000000000000000000000000000000000000000000000000000000000000000000000000000000000000000000000000000000000000000000BE000000000000BE00000000000000000000000000BEBEBE00BEBEBEBEBEBEBEBEBEBEBEBEBEBEBE000000000000000000000000BE0000BEBEBE
310
BEBEBEBEBEBEBEBEBEBEBEBEBEBEBE00000000000000000000000000000000000000000000000000000000000000000000000000000000000000000000000000000000000000000000000000000000000000000000000000000000000000000000000000000000000000000000000000000000000000000000000000000000
310
0000000000000000000000000000000000000000000000000000000000000000000000000000000000000000000000000000000000000000000000000000000000000000000000BE0000000000BE000000000000000000000000000000000000BEBEBEBEBEBEBEBEBEBEBEBEBEBEBE000000000000000000000000BE0000BE
310
BEBEBEBEBEBEBEBEBEBEBEBEBEBEBEBEBE0000000000000000000000000000000000000000000000000000000000000000000000000000000000000000000000000000000000000000000000000000000000000000000000000000000000000000000000000000000000000000000000000000000000000000000000000000
310
00000000000000000000000000000000000000000000000000000000000000000000000000000000000000000000000000000000000000000000000000000000000000000000000000BE0000000000BEBEBEBEBEBE00000000000000000000000000000000000000000000000000000000000000000000000000000000BEBE
310
BEBEBEBEBEBEBEBEBEBEBEBEBEBEBEBEBEBEBE000000000000000000000000000000000000000000000000000000000000000000000000000000000000000000000000000000000000000000000000000000000000000000000000000000000000000000000000000000000000000000000000000000000000000000000000
310
000000000000000000000000000000000000000000000000000000000000000000000000000000000000000000000000000000000000000000000000000000000000000000000000000000BE00000000BEBEBEBEBEBEBE00000000000000000000000000000000000000000000000000000000000000000000000000000000
310
00000000000000000000000000000000000000000000000000000000000000000000000000000000000000000000000000000000000000000000000000000000000000000000000000000000000000000000000000000000000000000000000000000000000000000000000000000000000000000000000000000000000000
310
0000000000000000000000000000000000000000000000000000000000000000000000000000000000000000000000000000000000000000000000000000000000000000000000000000000000BE00000000BEBEBEBEBEBEBE0000000000000000000000000000000000000000000000000000000000000000000000000000
310
00000000000000000000000000000000000000000000000000000000000000000000000000000000000000000000000000000000000000000000000000000000000000000000000000000000000000000000000000000000000000000000000000000000000000000000000000000000000000000000000000000000000000
310
00000000000000000000000000000000000000000000000000000000000000000000000000000000000000000000000000000000000000000000000000000000000000000000000000000000000000BE00000000BEBEBEBEBEBEBEBEBEBEBEBEBEBEBEBEBEBEBEBEBEBEBE0000000000000000000000000000000000000000
310
00000000000000000000000000000000000000000000000000000000000000000000000000000000000000000000000000000000000000000000000000000000000000000000000000000000000000000000000000000000000000000000000000000000000000000000000000000000000000000000000000000000000000
310
00000000000000000000000000000000000000000000000000000000000000000000000000000000000000000000000000000000000000000000000000000000000000000000000000000000000000000000BE0000BE00BEBEBEBEBEBEBEBEBEBEBEBEBEBEBEBEBEBEBEBEBEBE000000000000000000000000000000000000
310
00000000000000000000000000000000000000000000000000000000000000000000000000000000000000000000000000000000000000000000000000000000000000000000000000000000000000000000000000000000000000000000000000000000000000000000000000000000000000000000000000000000000000
310
000000000000000000000000000000000000000000000000000000000000000000000000000000000000000000000000000000000000000000000000000000000000000000000000000000000000000000000000BE0000BE00BEBEBEBEBEBEBEBEBEBEBEBEBEBEBEBEBEBEBEBEBEBE00000000000000000000000000000000
310
00000000000000000000000000000000000000000000000000000000000000000000000000000000000000000000000000000000000000000000000000000000000000000000000000000000000000000000000000000000000000000000000000000000000000000000000000000000000000000000000000000000000000
310
0000000000000000000000000000000000000000000000000000000000000000000000000000000000000000000000000000000000000000000000000000000000000000000000000000000000000000000000000000BE00BE0000BEBEBEBEBEBEBEBEBEBEBEBEBEBEBEBEBEBEBEBEBEBE0000000000000000000000000000
310
00000000000000000000000000000000000000000000000000000000000000000000000000000000000000000000000000000000000000000000000000000000000000000000000000000000000000000000000000000000000000000000000000000000000000000000000000000000000000000000000000000000000000
310
00000000000000000000000000000000000000000000000000000000000000000000000000000000000000000000000000000000000000000000000000000000000000000000000000000000000000000000000000000000BE00BE0000BEBEBEBEBEBEBEBEBEBEBEBEBEBEBEBEBEBEBEBEBEBEBE0000000000000000000000
310
00000000000000000000000000000000000000000000000000000000000000000000000000000000000000000000000000000000000000000000000000000000000000000000000000000000000000000000000000000000000000000000000000000000000000000000000000000000000000000000000000000000000000
310
000000000000000000000000000000000000000000000000000000000000000000000000000000000000000000000000000000000000000000000000000000000000000000000000000000000000000000000000000000000000BEBE000000BEBEBEBEBEBEBEBEBEBEBEBEBEBEBEBEBEBEBEBEBEBEBE000000000000000000
310
00000000000000000000000000000000000000000000000000000000000000000000000000000000000000000000000000000000000000000000000000000000000000000000000000000000000000000000000000000000000000000000000000000000000000000000000000000000000000000000000000000000000000
310
0000000000000000000000000000000000000000000000000000000000000000000000000000000000000000000000000000000000000000000000000000000000000000000000000000000000000000000000000000000000000000BEBE000000BEBEBEBEBEBEBEBEBEBEBEBEBEBEBEBEBEBEBEBEBEBEBE00000000000000
310
00000000000000000000000000000000000000000000000000000000000000000000000000000000000000000000000000000000000000000000000000000000000000000000000000000000000000000000000000000000000000000000000000000000000000000000000000000000000000000000000000000000000000
310
0000000000000000000000000000000000000000000000000000000000000000000000000000000000000000000000000000000000000000000000000000000000000000000000000000000000000000000000000000000000000000000000BE00000000000000000000000000000000000000000000000000000000000000
310
00000000000000000000000000000000000000000000000000000000000000000000000000000000000000000000000000000000000000000000000000000000000000000000000000000000000000000000000000000000000000000000000000000000000000000000000000000000000000000000000000000000000000
310
00000000000000000000000000000000000000000000000000000000000000000000000000000000000000000000000000000000000000000000000000000000000000000000000000000000000000000000000000000000000000000000000000BE000000BEBEBEBEBEBEBEBEBEBEBEBEBEBEBEBEBEBEBEBEBEBEBEBEBEBE
310
00000000000000000000000000000000000000000000000000000000000000000000000000000000000000000000000000000000000000000000000000000000000000000000000000000000000000000000000000000000000000000000000000000000000000000000000000000000000000000000000000000000000000
310
000000000000000000000000000000000000000000000000000000000000000000000000000000000000000000000000000000000000000000000000000000000000000000000000000000000000000000000000000000000000000000000000000000BEBEBEBEBEBEBEBEBEBEBEBEBEBEBEBEBEBEBEBEBEBEBEBEBEBEBEBE
310
BEBE0000000000000000000000000000000000000000000000000000000000000000000000000000000000000000000000000000000000000000000000000000000000000000000000000000000000000000000000000000000000000000000000000000000000000000000000000000000000000000000000000000000000
310
000000000000000000000000000000000000000000000000000000000000000000000000000000000000000000000000000000000000000000000000000000000000000000000000000000000000000000000000000000000000000000000000000000000000000000BEBEBEBEBEBEBEBEBEBEBEBEBEBEBEBEBEBEBEBEBEBE
310
BEBEBEBE000000000000000000000000000000000000000000000000000000000000000000000000000000000000000000000000000000000000000000000000000000000000000000000000000000000000000000000000000000000000000000000000000000000000000000000000000000000000000000000000000000
310
00000000000000000000000000000000000000000000000000000000000000000000000000000000000000000000000000000000000000000000000000000000000000000000000000000000000000000000000000000000000000000000000000000000000000000000000000000000000000000000000000000000000000
310
00000000000000000000000000000000000000000000000000000000000000000000000000000000000000000000000000000000000000000000000000000000000000000000000000000000000000000000000000000000000000000000000000000000000000000000000000000000000000000000000000000000000000
310
00000000000000000000000000000000000000000000000000000000000000000000000000000000000000000000000000000000000000000000000000000000000000000000000000000000000000000000000000000000000000000000000000000000000000000000000000000000000000000000000000000000000000
310
00000000000000000000000000000000000000000000000000000000000000000000000000000000000000000000000000000000000000000000000000000000000000000000000000000000000000000000000000000000000000000000000000000000000000000000000000000000000000000000000000000000000000
310
00000000000000000000000000000000000000000000000000000000000000000000000000000000000000000000000000000000000000000000000000000000000000000000000000000000000000000000000000000000000000000000000000000000000000000000000000000000000000000000000000000000000000
310
00000000000000000000000000000000000000000000000000000000000000000000000000000000000000000000000000000000000000000000000000000000000000000000000000000000000000000000000000000000000000000000000000000000000000000000000000000000000000000000000000000000000000
310
00000000000000000000000000000000000000000000000000000000000000000000000000000000000000000000000000000000000000000000000000000000000000000000000000000000000000000000000000000000000000000000000000000000000000000000000000000000000000000000000000000000000000
310
00000000000000000000000000000000000000000000000000000000000000000000000000000000000000000000000000000000000000000000000000000000000000000000000000000000000000000000000000000000000000000000000000000000000000000000000000000000000000000000000000000000000000
310
00000000000000000000000000000000000000000000000000000000000000000000000000000000000000000000000000000000000000000000000000000000000000000000000000000000000000000000000000000000000000000000000000000000000000000000000000000000000000000000000000000000000000
310
00000000000000000000000000000000000000000000000000000000000000000000000000000000000000000000000000000000000000000000000000000000000000000000000000000000000000000000000000000000000000000000000000000000000000000000000000000000000000000000000000000000000000
310
00000000000000000000000000000000000000000000000000000000000000000000000000000000000000000000000000000000000000000000000000000000000000000000000000000000000000000000000000000000000000000000000000000000000000000000000000000000000000000000000000000000000000
310
00000000000000000000000000000000000000000000000000000000000000000000000000000000000000000000000000000000000000000000000000000000000000000000000000000000000000000000000000000000000000000000000000000000000000000000000000000000000000000000000000000000000000
310
00000000000000000000000000000000000000000000000000000000000000000000000000000000000000000000000000000000000000000000000000000000000000000000000000000000000000000000000000000000000000000000000000000000000000000000000000000000000000000000000000000000000000
310
00000000000000000000000000000000000000000000000000000000000000000000000000000000000000000000000000000000000000000000000000000000000000000000000000000000000000000000000000000000000000000000000000000000000000000000000000000000000000000000000000000000000000
310
0000000000000000
  0
XRECORD
  5
19892
102
{ACAD_REACTORS
330
19891
102
}
330
19891
100
AcDbXrecord
280
     1
102
MATERIAL
148
0.0
149
0.0
149
0.0
 93
        0
 94
      127
282
     0
 72
     1
 77
     1
171
     1
175
     1
179
     1
273
     0
  0
XRECORD
  5
19890
102
{ACAD_REACTORS
330
1988F
102
}
330
1988F
100
AcDbXrecord
280
     1
102
MATERIAL
148
0.0
149
0.0
149
0.0
 93
        0
 94
      127
282
     0
 72
     1
 77
     1
171
     1
175
     1
179
     1
273
     0
  0
XRECORD
  5
19894
102
{ACAD_REACTORS
330
19893
102
}
330
19893
100
AcDbXrecord
280
     1
102
MATERIAL
148
0.0
149
0.0
149
0.0
 93
        0
 94
      127
282
     0
 72
     1
 77
     1
171
     1
175
     1
179
     1
273
     0
  0
XRECORD
  5
198FF
102
{ACAD_REACTORS
330
198FE
102
}
330
198FE
100
AcDbXrecord
280
     1
102
SHADEPLOT
 70
     0
102
SHADEPLOTRESLEVEL
 70
     2
102
SHADEPLOTCUSTOMDPI
 70
   300
  0
XRECORD
  5
198FB
102
{ACAD_REACTORS
330
198FA
102
}
330
198FA
100
AcDbXrecord
280
     1
102
SHADEPLOT
 70
     0
102
SHADEPLOTRESLEVEL
 70
     2
102
SHADEPLOTCUSTOMDPI
 70
   300
  0
XRECORD
  5
19901
102
{ACAD_REACTORS
330
19900
102
}
330
19900
100
AcDbXrecord
280
     1
102
SHADEPLOT
 70
     0
102
SHADEPLOTRESLEVEL
 70
     2
102
SHADEPLOTCUSTOMDPI
 70
   300
  0
XRECORD
  5
198FD
102
{ACAD_REACTORS
330
198FC
102
}
330
198FC
100
AcDbXrecord
280
     1
102
SHADEPLOT
 70
     0
102
SHADEPLOTRESLEVEL
 70
     2
102
SHADEPLOTCUSTOMDPI
 70
   300
  0
CELLSTYLEMAP
  5
198DA
102
{ACAD_REACTORS
330
19886
102
}
330
19886
100
AcDbCellStyleMap
 90
        3
300
CELLSTYLE
  1
TABLEFORMAT_BEGIN
 90
        5
170
     1
 91
        0
 92
    32768
 62
   257
 93
        1
300
CONTENTFORMAT
  1
CONTENTFORMAT_BEGIN
 90
        0
 91
        0
 92
        4
 93
        0
300

 40
0.0
140
1.0
 94
        5
 62
     0
340
13
144
0.25
309
CONTENTFORMAT_END
171
     1
301
MARGIN
  1
CELLMARGIN_BEGIN
 40
0.06
 40
0.06
 40
0.06
 40
0.06
 40
0.18
 40
0.18
309
CELLMARGIN_END
 94
        6
 95
        1
302
GRIDFORMAT
  1
GRIDFORMAT_BEGIN
 90
        0
 91
        1
 62
     0
 92
       -2
340
0
 93
        0
 40
0.045
309
GRIDFORMAT_END
 95
        2
302
GRIDFORMAT
  1
GRIDFORMAT_BEGIN
 90
        0
 91
        1
 62
     0
 92
       -2
340
0
 93
        0
 40
0.045
309
GRIDFORMAT_END
 95
        4
302
GRIDFORMAT
  1
GRIDFORMAT_BEGIN
 90
        0
 91
        1
 62
     0
 92
       -2
340
0
 93
        0
 40
0.045
309
GRIDFORMAT_END
 95
        8
302
GRIDFORMAT
  1
GRIDFORMAT_BEGIN
 90
        0
 91
        1
 62
     0
 92
       -2
340
0
 93
        0
 40
0.045
309
GRIDFORMAT_END
 95
       16
302
GRIDFORMAT
  1
GRIDFORMAT_BEGIN
 90
        0
 91
        1
 62
     0
 92
       -2
340
0
 93
        0
 40
0.045
309
GRIDFORMAT_END
 95
       32
302
GRIDFORMAT
  1
GRIDFORMAT_BEGIN
 90
        0
 91
        1
 62
     0
 92
       -2
340
0
 93
        0
 40
0.045
309
GRIDFORMAT_END
309
TABLEFORMAT_END
  1
CELLSTYLE_BEGIN
 90
        1
 91
        1
300
_TITLE
309
CELLSTYLE_END
300
CELLSTYLE
  1
TABLEFORMAT_BEGIN
 90
        5
170
     1
 91
        0
 92
        0
 62
   257
 93
        1
300
CONTENTFORMAT
  1
CONTENTFORMAT_BEGIN
 90
        0
 91
        0
 92
        4
 93
        0
300

 40
0.0
140
1.0
 94
        5
 62
     0
340
13
144
0.18
309
CONTENTFORMAT_END
171
     1
301
MARGIN
  1
CELLMARGIN_BEGIN
 40
0.06
 40
0.06
 40
0.06
 40
0.06
 40
0.18
 40
0.18
309
CELLMARGIN_END
 94
        6
 95
        1
302
GRIDFORMAT
  1
GRIDFORMAT_BEGIN
 90
        0
 91
        1
 62
     0
 92
       -2
340
0
 93
        0
 40
0.045
309
GRIDFORMAT_END
 95
        2
302
GRIDFORMAT
  1
GRIDFORMAT_BEGIN
 90
        0
 91
        1
 62
     0
 92
       -2
340
0
 93
        0
 40
0.045
309
GRIDFORMAT_END
 95
        4
302
GRIDFORMAT
  1
GRIDFORMAT_BEGIN
 90
        0
 91
        1
 62
     0
 92
       -2
340
0
 93
        0
 40
0.045
309
GRIDFORMAT_END
 95
        8
302
GRIDFORMAT
  1
GRIDFORMAT_BEGIN
 90
        0
 91
        1
 62
     0
 92
       -2
340
0
 93
        0
 40
0.045
309
GRIDFORMAT_END
 95
       16
302
GRIDFORMAT
  1
GRIDFORMAT_BEGIN
 90
        0
 91
        1
 62
     0
 92
       -2
340
0
 93
        0
 40
0.045
309
GRIDFORMAT_END
 95
       32
302
GRIDFORMAT
  1
GRIDFORMAT_BEGIN
 90
        0
 91
        1
 62
     0
 92
       -2
340
0
 93
        0
 40
0.045
309
GRIDFORMAT_END
309
TABLEFORMAT_END
  1
CELLSTYLE_BEGIN
 90
        2
 91
        1
300
_HEADER
309
CELLSTYLE_END
300
CELLSTYLE
  1
TABLEFORMAT_BEGIN
 90
        5
170
     1
 91
        0
 92
        0
 62
   257
 93
        1
300
CONTENTFORMAT
  1
CONTENTFORMAT_BEGIN
 90
        0
 91
        0
 92
        4
 93
        0
300

 40
0.0
140
1.0
 94
        2
 62
     0
340
13
144
0.18
309
CONTENTFORMAT_END
171
     1
301
MARGIN
  1
CELLMARGIN_BEGIN
 40
0.06
 40
0.06
 40
0.06
 40
0.06
 40
0.18
 40
0.18
309
CELLMARGIN_END
 94
        6
 95
        1
302
GRIDFORMAT
  1
GRIDFORMAT_BEGIN
 90
        0
 91
        1
 62
     0
 92
       -2
340
0
 93
        0
 40
0.045
309
GRIDFORMAT_END
 95
        2
302
GRIDFORMAT
  1
GRIDFORMAT_BEGIN
 90
        0
 91
        1
 62
     0
 92
       -2
340
0
 93
        0
 40
0.045
309
GRIDFORMAT_END
 95
        4
302
GRIDFORMAT
  1
GRIDFORMAT_BEGIN
 90
        0
 91
        1
 62
     0
 92
       -2
340
0
 93
        0
 40
0.045
309
GRIDFORMAT_END
 95
        8
302
GRIDFORMAT
  1
GRIDFORMAT_BEGIN
 90
        0
 91
        1
 62
     0
 92
       -2
340
0
 93
        0
 40
0.045
309
GRIDFORMAT_END
 95
       16
302
GRIDFORMAT
  1
GRIDFORMAT_BEGIN
 90
        0
 91
        1
 62
     0
 92
       -2
340
0
 93
        0
 40
0.045
309
GRIDFORMAT_END
 95
       32
302
GRIDFORMAT
  1
GRIDFORMAT_BEGIN
 90
        0
 91
        1
 62
     0
 92
       -2
340
0
 93
        0
 40
0.045
309
GRIDFORMAT_END
309
TABLEFORMAT_END
  1
CELLSTYLE_BEGIN
 90
        3
 91
        2
300
_DATA
309
CELLSTYLE_END
  0
XRECORD
  5
198E1
102
{ACAD_REACTORS
330
19886
102
}
330
19886
100
AcDbXrecord
280
     1
102
ACAD_ROUNDTRIP_PRE2007_TABLESTYLE
 90
        4
 91
        0
  1

 92
        4
 93
        0
  2

 94
        4
 95
        0
  3

  0
XRECORD
  5
198ED
102
{ACAD_REACTORS
330
198EC
102
}
330
198EC
100
AcDbXrecord
280
     1
102
RTVSPropertyOp0
 70
     1
102
RTVSPropertyOp1
 70
     1
102
RTVSPropertyOp2
 70
     1
102
RTVSPropertyOp3
 70
     1
102
RTVSPropertyOp4
 70
     1
102
RTVSPropertyOp5
 70
     1
102
RTVSPropertyOp6
 70
     1
102
RTVSPropertyOp7
 70
     1
102
RTVSPropertyOp8
 70
     1
102
RTVSPropertyOp9
 70
     1
102
RTVSPropertyOp10
 70
     1
102
RTVSPropertyOp11
 70
     1
102
RTVSPropertyOp12
 70
     1
102
RTVSPropertyOp13
 70
     1
102
RTVSPropertyOp14
 70
     1
102
RTVSPropertyOp15
 70
     1
102
RTVSPropertyOp16
 70
     1
102
RTVSPropertyOp17
 70
     1
102
RTVSPropertyOp18
 70
     1
102
RTVSPropertyOp19
 70
     1
102
RTVSPropertyOp20
 70
     1
102
RTVSPropertyOp21
 70
     1
102
RTVSPropertyOp22
 70
     1
102
RTVSPropertyOp23
 70
     1
102
RTVSPropertyOp24
 70
     1
102
RTVSPropertyOp25
 70
     1
102
RTVSPropertyOp26
 70
     1
102
RTVSPropertyOp27
 70
     1
102
RTVSPropertyOp28
 70
     1
102
RTVSPropertyOp29
 70
     1
102
RTVSPropertyOp30
 70
     1
102
RTVSPropertyOp31
 70
     1
102
RTVSPropertyOp32
 70
     1
  0
XRECORD
  5
19903
102
{ACAD_REACTORS
330
19902
102
}
330
19902
100
AcDbXrecord
280
     1
102
RTVSPropertyOp0
 70
     1
102
RTVSPropertyOp1
 70
     1
102
RTVSPropertyOp2
 70
     1
102
RTVSPropertyOp3
 70
     1
102
RTVSPropertyOp4
 70
     1
102
RTVSPropertyOp5
 70
     1
102
RTVSPropertyOp6
 70
     1
102
RTVSPropertyOp7
 70
     1
102
RTVSPropertyOp8
 70
     1
102
RTVSPropertyOp9
 70
     1
102
RTVSPropertyOp10
 70
     1
102
RTVSPropertyOp11
 70
     1
102
RTVSPropertyOp12
 70
     1
102
RTVSPropertyOp13
 70
     1
102
RTVSPropertyOp14
 70
     1
102
RTVSPropertyOp15
 70
     1
102
RTVSPropertyOp16
 70
     1
102
RTVSPropertyOp17
 70
     1
102
RTVSPropertyOp18
 70
     1
102
RTVSPropertyOp19
 70
     1
102
RTVSPropertyOp20
 70
     1
102
RTVSPropertyOp21
 70
     1
102
RTVSPropertyOp22
 70
     1
102
RTVSPropertyOp23
 70
     1
102
RTVSPropertyOp24
 70
     1
102
RTVSPropertyOp25
 70
     1
102
RTVSPropertyOp26
 70
     1
102
RTVSPropertyOp27
 70
     1
102
RTVSPropertyOp28
 70
     1
102
RTVSPropertyOp29
 70
     1
102
RTVSPropertyOp30
 70
     1
102
RTVSPropertyOp31
 70
     1
102
RTVSPropertyOp32
 70
     1
  0
XRECORD
  5
19905
102
{ACAD_REACTORS
330
19904
102
}
330
19904
100
AcDbXrecord
280
     1
102
RTVSPropertyOp0
 70
     1
102
RTVSPropertyOp1
 70
     1
102
RTVSPropertyOp2
 70
     1
102
RTVSPropertyOp3
 70
     1
102
RTVSPropertyOp4
 70
     1
102
RTVSPropertyOp5
 70
     1
102
RTVSPropertyOp6
 70
     1
102
RTVSPropertyOp7
 70
     1
102
RTVSPropertyOp8
 70
     1
102
RTVSPropertyOp9
 70
     1
102
RTVSPropertyOp10
 70
     1
102
RTVSPropertyOp11
 70
     1
102
RTVSPropertyOp12
 70
     1
102
RTVSPropertyOp13
 70
     1
102
RTVSPropertyOp14
 70
     1
102
RTVSPropertyOp15
 70
     1
102
RTVSPropertyOp16
 70
     1
102
RTVSPropertyOp17
 70
     1
102
RTVSPropertyOp18
 70
     1
102
RTVSPropertyOp19
 70
     1
102
RTVSPropertyOp20
 70
     1
102
RTVSPropertyOp21
 70
     1
102
RTVSPropertyOp22
 70
     1
102
RTVSPropertyOp23
 70
     1
102
RTVSPropertyOp24
 70
     1
102
RTVSPropertyOp25
 70
     1
102
RTVSPropertyOp26
 70
     1
102
RTVSPropertyOp27
 70
     1
102
RTVSPropertyOp28
 70
     1
102
RTVSPropertyOp29
 70
     1
102
RTVSPropertyOp30
 70
     1
102
RTVSPropertyOp31
 70
     1
102
RTVSPropertyOp32
 70
     1
  0
XRECORD
  5
198EB
102
{ACAD_REACTORS
330
198EA
102
}
330
198EA
100
AcDbXrecord
280
     1
102
RTVSPropertyOp0
 70
     1
102
RTVSPropertyOp1
 70
     1
102
RTVSPropertyOp2
 70
     1
102
RTVSPropertyOp3
 70
     1
102
RTVSPropertyOp4
 70
     1
102
RTVSPropertyOp5
 70
     1
102
RTVSPropertyOp6
 70
     1
102
RTVSPropertyOp7
 70
     1
102
RTVSPropertyOp8
 70
     1
102
RTVSPropertyOp9
 70
     1
102
RTVSPropertyOp10
 70
     1
102
RTVSPropertyOp11
 70
     1
102
RTVSPropertyOp12
 70
     1
102
RTVSPropertyOp13
 70
     1
102
RTVSPropertyOp14
 70
     1
102
RTVSPropertyOp15
 70
     1
102
RTVSPropertyOp16
 70
     1
102
RTVSPropertyOp17
 70
     1
102
RTVSPropertyOp18
 70
     1
102
RTVSPropertyOp19
 70
     1
102
RTVSPropertyOp20
 70
     1
102
RTVSPropertyOp21
 70
     1
102
RTVSPropertyOp22
 70
     1
102
RTVSPropertyOp23
 70
     1
102
RTVSPropertyOp24
 70
     1
102
RTVSPropertyOp25
 70
     1
102
RTVSPropertyOp26
 70
     1
102
RTVSPropertyOp27
 70
     1
102
RTVSPropertyOp28
 70
     1
102
RTVSPropertyOp29
 70
     1
102
RTVSPropertyOp30
 70
     1
102
RTVSPropertyOp31
 70
     1
102
RTVSPropertyOp32
 70
     1
  0
XRECORD
  5
198F1
102
{ACAD_REACTORS
330
198F0
102
}
330
198F0
100
AcDbXrecord
280
     1
102
RTVSPropertyOp0
 70
     1
102
RTVSPropertyOp1
 70
     1
102
RTVSPropertyOp2
 70
     1
102
RTVSPropertyOp3
 70
     1
102
RTVSPropertyOp4
 70
     1
102
RTVSPropertyOp5
 70
     1
102
RTVSPropertyOp6
 70
     1
102
RTVSPropertyOp7
 70
     1
102
RTVSPropertyOp8
 70
     1
102
RTVSPropertyOp9
 70
     1
102
RTVSPropertyOp10
 70
     1
102
RTVSPropertyOp11
 70
     1
102
RTVSPropertyOp12
 70
     1
102
RTVSPropertyOp13
 70
     1
102
RTVSPropertyOp14
 70
     1
102
RTVSPropertyOp15
 70
     1
102
RTVSPropertyOp16
 70
     1
102
RTVSPropertyOp17
 70
     1
102
RTVSPropertyOp18
 70
     1
102
RTVSPropertyOp19
 70
     1
102
RTVSPropertyOp20
 70
     1
102
RTVSPropertyOp21
 70
     1
102
RTVSPropertyOp22
 70
     1
102
RTVSPropertyOp23
 70
     1
102
RTVSPropertyOp24
 70
     1
102
RTVSPropertyOp25
 70
     1
102
RTVSPropertyOp26
 70
     1
102
RTVSPropertyOp27
 70
     1
102
RTVSPropertyOp28
 70
     1
102
RTVSPropertyOp29
 70
     1
102
RTVSPropertyOp30
 70
     1
102
RTVSPropertyOp31
 70
     1
102
RTVSPropertyOp32
 70
     1
  0
XRECORD
  5
198F9
102
{ACAD_REACTORS
330
198F8
102
}
330
198F8
100
AcDbXrecord
280
     1
102
RTVSPropertyOp0
 70
     1
102
RTVSPropertyOp1
 70
     1
102
RTVSPropertyOp2
 70
     1
102
RTVSPropertyOp3
 70
     1
102
RTVSPropertyOp4
 70
     1
102
RTVSPropertyOp5
 70
     1
102
RTVSPropertyOp6
 70
     1
102
RTVSPropertyOp7
 70
     1
102
RTVSPropertyOp8
 70
     1
102
RTVSPropertyOp9
 70
     1
102
RTVSPropertyOp10
 70
     1
102
RTVSPropertyOp11
 70
     1
102
RTVSPropertyOp12
 70
     1
102
RTVSPropertyOp13
 70
     1
102
RTVSPropertyOp14
 70
     1
102
RTVSPropertyOp15
 70
     1
102
RTVSPropertyOp16
 70
     1
102
RTVSPropertyOp17
 70
     1
102
RTVSPropertyOp18
 70
     1
102
RTVSPropertyOp19
 70
     1
102
RTVSPropertyOp20
 70
     1
102
RTVSPropertyOp21
 70
     1
102
RTVSPropertyOp22
 70
     1
102
RTVSPropertyOp23
 70
     1
102
RTVSPropertyOp24
 70
     1
102
RTVSPropertyOp25
 70
     1
102
RTVSPropertyOp26
 70
     1
102
RTVSPropertyOp27
 70
     1
102
RTVSPropertyOp28
 70
     1
102
RTVSPropertyOp29
 70
     1
102
RTVSPropertyOp30
 70
     1
102
RTVSPropertyOp31
 70
     1
102
RTVSPropertyOp32
 70
     1
  0
XRECORD
  5
19907
102
{ACAD_REACTORS
330
19906
102
}
330
19906
100
AcDbXrecord
280
     1
102
RTVSPropertyOp0
 70
     1
102
RTVSPropertyOp1
 70
     1
102
RTVSPropertyOp2
 70
     1
102
RTVSPropertyOp3
 70
     1
102
RTVSPropertyOp4
 70
     1
102
RTVSPropertyOp5
 70
     1
102
RTVSPropertyOp6
 70
     1
102
RTVSPropertyOp7
 70
     1
102
RTVSPropertyOp8
 70
     1
102
RTVSPropertyOp9
 70
     1
102
RTVSPropertyOp10
 70
     1
102
RTVSPropertyOp11
 70
     1
102
RTVSPropertyOp12
 70
     1
102
RTVSPropertyOp13
 70
     1
102
RTVSPropertyOp14
 70
     1
102
RTVSPropertyOp15
 70
     1
102
RTVSPropertyOp16
 70
     1
102
RTVSPropertyOp17
 70
     1
102
RTVSPropertyOp18
 70
     1
102
RTVSPropertyOp19
 70
     1
102
RTVSPropertyOp20
 70
     1
102
RTVSPropertyOp21
 70
     1
102
RTVSPropertyOp22
 70
     1
102
RTVSPropertyOp23
 70
     1
102
RTVSPropertyOp24
 70
     1
102
RTVSPropertyOp25
 70
     1
102
RTVSPropertyOp26
 70
     1
102
RTVSPropertyOp27
 70
     1
102
RTVSPropertyOp28
 70
     1
102
RTVSPropertyOp29
 70
     1
102
RTVSPropertyOp30
 70
     1
102
RTVSPropertyOp31
 70
     1
102
RTVSPropertyOp32
 70
     1
  0
XRECORD
  5
198EF
102
{ACAD_REACTORS
330
198EE
102
}
330
198EE
100
AcDbXrecord
280
     1
102
RTVSPropertyOp0
 70
     1
102
RTVSPropertyOp1
 70
     1
102
RTVSPropertyOp2
 70
     1
102
RTVSPropertyOp3
 70
     1
102
RTVSPropertyOp4
 70
     1
102
RTVSPropertyOp5
 70
     1
102
RTVSPropertyOp6
 70
     1
102
RTVSPropertyOp7
 70
     1
102
RTVSPropertyOp8
 70
     1
102
RTVSPropertyOp9
 70
     1
102
RTVSPropertyOp10
 70
     1
102
RTVSPropertyOp11
 70
     1
102
RTVSPropertyOp12
 70
     1
102
RTVSPropertyOp13
 70
     1
102
RTVSPropertyOp14
 70
     1
102
RTVSPropertyOp15
 70
     1
102
RTVSPropertyOp16
 70
     1
102
RTVSPropertyOp17
 70
     1
102
RTVSPropertyOp18
 70
     1
102
RTVSPropertyOp19
 70
     1
102
RTVSPropertyOp20
 70
     1
102
RTVSPropertyOp21
 70
     1
102
RTVSPropertyOp22
 70
     1
102
RTVSPropertyOp23
 70
     1
102
RTVSPropertyOp24
 70
     1
102
RTVSPropertyOp25
 70
     1
102
RTVSPropertyOp26
 70
     1
102
RTVSPropertyOp27
 70
     1
102
RTVSPropertyOp28
 70
     1
102
RTVSPropertyOp29
 70
     1
102
RTVSPropertyOp30
 70
     1
102
RTVSPropertyOp31
 70
     1
102
RTVSPropertyOp32
 70
     1
  0
XRECORD
  5
1991D
102
{ACAD_REACTORS
330
1991C
102
}
330
1991C
100
AcDbXrecord
280
     1
102
RTVSPropertyOp0
 70
     0
102
RTVSPropertyOp1
 70
     0
102
RTVSPropertyOp2
 70
     0
102
RTVSPropertyOp3
 70
     0
102
RTVSPropertyOp4
 70
     0
102
RTVSPropertyOp5
 70
     0
102
RTVSPropertyOp6
 70
     0
102
RTVSPropertyOp7
 70
     0
102
RTVSPropertyOp8
 70
     0
102
RTVSPropertyOp9
 70
     0
102
RTVSPropertyOp10
 70
     0
102
RTVSPropertyOp11
 70
     0
102
RTVSPropertyOp12
 70
     0
102
RTVSPropertyOp13
 70
     0
102
RTVSPropertyOp14
 70
     2
102
RTVSPropertyOp15
 70
     0
102
RTVSPropertyOp16
 70
     0
102
RTVSPropertyOp17
 70
     0
102
RTVSPropertyOp18
 70
     0
102
RTVSPropertyOp19
 70
     0
102
RTVSPropertyOp20
 70
     0
102
RTVSPropertyOp21
 70
     0
102
RTVSPropertyOp22
 70
     0
102
RTVSPropertyOp23
 70
     0
102
RTVSPropertyOp24
 70
     0
102
RTVSPropertyOp25
 70
     0
102
RTVSPropertyOp26
 70
     0
102
RTVSPropertyOp27
 70
     0
102
RTVSPropertyOp28
 70
     1
102
RTVSPropertyOp29
 70
     1
102
RTVSPropertyOp30
 70
     1
102
RTVSPropertyOp31
 70
     1
102
RTVSPropertyOp32
 70
     1
  0
XRECORD
  5
198F7
102
{ACAD_REACTORS
330
198F6
102
}
330
198F6
100
AcDbXrecord
280
     1
102
RTVSPropertyOp0
 70
     1
102
RTVSPropertyOp1
 70
     1
102
RTVSPropertyOp2
 70
     1
102
RTVSPropertyOp3
 70
     1
102
RTVSPropertyOp4
 70
     1
102
RTVSPropertyOp5
 70
     1
102
RTVSPropertyOp6
 70
     1
102
RTVSPropertyOp7
 70
     1
102
RTVSPropertyOp8
 70
     1
102
RTVSPropertyOp9
 70
     1
102
RTVSPropertyOp10
 70
     1
102
RTVSPropertyOp11
 70
     1
102
RTVSPropertyOp12
 70
     1
102
RTVSPropertyOp13
 70
     1
102
RTVSPropertyOp14
 70
     1
102
RTVSPropertyOp15
 70
     1
102
RTVSPropertyOp16
 70
     1
102
RTVSPropertyOp17
 70
     1
102
RTVSPropertyOp18
 70
     1
102
RTVSPropertyOp19
 70
     1
102
RTVSPropertyOp20
 70
     1
102
RTVSPropertyOp21
 70
     1
102
RTVSPropertyOp22
 70
     1
102
RTVSPropertyOp23
 70
     1
102
RTVSPropertyOp24
 70
     1
102
RTVSPropertyOp25
 70
     1
102
RTVSPropertyOp26
 70
     1
102
RTVSPropertyOp27
 70
     1
102
RTVSPropertyOp28
 70
     1
102
RTVSPropertyOp29
 70
     1
102
RTVSPropertyOp30
 70
     1
102
RTVSPropertyOp31
 70
     1
102
RTVSPropertyOp32
 70
     1
  0
XRECORD
  5
198E3
102
{ACAD_REACTORS
330
198E2
102
}
330
198E2
100
AcDbXrecord
280
     1
102
RTVSPropertyOp0
 70
     1
102
RTVSPropertyOp1
 70
     1
102
RTVSPropertyOp2
 70
     1
102
RTVSPropertyOp3
 70
     1
102
RTVSPropertyOp4
 70
     1
102
RTVSPropertyOp5
 70
     1
102
RTVSPropertyOp6
 70
     1
102
RTVSPropertyOp7
 70
     1
102
RTVSPropertyOp8
 70
     1
102
RTVSPropertyOp9
 70
     1
102
RTVSPropertyOp10
 70
     1
102
RTVSPropertyOp11
 70
     1
102
RTVSPropertyOp12
 70
     1
102
RTVSPropertyOp13
 70
     1
102
RTVSPropertyOp14
 70
     1
102
RTVSPropertyOp15
 70
     1
102
RTVSPropertyOp16
 70
     1
102
RTVSPropertyOp17
 70
     1
102
RTVSPropertyOp18
 70
     1
102
RTVSPropertyOp19
 70
     1
102
RTVSPropertyOp20
 70
     1
102
RTVSPropertyOp21
 70
     1
102
RTVSPropertyOp22
 70
     1
102
RTVSPropertyOp23
 70
     1
102
RTVSPropertyOp24
 70
     1
102
RTVSPropertyOp25
 70
     1
102
RTVSPropertyOp26
 70
     1
102
RTVSPropertyOp27
 70
     1
102
RTVSPropertyOp28
 70
     1
102
RTVSPropertyOp29
 70
     1
102
RTVSPropertyOp30
 70
     1
102
RTVSPropertyOp31
 70
     1
102
RTVSPropertyOp32
 70
     1
  0
XRECORD
  5
198E5
102
{ACAD_REACTORS
330
198E4
102
}
330
198E4
100
AcDbXrecord
280
     1
102
RTVSPropertyOp0
 70
     1
102
RTVSPropertyOp1
 70
     1
102
RTVSPropertyOp2
 70
     1
102
RTVSPropertyOp3
 70
     1
102
RTVSPropertyOp4
 70
     1
102
RTVSPropertyOp5
 70
     1
102
RTVSPropertyOp6
 70
     1
102
RTVSPropertyOp7
 70
     1
102
RTVSPropertyOp8
 70
     1
102
RTVSPropertyOp9
 70
     1
102
RTVSPropertyOp10
 70
     1
102
RTVSPropertyOp11
 70
     1
102
RTVSPropertyOp12
 70
     1
102
RTVSPropertyOp13
 70
     1
102
RTVSPropertyOp14
 70
     1
102
RTVSPropertyOp15
 70
     1
102
RTVSPropertyOp16
 70
     1
102
RTVSPropertyOp17
 70
     1
102
RTVSPropertyOp18
 70
     1
102
RTVSPropertyOp19
 70
     1
102
RTVSPropertyOp20
 70
     1
102
RTVSPropertyOp21
 70
     1
102
RTVSPropertyOp22
 70
     1
102
RTVSPropertyOp23
 70
     1
102
RTVSPropertyOp24
 70
     1
102
RTVSPropertyOp25
 70
     1
102
RTVSPropertyOp26
 70
     1
102
RTVSPropertyOp27
 70
     1
102
RTVSPropertyOp28
 70
     1
102
RTVSPropertyOp29
 70
     1
102
RTVSPropertyOp30
 70
     1
102
RTVSPropertyOp31
 70
     1
102
RTVSPropertyOp32
 70
     1
  0
XRECORD
  5
198E7
102
{ACAD_REACTORS
330
198E6
102
}
330
198E6
100
AcDbXrecord
280
     1
102
RTVSPropertyOp0
 70
     1
102
RTVSPropertyOp1
 70
     1
102
RTVSPropertyOp2
 70
     1
102
RTVSPropertyOp3
 70
     1
102
RTVSPropertyOp4
 70
     1
102
RTVSPropertyOp5
 70
     1
102
RTVSPropertyOp6
 70
     1
102
RTVSPropertyOp7
 70
     1
102
RTVSPropertyOp8
 70
     1
102
RTVSPropertyOp9
 70
     1
102
RTVSPropertyOp10
 70
     1
102
RTVSPropertyOp11
 70
     1
102
RTVSPropertyOp12
 70
     1
102
RTVSPropertyOp13
 70
     1
102
RTVSPropertyOp14
 70
     1
102
RTVSPropertyOp15
 70
     1
102
RTVSPropertyOp16
 70
     1
102
RTVSPropertyOp17
 70
     1
102
RTVSPropertyOp18
 70
     1
102
RTVSPropertyOp19
 70
     1
102
RTVSPropertyOp20
 70
     1
102
RTVSPropertyOp21
 70
     1
102
RTVSPropertyOp22
 70
     1
102
RTVSPropertyOp23
 70
     1
102
RTVSPropertyOp24
 70
     1
102
RTVSPropertyOp25
 70
     1
102
RTVSPropertyOp26
 70
     1
102
RTVSPropertyOp27
 70
     1
102
RTVSPropertyOp28
 70
     1
102
RTVSPropertyOp29
 70
     1
102
RTVSPropertyOp30
 70
     1
102
RTVSPropertyOp31
 70
     1
102
RTVSPropertyOp32
 70
     1
  0
XRECORD
  5
198E9
102
{ACAD_REACTORS
330
198E8
102
}
330
198E8
100
AcDbXrecord
280
     1
102
RTVSPropertyOp0
 70
     1
102
RTVSPropertyOp1
 70
     1
102
RTVSPropertyOp2
 70
     1
102
RTVSPropertyOp3
 70
     1
102
RTVSPropertyOp4
 70
     1
102
RTVSPropertyOp5
 70
     1
102
RTVSPropertyOp6
 70
     1
102
RTVSPropertyOp7
 70
     1
102
RTVSPropertyOp8
 70
     1
102
RTVSPropertyOp9
 70
     1
102
RTVSPropertyOp10
 70
     1
102
RTVSPropertyOp11
 70
     1
102
RTVSPropertyOp12
 70
     1
102
RTVSPropertyOp13
 70
     1
102
RTVSPropertyOp14
 70
     1
102
RTVSPropertyOp15
 70
     1
102
RTVSPropertyOp16
 70
     1
102
RTVSPropertyOp17
 70
     1
102
RTVSPropertyOp18
 70
     1
102
RTVSPropertyOp19
 70
     1
102
RTVSPropertyOp20
 70
     1
102
RTVSPropertyOp21
 70
     1
102
RTVSPropertyOp22
 70
     1
102
RTVSPropertyOp23
 70
     1
102
RTVSPropertyOp24
 70
     1
102
RTVSPropertyOp25
 70
     1
102
RTVSPropertyOp26
 70
     1
102
RTVSPropertyOp27
 70
     1
102
RTVSPropertyOp28
 70
     1
102
RTVSPropertyOp29
 70
     1
102
RTVSPropertyOp30
 70
     1
102
RTVSPropertyOp31
 70
     1
102
RTVSPropertyOp32
 70
     1
  0
XRECORD
  5
1990D
102
{ACAD_REACTORS
330
1990C
102
}
330
1990C
100
AcDbXrecord
280
     1
102
RTVSPropertyOp0
 70
     1
102
RTVSPropertyOp1
 70
     1
102
RTVSPropertyOp2
 70
     1
102
RTVSPropertyOp3
 70
     1
102
RTVSPropertyOp4
 70
     1
102
RTVSPropertyOp5
 70
     1
102
RTVSPropertyOp6
 70
     1
102
RTVSPropertyOp7
 70
     1
102
RTVSPropertyOp8
 70
     1
102
RTVSPropertyOp9
 70
     1
102
RTVSPropertyOp10
 70
     1
102
RTVSPropertyOp11
 70
     1
102
RTVSPropertyOp12
 70
     1
102
RTVSPropertyOp13
 70
     1
102
RTVSPropertyOp14
 70
     1
102
RTVSPropertyOp15
 70
     1
102
RTVSPropertyOp16
 70
     1
102
RTVSPropertyOp17
 70
     1
102
RTVSPropertyOp18
 70
     1
102
RTVSPropertyOp19
 70
     1
102
RTVSPropertyOp20
 70
     1
102
RTVSPropertyOp21
 70
     1
102
RTVSPropertyOp22
 70
     1
102
RTVSPropertyOp23
 70
     1
102
RTVSPropertyOp24
 70
     1
102
RTVSPropertyOp25
 70
     1
102
RTVSPropertyOp26
 70
     1
102
RTVSPropertyOp27
 70
     1
102
RTVSPropertyOp28
 70
     1
102
RTVSPropertyOp29
 70
     1
102
RTVSPropertyOp30
 70
     1
102
RTVSPropertyOp31
 70
     1
102
RTVSPropertyOp32
 70
     1
  0
XRECORD
  5
19919
102
{ACAD_REACTORS
330
19918
102
}
330
19918
100
AcDbXrecord
280
     1
102
RTVSPropertyOp0
 70
     0
102
RTVSPropertyOp1
 70
     0
102
RTVSPropertyOp2
 70
     0
102
RTVSPropertyOp3
 70
     0
102
RTVSPropertyOp4
 70
     0
102
RTVSPropertyOp5
 70
     0
102
RTVSPropertyOp6
 70
     0
102
RTVSPropertyOp7
 70
     0
102
RTVSPropertyOp8
 70
     0
102
RTVSPropertyOp9
 70
     0
102
RTVSPropertyOp10
 70
     0
102
RTVSPropertyOp11
 70
     0
102
RTVSPropertyOp12
 70
     0
102
RTVSPropertyOp13
 70
     0
102
RTVSPropertyOp14
 70
     2
102
RTVSPropertyOp15
 70
     0
102
RTVSPropertyOp16
 70
     0
102
RTVSPropertyOp17
 70
     0
102
RTVSPropertyOp18
 70
     0
102
RTVSPropertyOp19
 70
     0
102
RTVSPropertyOp20
 70
     0
102
RTVSPropertyOp21
 70
     0
102
RTVSPropertyOp22
 70
     0
102
RTVSPropertyOp23
 70
     0
102
RTVSPropertyOp24
 70
     0
102
RTVSPropertyOp25
 70
     0
102
RTVSPropertyOp26
 70
     0
102
RTVSPropertyOp27
 70
     0
102
RTVSPropertyOp28
 70
     1
102
RTVSPropertyOp29
 70
     1
102
RTVSPropertyOp30
 70
     1
102
RTVSPropertyOp31
 70
     1
102
RTVSPropertyOp32
 70
     1
  0
XRECORD
  5
198F5
102
{ACAD_REACTORS
330
198F4
102
}
330
198F4
100
AcDbXrecord
280
     1
102
RTVSPropertyOp0
 70
     1
102
RTVSPropertyOp1
 70
     1
102
RTVSPropertyOp2
 70
     1
102
RTVSPropertyOp3
 70
     1
102
RTVSPropertyOp4
 70
     1
102
RTVSPropertyOp5
 70
     1
102
RTVSPropertyOp6
 70
     1
102
RTVSPropertyOp7
 70
     1
102
RTVSPropertyOp8
 70
     1
102
RTVSPropertyOp9
 70
     1
102
RTVSPropertyOp10
 70
     1
102
RTVSPropertyOp11
 70
     1
102
RTVSPropertyOp12
 70
     1
102
RTVSPropertyOp13
 70
     1
102
RTVSPropertyOp14
 70
     1
102
RTVSPropertyOp15
 70
     1
102
RTVSPropertyOp16
 70
     1
102
RTVSPropertyOp17
 70
     1
102
RTVSPropertyOp18
 70
     1
102
RTVSPropertyOp19
 70
     1
102
RTVSPropertyOp20
 70
     1
102
RTVSPropertyOp21
 70
     1
102
RTVSPropertyOp22
 70
     1
102
RTVSPropertyOp23
 70
     1
102
RTVSPropertyOp24
 70
     1
102
RTVSPropertyOp25
 70
     1
102
RTVSPropertyOp26
 70
     1
102
RTVSPropertyOp27
 70
     1
102
RTVSPropertyOp28
 70
     1
102
RTVSPropertyOp29
 70
     1
102
RTVSPropertyOp30
 70
     1
102
RTVSPropertyOp31
 70
     1
102
RTVSPropertyOp32
 70
     1
  0
XRECORD
  5
1991B
102
{ACAD_REACTORS
330
1991A
102
}
330
1991A
100
AcDbXrecord
280
     1
102
RTVSPropertyOp0
 70
     0
102
RTVSPropertyOp1
 70
     0
102
RTVSPropertyOp2
 70
     0
102
RTVSPropertyOp3
 70
     0
102
RTVSPropertyOp4
 70
     0
102
RTVSPropertyOp5
 70
     0
102
RTVSPropertyOp6
 70
     0
102
RTVSPropertyOp7
 70
     0
102
RTVSPropertyOp8
 70
     0
102
RTVSPropertyOp9
 70
     0
102
RTVSPropertyOp10
 70
     0
102
RTVSPropertyOp11
 70
     0
102
RTVSPropertyOp12
 70
     0
102
RTVSPropertyOp13
 70
     0
102
RTVSPropertyOp14
 70
     2
102
RTVSPropertyOp15
 70
     0
102
RTVSPropertyOp16
 70
     0
102
RTVSPropertyOp17
 70
     0
102
RTVSPropertyOp18
 70
     0
102
RTVSPropertyOp19
 70
     0
102
RTVSPropertyOp20
 70
     0
102
RTVSPropertyOp21
 70
     0
102
RTVSPropertyOp22
 70
     0
102
RTVSPropertyOp23
 70
     0
102
RTVSPropertyOp24
 70
     0
102
RTVSPropertyOp25
 70
     0
102
RTVSPropertyOp26
 70
     0
102
RTVSPropertyOp27
 70
     0
102
RTVSPropertyOp28
 70
     1
102
RTVSPropertyOp29
 70
     1
102
RTVSPropertyOp30
 70
     1
102
RTVSPropertyOp31
 70
     1
102
RTVSPropertyOp32
 70
     1
  0
XRECORD
  5
19909
102
{ACAD_REACTORS
330
19908
102
}
330
19908
100
AcDbXrecord
280
     1
102
RTVSPropertyOp0
 70
     1
102
RTVSPropertyOp1
 70
     1
102
RTVSPropertyOp2
 70
     1
102
RTVSPropertyOp3
 70
     1
102
RTVSPropertyOp4
 70
     1
102
RTVSPropertyOp5
 70
     1
102
RTVSPropertyOp6
 70
     1
102
RTVSPropertyOp7
 70
     1
102
RTVSPropertyOp8
 70
     1
102
RTVSPropertyOp9
 70
     1
102
RTVSPropertyOp10
 70
     1
102
RTVSPropertyOp11
 70
     1
102
RTVSPropertyOp12
 70
     1
102
RTVSPropertyOp13
 70
     1
102
RTVSPropertyOp14
 70
     1
102
RTVSPropertyOp15
 70
     1
102
RTVSPropertyOp16
 70
     1
102
RTVSPropertyOp17
 70
     1
102
RTVSPropertyOp18
 70
     1
102
RTVSPropertyOp19
 70
     1
102
RTVSPropertyOp20
 70
     1
102
RTVSPropertyOp21
 70
     1
102
RTVSPropertyOp22
 70
     1
102
RTVSPropertyOp23
 70
     1
102
RTVSPropertyOp24
 70
     1
102
RTVSPropertyOp25
 70
     1
102
RTVSPropertyOp26
 70
     1
102
RTVSPropertyOp27
 70
     1
102
RTVSPropertyOp28
 70
     1
102
RTVSPropertyOp29
 70
     1
102
RTVSPropertyOp30
 70
     1
102
RTVSPropertyOp31
 70
     1
102
RTVSPropertyOp32
 70
     1
  0
XRECORD
  5
19917
102
{ACAD_REACTORS
330
19916
102
}
330
19916
100
AcDbXrecord
280
     1
102
RTVSPropertyOp0
 70
     1
102
RTVSPropertyOp1
 70
     1
102
RTVSPropertyOp2
 70
     1
102
RTVSPropertyOp3
 70
     1
102
RTVSPropertyOp4
 70
     1
102
RTVSPropertyOp5
 70
     1
102
RTVSPropertyOp6
 70
     1
102
RTVSPropertyOp7
 70
     1
102
RTVSPropertyOp8
 70
     1
102
RTVSPropertyOp9
 70
     1
102
RTVSPropertyOp10
 70
     1
102
RTVSPropertyOp11
 70
     1
102
RTVSPropertyOp12
 70
     1
102
RTVSPropertyOp13
 70
     1
102
RTVSPropertyOp14
 70
     1
102
RTVSPropertyOp15
 70
     1
102
RTVSPropertyOp16
 70
     1
102
RTVSPropertyOp17
 70
     1
102
RTVSPropertyOp18
 70
     1
102
RTVSPropertyOp19
 70
     1
102
RTVSPropertyOp20
 70
     1
102
RTVSPropertyOp21
 70
     1
102
RTVSPropertyOp22
 70
     1
102
RTVSPropertyOp23
 70
     1
102
RTVSPropertyOp24
 70
     1
102
RTVSPropertyOp25
 70
     1
102
RTVSPropertyOp26
 70
     1
102
RTVSPropertyOp27
 70
     1
102
RTVSPropertyOp28
 70
     1
102
RTVSPropertyOp29
 70
     1
102
RTVSPropertyOp30
 70
     1
102
RTVSPropertyOp31
 70
     1
102
RTVSPropertyOp32
 70
     1
  0
XRECORD
  5
19915
102
{ACAD_REACTORS
330
19914
102
}
330
19914
100
AcDbXrecord
280
     1
102
RTVSPropertyOp0
 70
     1
102
RTVSPropertyOp1
 70
     1
102
RTVSPropertyOp2
 70
     1
102
RTVSPropertyOp3
 70
     1
102
RTVSPropertyOp4
 70
     1
102
RTVSPropertyOp5
 70
     1
102
RTVSPropertyOp6
 70
     1
102
RTVSPropertyOp7
 70
     1
102
RTVSPropertyOp8
 70
     1
102
RTVSPropertyOp9
 70
     1
102
RTVSPropertyOp10
 70
     1
102
RTVSPropertyOp11
 70
     1
102
RTVSPropertyOp12
 70
     1
102
RTVSPropertyOp13
 70
     1
102
RTVSPropertyOp14
 70
     1
102
RTVSPropertyOp15
 70
     1
102
RTVSPropertyOp16
 70
     1
102
RTVSPropertyOp17
 70
     1
102
RTVSPropertyOp18
 70
     1
102
RTVSPropertyOp19
 70
     1
102
RTVSPropertyOp20
 70
     1
102
RTVSPropertyOp21
 70
     1
102
RTVSPropertyOp22
 70
     1
102
RTVSPropertyOp23
 70
     1
102
RTVSPropertyOp24
 70
     1
102
RTVSPropertyOp25
 70
     1
102
RTVSPropertyOp26
 70
     1
102
RTVSPropertyOp27
 70
     1
102
RTVSPropertyOp28
 70
     1
102
RTVSPropertyOp29
 70
     1
102
RTVSPropertyOp30
 70
     1
102
RTVSPropertyOp31
 70
     1
102
RTVSPropertyOp32
 70
     1
  0
XRECORD
  5
1990F
102
{ACAD_REACTORS
330
1990E
102
}
330
1990E
100
AcDbXrecord
280
     1
102
RTVSPropertyOp0
 70
     1
102
RTVSPropertyOp1
 70
     1
102
RTVSPropertyOp2
 70
     1
102
RTVSPropertyOp3
 70
     1
102
RTVSPropertyOp4
 70
     1
102
RTVSPropertyOp5
 70
     1
102
RTVSPropertyOp6
 70
     1
102
RTVSPropertyOp7
 70
     1
102
RTVSPropertyOp8
 70
     1
102
RTVSPropertyOp9
 70
     1
102
RTVSPropertyOp10
 70
     1
102
RTVSPropertyOp11
 70
     1
102
RTVSPropertyOp12
 70
     1
102
RTVSPropertyOp13
 70
     1
102
RTVSPropertyOp14
 70
     1
102
RTVSPropertyOp15
 70
     1
102
RTVSPropertyOp16
 70
     1
102
RTVSPropertyOp17
 70
     1
102
RTVSPropertyOp18
 70
     1
102
RTVSPropertyOp19
 70
     1
102
RTVSPropertyOp20
 70
     1
102
RTVSPropertyOp21
 70
     1
102
RTVSPropertyOp22
 70
     1
102
RTVSPropertyOp23
 70
     1
102
RTVSPropertyOp24
 70
     1
102
RTVSPropertyOp25
 70
     1
102
RTVSPropertyOp26
 70
     1
102
RTVSPropertyOp27
 70
     1
102
RTVSPropertyOp28
 70
     1
102
RTVSPropertyOp29
 70
     1
102
RTVSPropertyOp30
 70
     1
102
RTVSPropertyOp31
 70
     1
102
RTVSPropertyOp32
 70
     1
  0
XRECORD
  5
19911
102
{ACAD_REACTORS
330
19910
102
}
330
19910
100
AcDbXrecord
280
     1
102
RTVSPropertyOp0
 70
     1
102
RTVSPropertyOp1
 70
     1
102
RTVSPropertyOp2
 70
     1
102
RTVSPropertyOp3
 70
     1
102
RTVSPropertyOp4
 70
     1
102
RTVSPropertyOp5
 70
     1
102
RTVSPropertyOp6
 70
     1
102
RTVSPropertyOp7
 70
     1
102
RTVSPropertyOp8
 70
     1
102
RTVSPropertyOp9
 70
     1
102
RTVSPropertyOp10
 70
     1
102
RTVSPropertyOp11
 70
     1
102
RTVSPropertyOp12
 70
     1
102
RTVSPropertyOp13
 70
     1
102
RTVSPropertyOp14
 70
     1
102
RTVSPropertyOp15
 70
     1
102
RTVSPropertyOp16
 70
     1
102
RTVSPropertyOp17
 70
     1
102
RTVSPropertyOp18
 70
     1
102
RTVSPropertyOp19
 70
     1
102
RTVSPropertyOp20
 70
     1
102
RTVSPropertyOp21
 70
     1
102
RTVSPropertyOp22
 70
     1
102
RTVSPropertyOp23
 70
     1
102
RTVSPropertyOp24
 70
     1
102
RTVSPropertyOp25
 70
     1
102
RTVSPropertyOp26
 70
     1
102
RTVSPropertyOp27
 70
     1
102
RTVSPropertyOp28
 70
     1
102
RTVSPropertyOp29
 70
     1
102
RTVSPropertyOp30
 70
     1
102
RTVSPropertyOp31
 70
     1
102
RTVSPropertyOp32
 70
     1
  0
XRECORD
  5
198F3
102
{ACAD_REACTORS
330
198F2
102
}
330
198F2
100
AcDbXrecord
280
     1
102
RTVSPropertyOp0
 70
     1
102
RTVSPropertyOp1
 70
     1
102
RTVSPropertyOp2
 70
     1
102
RTVSPropertyOp3
 70
     1
102
RTVSPropertyOp4
 70
     1
102
RTVSPropertyOp5
 70
     1
102
RTVSPropertyOp6
 70
     1
102
RTVSPropertyOp7
 70
     1
102
RTVSPropertyOp8
 70
     1
102
RTVSPropertyOp9
 70
     1
102
RTVSPropertyOp10
 70
     1
102
RTVSPropertyOp11
 70
     1
102
RTVSPropertyOp12
 70
     1
102
RTVSPropertyOp13
 70
     1
102
RTVSPropertyOp14
 70
     1
102
RTVSPropertyOp15
 70
     1
102
RTVSPropertyOp16
 70
     1
102
RTVSPropertyOp17
 70
     1
102
RTVSPropertyOp18
 70
     1
102
RTVSPropertyOp19
 70
     1
102
RTVSPropertyOp20
 70
     1
102
RTVSPropertyOp21
 70
     1
102
RTVSPropertyOp22
 70
     1
102
RTVSPropertyOp23
 70
     1
102
RTVSPropertyOp24
 70
     1
102
RTVSPropertyOp25
 70
     1
102
RTVSPropertyOp26
 70
     1
102
RTVSPropertyOp27
 70
     1
102
RTVSPropertyOp28
 70
     1
102
RTVSPropertyOp29
 70
     1
102
RTVSPropertyOp30
 70
     1
102
RTVSPropertyOp31
 70
     1
102
RTVSPropertyOp32
 70
     1
  0
XRECORD
  5
1990B
102
{ACAD_REACTORS
330
1990A
102
}
330
1990A
100
AcDbXrecord
280
     1
102
RTVSPropertyOp0
 70
     1
102
RTVSPropertyOp1
 70
     1
102
RTVSPropertyOp2
 70
     1
102
RTVSPropertyOp3
 70
     1
102
RTVSPropertyOp4
 70
     1
102
RTVSPropertyOp5
 70
     1
102
RTVSPropertyOp6
 70
     1
102
RTVSPropertyOp7
 70
     1
102
RTVSPropertyOp8
 70
     1
102
RTVSPropertyOp9
 70
     1
102
RTVSPropertyOp10
 70
     1
102
RTVSPropertyOp11
 70
     1
102
RTVSPropertyOp12
 70
     1
102
RTVSPropertyOp13
 70
     1
102
RTVSPropertyOp14
 70
     1
102
RTVSPropertyOp15
 70
     1
102
RTVSPropertyOp16
 70
     1
102
RTVSPropertyOp17
 70
     1
102
RTVSPropertyOp18
 70
     1
102
RTVSPropertyOp19
 70
     1
102
RTVSPropertyOp20
 70
     1
102
RTVSPropertyOp21
 70
     1
102
RTVSPropertyOp22
 70
     1
102
RTVSPropertyOp23
 70
     1
102
RTVSPropertyOp24
 70
     1
102
RTVSPropertyOp25
 70
     1
102
RTVSPropertyOp26
 70
     1
102
RTVSPropertyOp27
 70
     1
102
RTVSPropertyOp28
 70
     1
102
RTVSPropertyOp29
 70
     1
102
RTVSPropertyOp30
 70
     1
102
RTVSPropertyOp31
 70
     1
102
RTVSPropertyOp32
 70
     1
  0
XRECORD
  5
19913
102
{ACAD_REACTORS
330
19912
102
}
330
19912
100
AcDbXrecord
280
     1
102
RTVSPropertyOp0
 70
     1
102
RTVSPropertyOp1
 70
     1
102
RTVSPropertyOp2
 70
     1
102
RTVSPropertyOp3
 70
     1
102
RTVSPropertyOp4
 70
     1
102
RTVSPropertyOp5
 70
     1
102
RTVSPropertyOp6
 70
     1
102
RTVSPropertyOp7
 70
     1
102
RTVSPropertyOp8
 70
     1
102
RTVSPropertyOp9
 70
     1
102
RTVSPropertyOp10
 70
     1
102
RTVSPropertyOp11
 70
     1
102
RTVSPropertyOp12
 70
     1
102
RTVSPropertyOp13
 70
     1
102
RTVSPropertyOp14
 70
     1
102
RTVSPropertyOp15
 70
     1
102
RTVSPropertyOp16
 70
     1
102
RTVSPropertyOp17
 70
     1
102
RTVSPropertyOp18
 70
     1
102
RTVSPropertyOp19
 70
     1
102
RTVSPropertyOp20
 70
     1
102
RTVSPropertyOp21
 70
     1
102
RTVSPropertyOp22
 70
     1
102
RTVSPropertyOp23
 70
     1
102
RTVSPropertyOp24
 70
     1
102
RTVSPropertyOp25
 70
     1
102
RTVSPropertyOp26
 70
     1
102
RTVSPropertyOp27
 70
     1
102
RTVSPropertyOp28
 70
     1
102
RTVSPropertyOp29
 70
     1
102
RTVSPropertyOp30
 70
     1
102
RTVSPropertyOp31
 70
     1
102
RTVSPropertyOp32
 70
     1
  0
ENDSEC
  0
EOF
