  0
SECTION
  2
HEADER
  9
$ACADVER
  1
AC1009
  9
$INSBASE
 10
1.2351028486011071
 20
11.247746401293711
 30
0.0
  9
$EXTMIN
 10
80.654540420525777
 20
23.059653536663209
 30
0.0
  9
$EXTMAX
 10
86.558049507342758
 20
28.116244016144272
 30
0.0
  9
$LIMMIN
 10
0.0
 20
0.0
  9
$LIMMAX
 10
12.0
 20
9.0
  9
$ORTHOMODE
 70
     0
  9
$REGENMODE
 70
     1
  9
$FILLMODE
 70
     1
  9
$QTEXTMODE
 70
     0
  9
$MIRRTEXT
 70
     0
  9
$DRAGMODE
 70
     2
  9
$LTSCALE
 40
1.0
  9
$OSMODE
 70
   111
  9
$ATTMODE
 70
     1
  9
$TEXTSIZE
 40
0.125
  9
$TRACEWID
 40
0.05
  9
$TEXTSTYLE
  7
STD
  9
$CLAYER
  8
0
  9
$CELTYPE
  6
BYLAYER
  9
$CECOLOR
 62
   256
  9
$DIMSCALE
 40
1.0
  9
$DIMASZ
 40
0.18
  9
$DIMEXO
 40
0.0625
  9
$DIMDLI
 40
0.38
  9
$DIMRND
 40
0.0
  9
$DIMDLE
 40
0.0
  9
$DIMEXE
 40
0.18
  9
$DIMTP
 40
0.0
  9
$DIMTM
 40
0.0
  9
$DIMTXT
 40
0.18
  9
$DIMCEN
 40
0.09
  9
$DIMTSZ
 40
0.0
  9
$DIMTOL
 70
     0
  9
$DIMLIM
 70
     0
  9
$DIMTIH
 70
     1
  9
$DIMTOH
 70
     1
  9
$DIMSE1
 70
     0
  9
$DIMSE2
 70
     0
  9
$DIMTAD
 70
     0
  9
$DIMZIN
 70
     0
  9
$DIMBLK
  1

  9
$DIMASO
 70
     1
  9
$DIMSHO
 70
     1
  9
$DIMPOST
  1

  9
$DIMAPOST
  1

  9
$DIMALT
 70
     0
  9
$DIMALTD
 70
     2
  9
$DIMALTF
 40
25.399999999999999
  9
$DIMLFAC
 40
1.0
  9
$DIMTOFL
 70
     0
  9
$DIMTVP
 40
0.0
  9
$DIMTIX
 70
     0
  9
$DIMSOXD
 70
     0
  9
$DIMSAH
 70
     0
  9
$DIMBLK1
  1

  9
$DIMBLK2
  1

  9
$DIMSTYLE
  2
STANDARD
  9
$DIMCLRD
 70
     0
  9
$DIMCLRE
 70
     0
  9
$DIMCLRT
 70
     0
  9
$DIMTFAC
 40
1.0
  9
$DIMGAP
 40
0.09
  9
$LUNITS
 70
     5
  9
$LUPREC
 70
     6
  9
$SKETCHINC
 40
0.1
  9
$FILLETRAD
 40
0.0
  9
$AUNITS
 70
     0
  9
$AUPREC
 70
     0
  9
$MENU
  1
.
  9
$ELEVATION
 40
0.0
  9
$PELEVATION
 40
0.0
  9
$THICKNESS
 40
0.0
  9
$LIMCHECK
 70
     0
  9
$BLIPMODE
 70
     0
  9
$CHAMFERA
 40
0.5
  9
$CHAMFERB
 40
0.5
  9
$SKPOLY
 70
     0
  9
$TDCREATE
 40
2451225.345284028
  9
$TDUPDATE
 40
2454844.4031418292
  9
$TDINDWG
 40
1.1615200116
  9
$TDUSRTIMER
 40
1.161519838
  9
$USRTIMER
 70
     1
  9
$ANGBASE
 50
0.0
  9
$ANGDIR
 70
     0
  9
$PDMODE
 70
     3
  9
$PDSIZE
 40
0.0
  9
$PLINEWID
 40
0.0
  9
$COORDS
 70
     1
  9
$SPLFRAME
 70
     0
  9
$SPLINETYPE
 70
     6
  9
$SPLINESEGS
 70
     8
  9
$ATTDIA
 70
     0
  9
$ATTREQ
 70
     1
  9
$HANDLING
 70
     1
  9
$HANDSEED
  5
6E791
  9
$SURFTAB1
 70
     6
  9
$SURFTAB2
 70
     6
  9
$SURFTYPE
 70
     6
  9
$SURFU
 70
     6
  9
$SURFV
 70
     6
  9
$UCSNAME
  2

  9
$UCSORG
 10
0.0
 20
0.0
 30
0.0
  9
$UCSXDIR
 10
1.0
 20
0.0
 30
0.0
  9
$UCSYDIR
 10
0.0
 20
1.0
 30
0.0
  9
$PUCSNAME
  2

  9
$PUCSORG
 10
0.0
 20
0.0
 30
0.0
  9
$PUCSXDIR
 10
1.0
 20
0.0
 30
0.0
  9
$PUCSYDIR
 10
0.0
 20
1.0
 30
0.0
  9
$USERI1
 70
     0
  9
$USERI2
 70
     0
  9
$USERI3
 70
     0
  9
$USERI4
 70
     0
  9
$USERI5
 70
     0
  9
$USERR1
 40
0.0
  9
$USERR2
 40
0.0
  9
$USERR3
 40
0.0
  9
$USERR4
 40
0.0
  9
$USERR5
 40
0.0
  9
$WORLDVIEW
 70
     1
  9
$SHADEDGE
 70
     3
  9
$SHADEDIF
 70
    70
  9
$TILEMODE
 70
     1
  9
$MAXACTVP
 70
    48
  9
$PLIMCHECK
 70
     0
  9
$PEXTMIN
 10
-0.0001218952091371
 20
-0.0000080246436092
 30
-0.0000000349181948
  9
$PEXTMAX
 10
10.20579523931576
 20
7.7651132149410174
 30
0.0000000814935746
  9
$PLIMMIN
 10
-0.2079161059762549
 20
-0.2079166691697489
  9
$PLIMMAX
 10
10.79208365372785
 20
8.2920830905343603
  9
$UNITMODE
 70
     0
  9
$VISRETAIN
 70
     1
  9
$PLINEGEN
 70
     0
  9
$PSLTSCALE
 70
     1
  0
ENDSEC
  0
SECTION
  2
TABLES
  0
TABLE
  2
VPORT
 70
     1
  0
VPORT
  2
*ACTIVE
 70
     0
 10
0.0
 20
0.0
 11
1.0
 21
1.0
 12
83.605466142638008
 22
25.588030197521249
 13
0.0
 23
0.0
 14
0.5
 24
0.5
 15
0.5
 25
0.5
 16
0.0
 26
0.0
 36
1.0
 17
0.0
 27
0.0
 37
0.0
 40
5.1040574074078924
 41
1.931818181818181
 42
50.0
 43
0.0
 44
0.0
 50
0.0
 51
0.0
 71
     0
 72
   100
 73
     1
 74
     1
 75
     0
 76
     0
 77
     0
 78
     2
  0
ENDTAB
  0
TABLE
  2
LTYPE
 70
     2
  0
LTYPE
  2
CONTINUOUS
 70
     0
  3
Solid line
 72
    65
 73
     0
 40
0.0
  0
LTYPE
  2
HIDDEN2
 70
     0
  3
Hidden (.5x) _ _ _ _ _ _ _ _ _ _ _ _ _ _ _ _ _
 72
    65
 73
     2
 40
0.1875
 49
0.125
 49
-0.0625
  0
ENDTAB
  0
TABLE
  2
LAYER
 70
     3
  0
LAYER
  2
0
 70
     0
 62
     7
  6
CONTINUOUS
  0
LAYER
  2
DIM
 70
     0
 62
     1
  6
CONTINUOUS
  0
LAYER
  2
DETAIL
 70
     0
 62
     1
  6
CONTINUOUS
  0
ENDTAB
  0
TABLE
  2
STYLE
 70
     2
  0
STYLE
  2
STANDARD
 70
     0
 40
0.0
 41
1.0
 50
0.0
 71
     0
 42
0.2
  3
txt
  4

  0
STYLE
  2
STD
 70
     0
 40
0.0
 41
1.0
 50
0.0
 71
     0
 42
0.125
  3
txt
  4

  0
ENDTAB
  0
TABLE
  2
VIEW
 70
     0
  0
ENDTAB
  0
TABLE
  2
UCS
 70
     0
  0
ENDTAB
  0
TABLE
  2
APPID
 70
    22
  0
APPID
  2
ACAD
 70
     0
  0
APPID
  2
RAK
 70
     0
  0
APPID
  2
DCO15
 70
     0
  0
APPID
  2
ABNSLEADERTOOLS
 70
     0
  0
APPID
  2
ACAD_PSEXT
 70
     0
  0
APPID
  2
ACAD_DSTYLE_DIMTEXT_FILL
 70
     0
  0
APPID
  2
ACAECLAYERSTANDARD
 70
     0
  0
APPID
  2
ACDBBLOCKREPETAG
 70
     0
  0
APPID
  2
ACLAYERTOOLS
 70
     0
  0
APPID
  2
ACAD_DSTYLE_DIMJAG
 70
     0
  0
APPID
  2
ACAD_DSTYLE_DIMBREAK
 70
     0
  0
APPID
  2
ACADANNOTATIVE
 70
     0
  0
APPID
  2
ACAD_DSTYLE_DIMTALN
 70
     0
  0
APPID
  2
ACADANNOAV
 70
     0
  0
APPID
  2
ACAD_MLEADERVER
 70
     0
  0
APPID
  2
ACADANNOPO
 70
     0
  0
APPID
  2
ACAD_DSTYLE_DIMRADIAL_EXTENSION
 70
     0
  0
APPID
  2
ACDBDYNAMICBLOCKTRUENAME
 70
     0
  0
APPID
  2
ACDBDYNAMICBLOCKGUID
 70
     0
  0
APPID
  2
ACAUTHENVIRON
 70
     0
  0
APPID
  2
ACDBBLOCKREPBTAG
 70
     0
  0
APPID
  2
ACAD_EXEMPT_FROM_CAD_STANDARDS
 70
     0
  0
ENDTAB
  0
TABLE
  2
DIMSTYLE
 70
     3
  0
DIMSTYLE
  2
STANDARD
 70
     0
  3

  4

  5

  6

  7

 40
1.0
 41
0.18
 42
0.0625
 43
0.38
 44
0.18
 45
0.0
 46
0.0
 47
0.0
 48
0.0
140
0.18
141
0.09
142
0.0
143
25.399999999999999
144
1.0
145
0.0
146
1.0
147
0.09
 71
     0
 72
     0
 73
     1
 74
     1
 75
     0
 76
     0
 77
     0
 78
     0
170
     0
171
     2
172
     0
173
     0
174
     0
175
     0
176
     0
177
     0
178
     0
  0
ENDTAB
  0
ENDSEC
  0
SECTION
  2
BLOCKS
  0
BLOCK
  8
0
  2
$MODEL_SPACE
 70
     0
 10
0.0
 20
0.0
 30
0.0
  3
$MODEL_SPACE
  1

  0
ENDBLK
  5
6E6F1
  8
0
  0
BLOCK
 67
     1
  8
0
  2
$PAPER_SPACE
 70
     0
 10
0.0
 20
0.0
 30
0.0
  3
$PAPER_SPACE
  1

  0
ENDBLK
  5
6E6ED
 67
     1
  8
0
  0
BLOCK
  8
0
  2
*U30
 70
     1
 10
0.0
 20
0.0
 30
0.0
  3
*U30
  1

  0
SOLID
  5
6E6AC
  8
DIM
 10
83.270589193078109
 20
25.959017140093149
 30
0.0
 11
83.346241840085781
 21
25.857352471803161
 31
0.0
 12
83.241706200498001
 22
25.92898575899391
 32
0.0
 13
83.241706200498001
 23
25.92898575899391
 33
0.0
  0
POLYLINE
  5
6E6AD
  8
DIM
 66
     1
 10
0.0
 20
0.0
 30
0.0
  0
VERTEX
  5
6E77D
  8
DIM
 10
83.256147696788034
 20
25.944001449543538
 30
0.0
  0
VERTEX
  5
6E77E
  8
DIM
 10
82.261140439371957
 20
26.900960010262111
 30
0.0
  0
VERTEX
  5
6E77F
  8
DIM
 10
82.136140439371957
 20
26.900960010262111
 30
0.0
  0
SEQEND
  5
6E780
  8
DIM
  0
ENDBLK
  5
6E6B3
  8
0
  0
BLOCK
  8
0
  2
*U31
 70
     1
 10
0.0
 20
0.0
 30
0.0
  3
*U31
  1

  0
TEXT
  5
6E6B5
  8
DIM
 10
81.274653399808514
 20
26.836243093481752
 30
0.0
 40
0.125
  1
GORDON
  7
STD
  0
TEXT
  5
6E6B6
  8
DIM
 10
81.331611107857626
 20
26.625692843368061
 30
0.0
 40
0.125
  1
POCKET
  7
STD
  0
TEXT
  5
6E6B7
  8
DIM
 10
81.277467178798986
 20
26.415227859284389
 30
0.0
 40
0.125
  1
END CAP
  7
STD
  0
ENDBLK
  5
6E6B9
  8
0
  0
ENDSEC
  0
SECTION
  2
ENTITIES
  0
LINE
  5
361BE
  8
0
 62
     2
 10
86.233289980923573
 20
27.366244016144261
 30
0.0
 11
86.249527957244567
 21
27.35686901614427
 31
0.0
  0
LINE
  5
361BF
  8
0
 62
     2
 10
84.950489851567895
 20
27.75061901614427
 30
0.0
 11
85.924768430825381
 21
27.18811901614426
 31
0.0
  0
LINE
  5
361C0
  8
0
 62
     2
 10
86.558049507342758
 20
25.322494016144269
 30
0.0
 11
86.558049507342758
 21
25.303744016144272
 31
0.0
  0
LINE
  5
361C1
  8
0
 62
     2
 10
86.249527957244567
 20
25.50061901614427
 30
0.0
 11
86.558049507342758
 21
25.322494016144269
 31
0.0
  0
LINE
  5
361C2
  8
0
 62
     2
 10
86.249527957244567
 20
27.356869016144248
 30
0.0
 11
86.249527957244567
 21
25.50061901614427
 31
0.0
  0
LINE
  5
361C3
  8
0
 62
     2
 10
84.950489851567895
 20
28.106869016144248
 30
0.0
 11
84.950489851567895
 21
27.75061901614427
 31
0.0
  0
LINE
  5
361C4
  8
0
 62
     2
 10
83.123360685708136
 20
27.07072550039091
 30
0.0
 11
83.139598662029101
 21
27.061350500390908
 31
0.0
  0
LINE
  5
361C5
  8
0
 62
     2
 10
83.123360685708136
 20
26.7144755003909
 30
0.0
 11
83.261383484436266
 21
26.634788000390898
 31
0.0
  0
LINE
  5
361C6
  8
0
 62
     2
 10
83.261383484436266
 20
26.616038000390901
 30
0.0
 11
83.261383484436266
 21
26.634788000390898
 31
0.0
  0
POLYLINE
  5
361C7
  8
0
 62
     2
 66
     1
 10
0.0
 20
0.0
 30
0.0
  0
VERTEX
  5
6E75D
  8
0
 62
     2
 10
83.266139477587913
 20
26.650792126464541
 30
0.0
 42
0.0587518675354077
  0
VERTEX
  5
6E75E
  8
0
 62
     2
 10
83.262470700165593
 20
26.642263186108721
 30
0.0
 42
0.0723410840577274
  0
VERTEX
  5
6E75F
  8
0
 62
     2
 10
83.261383484436266
 20
26.634788000390898
 30
0.0
 42
0.1066170543909353
  0
SEQEND
  5
6E760
  8
0
 62
     2
  0
LINE
  5
361C8
  8
0
 62
     2
 10
83.261383484436266
 20
26.616038000390901
 30
0.0
 11
83.10712270938717
 21
26.705100500390909
 31
0.0
  0
LINE
  5
361C9
  8
0
 62
     2
 10
83.10712270938717
 20
26.705100500390909
 30
0.0
 11
83.123360685708136
 21
26.7144755003909
 31
0.0
  0
POLYLINE
  5
361CA
  8
0
 62
     2
 66
     1
 10
0.0
 20
0.0
 30
0.0
  0
VERTEX
  5
6E761
  8
0
 62
     2
 10
83.277621460757231
 20
26.662913000390919
 30
0.0
 42
0.0723410840576838
  0
VERTEX
  5
6E762
  8
0
 62
     2
 10
83.271691367892259
 20
26.658233851091001
 30
0.0
 42
0.0587518675354184
  0
VERTEX
  5
6E763
  8
0
 62
     2
 10
83.266139477587913
 20
26.650792126464541
 30
0.0
 42
0.0587518675354077
  0
SEQEND
  5
6E764
  8
0
 62
     2
  0
LINE
  5
361CB
  8
0
 62
     2
 10
83.139598662029101
 20
27.061350500390908
 30
0.0
 11
83.139598662029101
 21
26.705100500390909
 31
0.0
  0
LINE
  5
361CC
  8
0
 62
     2
 10
83.123360685708136
 20
26.7144755003909
 30
0.0
 11
83.123360685708136
 21
27.07072550039091
 31
0.0
  0
LINE
  5
361CD
  8
0
 62
     2
 10
83.569905034534443
 20
26.831663000390911
 30
0.0
 11
83.277621460757231
 21
26.662913000390919
 31
0.0
  0
LINE
  5
361CE
  8
0
 62
     2
 10
83.569905034534443
 20
26.831663000390911
 30
0.0
 11
84.438636767705745
 21
26.33010050039092
 31
0.0
  0
LINE
  5
361CF
  8
0
 62
     2
 10
84.284375992656607
 20
26.04416300039091
 30
0.0
 11
84.438636767705745
 21
25.955100500390909
 31
0.0
  0
LINE
  5
361D0
  8
0
 62
     2
 10
84.284375992656663
 20
26.04416300039091
 30
0.0
 11
84.284375992656607
 21
26.06291300039091
 31
0.0
  0
LINE
  5
361D1
  8
0
 62
     2
 10
84.422398791384779
 20
25.94572550039091
 30
0.0
 11
84.438636767705745
 21
25.955100500390909
 31
0.0
  0
LINE
  5
361D2
  8
0
 62
     2
 10
84.438636767705745
 20
25.955100500390909
 30
0.0
 11
84.438636767705745
 21
26.311350500390908
 31
0.0
  0
LINE
  5
361D3
  8
0
 62
     2
 10
84.284375992656607
 20
26.06291300039091
 30
0.0
 11
84.422398791384779
 21
26.142600500390909
 31
0.0
  0
LINE
  5
361D4
  8
0
 62
     2
 10
84.422398791384779
 20
26.161350500390931
 30
0.0
 11
84.284375992656663
 21
26.081663000390929
 31
0.0
  0
POLYLINE
  5
361D5
  8
0
 62
     2
 66
     1
 10
0.0
 20
0.0
 30
0.0
  0
VERTEX
  5
6E765
  8
0
 62
     2
 10
84.272894009487317
 20
26.06954212646454
 30
0.0
 42
0.0587518675354077
  0
VERTEX
  5
6E766
  8
0
 62
     2
 10
84.269225232065025
 20
26.061013186108731
 30
0.0
 42
0.0723410840577274
  0
VERTEX
  5
6E767
  8
0
 62
     2
 10
84.268138016335683
 20
26.053538000390901
 30
0.0
 42
0.1066170543909353
  0
SEQEND
  5
6E768
  8
0
 62
     2
  0
LINE
  5
361D6
  8
0
 62
     2
 10
84.268138016335683
 20
26.0347880003909
 30
0.0
 11
84.268138016335683
 21
26.053538000390901
 31
0.0
  0
LINE
  5
361D7
  8
0
 62
     2
 10
84.422398791384779
 20
25.94572550039091
 30
0.0
 11
84.268138016335683
 21
26.0347880003909
 31
0.0
  0
LINE
  5
361D8
  8
0
 62
     2
 10
84.268138016335683
 20
26.0347880003909
 30
0.0
 11
84.284375992656607
 21
26.04416300039091
 31
0.0
  0
POLYLINE
  5
361D9
  8
0
 62
     2
 66
     1
 10
0.0
 20
0.0
 30
0.0
  0
VERTEX
  5
6E769
  8
0
 62
     2
 10
84.284375992656663
 20
26.081663000390918
 30
0.0
 42
0.0723410840576838
  0
VERTEX
  5
6E76A
  8
0
 62
     2
 10
84.278445899791663
 20
26.076983851091011
 30
0.0
 42
0.0587518675354184
  0
VERTEX
  5
6E76B
  8
0
 62
     2
 10
84.272894009487317
 20
26.06954212646454
 30
0.0
 42
0.0587518675354077
  0
SEQEND
  5
6E76C
  8
0
 62
     2
  0
LINE
  5
361DA
  8
DETAIL
  6
HIDDEN2
 10
82.490079609190744
 20
25.205100500390909
 30
0.0
 11
82.490079609190744
 21
25.186350500390908
 31
0.0
  0
LINE
  5
361DB
  8
DETAIL
  6
HIDDEN2
 10
82.490079609190744
 20
25.205100500390898
 30
0.0
 11
82.798601159288964
 21
25.026975500390911
 31
0.0
  0
LINE
  5
361DC
  8
DETAIL
  6
HIDDEN2
 10
82.814839135609944
 20
25.392600500390898
 30
0.0
 11
82.490079609190744
 21
25.205100500390898
 31
0.0
  0
LINE
  5
361DD
  8
DETAIL
  6
HIDDEN2
 10
82.490079609190744
 20
25.186350500390908
 30
0.0
 11
82.798601159288964
 21
25.00822550039091
 31
0.0
  0
LINE
  5
361DE
  8
0
 62
     2
 10
82.798601159288964
 20
25.026975500390911
 30
0.0
 11
82.798601159288964
 21
25.00822550039091
 31
0.0
  0
LINE
  5
361DF
  8
DETAIL
  6
HIDDEN2
 10
82.814839135609944
 20
25.392600500390898
 30
0.0
 11
83.10712270938717
 21
25.22385050039091
 31
0.0
  0
LINE
  5
361E0
  8
0
 62
     2
 10
83.10712270938717
 20
25.205100500390909
 30
0.0
 11
82.798601159288964
 21
25.026975500390911
 31
0.0
  0
LINE
  5
361E1
  8
0
 62
     2
 10
84.422398791384779
 20
25.964475500390911
 30
0.0
 11
84.422398791384779
 21
26.32072550039091
 31
0.0
  0
LINE
  5
361E2
  8
0
 62
     2
 10
84.422398791384779
 20
26.32072550039091
 30
0.0
 11
84.438636767705745
 21
26.311350500390908
 31
0.0
  0
LINE
  5
361E3
  8
0
 62
     2
 10
83.10712270938717
 20
25.205100500390909
 30
0.0
 11
83.10712270938717
 21
26.705100500390909
 31
0.0
  0
LINE
  5
361E4
  8
DETAIL
 10
83.264054543289788
 20
26.646635430049201
 30
0.0
 11
84.270809075189177
 21
26.065385430049201
 31
0.0
  0
LINE
  5
361E5
  8
0
 62
     2
 10
82.124077277572482
 20
24.88309103666322
 30
0.0
 11
82.124077277572482
 21
24.86434103666322
 31
0.0
  0
POLYLINE
  5
361E6
  8
0
 62
     2
 66
     1
 10
0.0
 20
0.0
 30
0.0
  0
VERTEX
  5
6E76D
  8
0
 62
     2
 10
81.820311720625924
 20
24.70222016273684
 30
0.0
 42
0.0587518675354077
  0
VERTEX
  5
6E76E
  8
0
 62
     2
 10
81.81664294320359
 20
24.69369122238103
 30
0.0
 42
0.0723410840577274
  0
VERTEX
  5
6E76F
  8
0
 62
     2
 10
81.815555727474276
 20
24.6862160366632
 30
0.0
 42
0.1066170543909353
  0
SEQEND
  5
6E770
  8
0
 62
     2
  0
LINE
  5
361E7
  8
0
 62
     2
 10
81.815555727474276
 20
24.66746603666321
 30
0.0
 11
81.831793703795228
 21
24.676841036663209
 31
0.0
  0
LINE
  5
361E8
  8
0
 62
     2
 10
81.815555727474276
 20
24.66746603666321
 30
0.0
 11
81.815555727474276
 21
24.6862160366632
 31
0.0
  0
LINE
  5
361E9
  8
0
 62
     2
 10
81.831793703795228
 20
24.676841036663209
 30
0.0
 11
81.831793703795228
 21
24.69559103666322
 31
0.0
  0
POLYLINE
  5
361EA
  8
0
 62
     2
 66
     1
 10
0.0
 20
0.0
 30
0.0
  0
VERTEX
  5
6E771
  8
0
 62
     2
 10
81.831793703795228
 20
24.714341036663221
 30
0.0
 42
0.0723410840576838
  0
VERTEX
  5
6E772
  8
0
 62
     2
 10
81.825863610930256
 20
24.7096618873633
 30
0.0
 42
0.0587518675354184
  0
VERTEX
  5
6E773
  8
0
 62
     2
 10
81.820311720625924
 20
24.70222016273684
 30
0.0
 42
0.0587518675354077
  0
SEQEND
  5
6E774
  8
0
 62
     2
  0
LINE
  5
361EB
  8
0
 62
     2
 10
82.124077277572482
 20
24.88309103666322
 30
0.0
 11
81.831793703795228
 21
24.714341036663221
 31
0.0
  0
LINE
  5
361EC
  8
0
 62
     2
 10
81.831793703795228
 20
24.69559103666322
 30
0.0
 11
82.124077277572482
 21
24.86434103666322
 31
0.0
  0
LINE
  5
361ED
  8
0
 62
     2
 10
81.117322745673064
 20
25.46434103666321
 30
0.0
 11
82.124077277572482
 21
24.88309103666322
 31
0.0
  0
POLYLINE
  5
361EE
  8
0
 62
     2
 66
     1
 10
0.0
 20
0.0
 30
0.0
  0
VERTEX
  5
6E775
  8
0
 62
     2
 10
80.825039171895824
 20
25.295591036663229
 30
0.0
 42
0.0723410840576838
  0
VERTEX
  5
6E776
  8
0
 62
     2
 10
80.819109079030838
 20
25.290911887363301
 30
0.0
 42
0.0587518675354184
  0
VERTEX
  5
6E777
  8
0
 62
     2
 10
80.813557188726506
 20
25.28347016273683
 30
0.0
 42
0.0587518675354077
  0
SEQEND
  5
6E778
  8
0
 62
     2
  0
POLYLINE
  5
361EF
  8
0
 62
     2
 66
     1
 10
0.0
 20
0.0
 30
0.0
  0
VERTEX
  5
6E779
  8
0
 62
     2
 10
80.813557188726506
 20
25.28347016273683
 30
0.0
 42
0.0587518675354077
  0
VERTEX
  5
6E77A
  8
0
 62
     2
 10
80.8098884113042
 20
25.274941222381031
 30
0.0
 42
0.0723410840577274
  0
VERTEX
  5
6E77B
  8
0
 62
     2
 10
80.808801195574844
 20
25.267466036663201
 30
0.0
 42
0.1066170543909353
  0
SEQEND
  5
6E77C
  8
0
 62
     2
  0
LINE
  5
361F0
  8
0
 62
     2
 10
80.654540420525777
 20
25.337778536663201
 30
0.0
 11
80.670778396846686
 21
25.34715353666321
 31
0.0
  0
LINE
  5
361F1
  8
0
 62
     2
 10
80.670778396846686
 20
25.34715353666321
 30
0.0
 11
80.808801195574844
 21
25.267466036663208
 31
0.0
  0
LINE
  5
361F2
  8
0
 62
     2
 10
80.808801195574858
 20
25.248716036663211
 30
0.0
 11
80.654540420525777
 21
25.337778536663201
 31
0.0
  0
LINE
  5
361F3
  8
0
 62
     2
 10
80.808801195574858
 20
25.248716036663211
 30
0.0
 11
80.808801195574844
 21
25.267466036663201
 31
0.0
  0
LINE
  5
361F4
  8
DETAIL
 10
80.811472254428324
 20
25.279313466321501
 30
0.0
 11
81.818226786327756
 21
24.6980634663215
 31
0.0
  0
LINE
  5
361F5
  8
0
 62
     2
 10
81.117322745673064
 20
25.46434103666321
 30
0.0
 11
80.825039171895824
 21
25.295591036663229
 31
0.0
  0
LINE
  5
361F6
  8
0
 62
     2
 10
83.123360685708136
 20
27.07072550039091
 30
0.0
 11
84.934251875246915
 21
28.116244016144272
 31
0.0
  0
LINE
  5
361F7
  8
0
 62
     2
 10
83.139598662029101
 20
26.705100500390909
 30
0.0
 11
84.950489851567895
 21
27.75061901614427
 31
0.0
  0
LINE
  5
361F8
  8
0
 62
     2
 10
84.438636767705745
 20
26.311350500390908
 30
0.0
 11
86.249527957244567
 21
27.35686901614427
 31
0.0
  0
LINE
  5
361F9
  8
0
 62
     2
 10
84.422398791384779
 20
26.32072550039091
 30
0.0
 11
86.233289980923573
 21
27.366244016144261
 31
0.0
  0
LINE
  5
361FA
  8
0
 62
     2
 10
83.139598662029101
 20
27.061350500390908
 30
0.0
 11
84.950489851567895
 21
28.106869016144248
 31
0.0
  0
LINE
  5
361FB
  8
0
 62
     2
 10
84.934251875246915
 20
28.116244016144272
 30
0.0
 11
84.950489851567895
 21
28.106869016144248
 31
0.0
  0
LINE
  5
361FC
  8
0
 62
     2
 10
84.747158317803951
 20
24.2769755003909
 30
0.0
 11
84.747158317803951
 21
24.25822550039091
 31
0.0
  0
LINE
  5
361FD
  8
0
 62
     2
 10
84.422398791384779
 20
24.44572550039091
 30
0.0
 11
84.438636767705745
 21
24.45510050039092
 31
0.0
  0
LINE
  5
361FE
  8
0
 62
     2
 10
84.438636767705745
 20
24.45510050039092
 30
0.0
 11
84.747158317803951
 21
24.2769755003909
 31
0.0
  0
LINE
  5
361FF
  8
0
 62
     2
 10
84.422398791384779
 20
24.089475500390911
 30
0.0
 11
84.422398791384779
 21
24.07072550039091
 31
0.0
  0
LINE
  5
36200
  8
0
 62
     2
 10
84.422398791384779
 20
24.07072550039091
 30
0.0
 11
84.747158317803951
 21
24.25822550039091
 31
0.0
  0
LINE
  5
36201
  8
0
 62
     2
 10
84.747158317803951
 20
24.2769755003909
 30
0.0
 11
84.422398791384779
 21
24.089475500390911
 31
0.0
  0
LINE
  5
36202
  8
0
 62
     2
 10
81.969816502523386
 20
24.57840353666322
 30
0.0
 11
81.986054478844352
 21
24.587778536663208
 31
0.0
  0
LINE
  5
36203
  8
0
 62
     2
 10
81.986054478844352
 20
23.0690285366632
 30
0.0
 11
81.969816502523386
 21
23.059653536663209
 31
0.0
  0
LINE
  5
36204
  8
0
 62
     2
 10
81.969816502523386
 20
23.059653536663209
 30
0.0
 11
81.969816502523386
 21
24.57840353666322
 31
0.0
  0
LINE
  5
36205
  8
0
 62
     2
 10
81.986054478844352
 20
24.587778536663208
 30
0.0
 11
81.986054478844352
 21
23.0690285366632
 31
0.0
  0
LINE
  5
36206
  8
0
 62
     2
 10
80.654540420525777
 20
23.819028536663211
 30
0.0
 11
81.969816502523386
 21
23.059653536663209
 31
0.0
  0
LINE
  5
36207
  8
0
 62
     2
 10
84.438636767705745
 20
24.45510050039092
 30
0.0
 11
86.249527957244567
 21
25.50061901614427
 31
0.0
  0
LINE
  5
36208
  8
0
 62
     2
 10
84.747158317803951
 20
24.25822550039091
 30
0.0
 11
86.558049507342758
 21
25.303744016144261
 31
0.0
  0
LINE
  5
36209
  8
0
 62
     2
 10
84.747158317803951
 20
24.2769755003909
 30
0.0
 11
86.558049507342758
 21
25.322494016144269
 31
0.0
  0
LINE
  5
3620A
  8
0
 62
     2
 10
80.654540420525777
 20
23.819028536663211
 30
0.0
 11
80.654540420525777
 21
25.337778536663201
 31
0.0
  0
LINE
  5
3620B
  8
0
 62
     2
 10
81.969816502523386
 20
24.57840353666322
 30
0.0
 11
81.815555727474276
 21
24.66746603666321
 31
0.0
  0
LINE
  5
3620C
  8
0
 62
     2
 10
81.831793703795228
 20
24.676841036663209
 30
0.0
 11
81.986054478844352
 21
24.587778536663208
 31
0.0
  0
LINE
  5
3620D
  8
0
 62
     2
 10
82.798601159288964
 20
25.00822550039091
 30
0.0
 11
84.422398791384779
 21
24.07072550039091
 31
0.0
  0
LINE
  5
3620E
  8
0
 62
     2
 10
82.798601159288964
 20
25.026975500390911
 30
0.0
 11
84.422398791384779
 21
24.089475500390911
 31
0.0
  0
LINE
  5
3620F
  8
0
 62
     2
 10
83.10712270938717
 20
25.205100500390909
 30
0.0
 11
84.422398791384779
 21
24.44572550039091
 31
0.0
  0
LINE
  5
36210
  8
0
 62
     2
 10
84.422398791384779
 20
24.44572550039091
 30
0.0
 11
84.422398791384779
 21
25.94572550039091
 31
0.0
  0
LINE
  5
36211
  8
0
 62
     2
 10
84.438636767705745
 20
25.955100500390909
 30
0.0
 11
84.438636767705745
 21
24.45510050039092
 31
0.0
  0
INSERT
  5
36274
  8
0
  2
*U30
 10
0.0
 20
0.0
 30
0.0
1001
ACAD
1000
DSTYLE
1002
{
1070
   147
1040
0.09
1070
    77
1070
     0
1002
}
  0
INSERT
  5
36275
  8
0
  2
*U31
 10
0.0
 20
0.0
 30
0.0
  0
VIEWPORT
  5
5D
 67
     1
  8
0
 10
5.1028366720533187
 20
3.8825525951487032
 30
0.0
 40
15.13696701548103
 41
7.835606455072532
 68
     1
 69
     1
1001
ACAD
1000
MVIEW
1002
{
1070
    16
1010
0.0
1020
0.0
1030
0.0
1010
0.0
1020
0.0
1030
1.0
1040
0.0
1040
7.835606455072532
1040
5.1028366720533187
1040
3.8825525951487032
1040
50.0
1040
0.0
1040
0.0
1070
     0
1070
   100
1070
     1
1070
     1
1070
     0
1070
     0
1070
     0
1070
     0
1040
0.0
1040
0.0
1040
0.0
1040
0.5
1040
0.5
1040
0.5
1040
0.5
1070
     0
1002
{
1002
}
1002
}
  0
ENDSEC
  0
EOF
