  0
SECTION
  2
HEADER
  9
$ACADVER
  1
AC1015
  9
$ACADMAINTVER
 70
    20
  9
$DWGCODEPAGE
  3
ANSI_1252
  9
$INSBASE
 10
1.235102848601107
 20
11.24774640129371
 30
0.0
  9
$EXTMIN
 10
3.715440214378439
 20
3.171610235814688
 30
0.0
  9
$EXTMAX
 10
8.7323255440783
 20
5.350875416021216
 30
0.0
  9
$LIMMIN
 10
0.0
 20
0.0
  9
$LIMMAX
 10
12.0
 20
9.0
  9
$ORTHOMODE
 70
     0
  9
$REGENMODE
 70
     1
  9
$FILLMODE
 70
     1
  9
$QTEXTMODE
 70
     0
  9
$MIRRTEXT
 70
     0
  9
$LTSCALE
 40
1.0
  9
$ATTMODE
 70
     1
  9
$TEXTSIZE
 40
0.125
  9
$TRACEWID
 40
0.05
  9
$TEXTSTYLE
  7
STD
  9
$CLAYER
  8
0
  9
$CELTYPE
  6
BYLAYER
  9
$CECOLOR
 62
   256
  9
$CELTSCALE
 40
1.0
  9
$DISPSILH
 70
     0
  9
$DIMSCALE
 40
0.5
  9
$DIMASZ
 40
0.125
  9
$DIMEXO
 40
0.07
  9
$DIMDLI
 40
0.25
  9
$DIMRND
 40
0.0
  9
$DIMDLE
 40
0.0
  9
$DIMEXE
 40
0.14
  9
$DIMTP
 40
0.0
  9
$DIMTM
 40
0.0
  9
$DIMTXT
 40
0.125
  9
$DIMCEN
 40
0.0
  9
$DIMTSZ
 40
0.0
  9
$DIMTOL
 70
     0
  9
$DIMLIM
 70
     0
  9
$DIMTIH
 70
     1
  9
$DIMTOH
 70
     1
  9
$DIMSE1
 70
     0
  9
$DIMSE2
 70
     0
  9
$DIMTAD
 70
     0
  9
$DIMZIN
 70
     3
  9
$DIMBLK
  1

  9
$DIMASO
 70
     1
  9
$DIMSHO
 70
     1
  9
$DIMPOST
  1

  9
$DIMAPOST
  1
"
  9
$DIMALT
 70
     0
  9
$DIMALTD
 70
     3
  9
$DIMALTF
 40
1.0
  9
$DIMLFAC
 40
1.0
  9
$DIMTOFL
 70
     0
  9
$DIMTVP
 40
0.0
  9
$DIMTIX
 70
     0
  9
$DIMSOXD
 70
     0
  9
$DIMSAH
 70
     0
  9
$DIMBLK1
  1

  9
$DIMBLK2
  1

  9
$DIMSTYLE
  2
F-DIM@5
  9
$DIMCLRD
 70
     2
  9
$DIMCLRE
 70
     3
  9
$DIMCLRT
 70
   256
  9
$DIMTFAC
 40
1.0
  9
$DIMGAP
 40
0.09
  9
$DIMJUST
 70
     0
  9
$DIMSD1
 70
     0
  9
$DIMSD2
 70
     0
  9
$DIMTOLJ
 70
     1
  9
$DIMTZIN
 70
     0
  9
$DIMALTZ
 70
     0
  9
$DIMALTTZ
 70
     0
  9
$DIMUPT
 70
     0
  9
$DIMDEC
 70
     6
  9
$DIMTDEC
 70
     6
  9
$DIMALTU
 70
     2
  9
$DIMALTTD
 70
     3
  9
$DIMTXSTY
  7
STD
  9
$DIMAUNIT
 70
     0
  9
$DIMADEC
 70
     0
  9
$DIMALTRND
 40
0.0
  9
$DIMAZIN
 70
     0
  9
$DIMDSEP
 70
    46
  9
$DIMATFIT
 70
     3
  9
$DIMFRAC
 70
     2
  9
$DIMLDRBLK
  1

  9
$DIMLUNIT
 70
     5
  9
$DIMLWD
 70
    -2
  9
$DIMLWE
 70
    -2
  9
$DIMTMOVE
 70
     0
  9
$LUNITS
 70
     5
  9
$LUPREC
 70
     6
  9
$SKETCHINC
 40
0.1
  9
$FILLETRAD
 40
0.0
  9
$AUNITS
 70
     0
  9
$AUPREC
 70
     0
  9
$MENU
  1
.
  9
$ELEVATION
 40
0.0
  9
$PELEVATION
 40
0.0
  9
$THICKNESS
 40
0.0
  9
$LIMCHECK
 70
     0
  9
$CHAMFERA
 40
0.5
  9
$CHAMFERB
 40
0.5
  9
$CHAMFERC
 40
1.0
  9
$CHAMFERD
 40
0.0
  9
$SKPOLY
 70
     0
  9
$TDCREATE
 40
2451225.345284028
  9
$TDUCREATE
 40
2451225.595284028
  9
$TDUPDATE
 40
2456317.603474155
  9
$TDUUPDATE
 40
2456317.853474155
  9
$TDINDWG
 40
1.6509076042
  9
$TDUSRTIMER
 40
1.6509075694
  9
$USRTIMER
 70
     1
  9
$ANGBASE
 50
0.0
  9
$ANGDIR
 70
     0
  9
$PDMODE
 70
     3
  9
$PDSIZE
 40
0.0
  9
$PLINEWID
 40
0.0
  9
$SPLFRAME
 70
     0
  9
$SPLINETYPE
 70
     6
  9
$SPLINESEGS
 70
     8
  9
$HANDSEED
  5
40ADF
  9
$SURFTAB1
 70
     6
  9
$SURFTAB2
 70
     6
  9
$SURFTYPE
 70
     6
  9
$SURFU
 70
     6
  9
$SURFV
 70
     6
  9
$UCSBASE
  2

  9
$UCSNAME
  2

  9
$UCSORG
 10
0.0
 20
0.0
 30
0.0
  9
$UCSXDIR
 10
1.0
 20
0.0
 30
0.0
  9
$UCSYDIR
 10
0.0
 20
1.0
 30
0.0
  9
$UCSORTHOREF
  2

  9
$UCSORTHOVIEW
 70
     0
  9
$UCSORGTOP
 10
0.0
 20
0.0
 30
0.0
  9
$UCSORGBOTTOM
 10
0.0
 20
0.0
 30
0.0
  9
$UCSORGLEFT
 10
0.0
 20
0.0
 30
0.0
  9
$UCSORGRIGHT
 10
0.0
 20
0.0
 30
0.0
  9
$UCSORGFRONT
 10
0.0
 20
0.0
 30
0.0
  9
$UCSORGBACK
 10
0.0
 20
0.0
 30
0.0
  9
$PUCSBASE
  2

  9
$PUCSNAME
  2

  9
$PUCSORG
 10
0.0
 20
0.0
 30
0.0
  9
$PUCSXDIR
 10
1.0
 20
0.0
 30
0.0
  9
$PUCSYDIR
 10
0.0
 20
1.0
 30
0.0
  9
$PUCSORTHOREF
  2

  9
$PUCSORTHOVIEW
 70
     0
  9
$PUCSORGTOP
 10
0.0
 20
0.0
 30
0.0
  9
$PUCSORGBOTTOM
 10
0.0
 20
0.0
 30
0.0
  9
$PUCSORGLEFT
 10
0.0
 20
0.0
 30
0.0
  9
$PUCSORGRIGHT
 10
0.0
 20
0.0
 30
0.0
  9
$PUCSORGFRONT
 10
0.0
 20
0.0
 30
0.0
  9
$PUCSORGBACK
 10
0.0
 20
0.0
 30
0.0
  9
$USERI1
 70
     0
  9
$USERI2
 70
     0
  9
$USERI3
 70
     0
  9
$USERI4
 70
     0
  9
$USERI5
 70
     0
  9
$USERR1
 40
0.0
  9
$USERR2
 40
0.0
  9
$USERR3
 40
0.0
  9
$USERR4
 40
0.0
  9
$USERR5
 40
0.0
  9
$WORLDVIEW
 70
     1
  9
$SHADEDGE
 70
     3
  9
$SHADEDIF
 70
    70
  9
$TILEMODE
 70
     1
  9
$MAXACTVP
 70
    48
  9
$PINSBASE
 10
0.0
 20
0.0
 30
0.0
  9
$PLIMCHECK
 70
     0
  9
$PEXTMIN
 10
0.0
 20
0.0
 30
0.0
  9
$PEXTMAX
 10
10.205
 20
7.764780009564798
 30
0.0
  9
$PLIMMIN
 10
-0.2079161059762549
 20
-0.2079166691697489
  9
$PLIMMAX
 10
10.79208365372785
 20
8.29208309053436
  9
$UNITMODE
 70
     0
  9
$VISRETAIN
 70
     1
  9
$PLINEGEN
 70
     0
  9
$PSLTSCALE
 70
     1
  9
$TREEDEPTH
 70
     0
  9
$CMLSTYLE
  2
STANDARD
  9
$CMLJUST
 70
     0
  9
$CMLSCALE
 40
1.0
  9
$PROXYGRAPHICS
 70
     1
  9
$MEASUREMENT
 70
     0
  9
$CELWEIGHT
370
    -1
  9
$ENDCAPS
280
     0
  9
$JOINSTYLE
280
     0
  9
$LWDISPLAY
290
     0
  9
$INSUNITS
 70
     1
  9
$HYPERLINKBASE
  1

  9
$STYLESHEET
  1
5000N-BLACK.CTB
  9
$XEDIT
290
     1
  9
$CEPSNTYPE
380
     0
  9
$PSTYLEMODE
290
     1
  9
$FINGERPRINTGUID
  2
{B3E5E9A9-FEC4-11D2-95EF-00104B2EF1F9}
  9
$VERSIONGUID
  2
{CF30415C-5A72-4095-972B-BC816520620F}
  9
$EXTNAMES
290
     1
  9
$PSVPSCALE
 40
1.0
  9
$OLESTARTUP
290
     0
  0
ENDSEC
  0
SECTION
  2
CLASSES
  0
CLASS
  1
IDBUFFER
  2
AcDbIdBuffer
  3
ObjectDBX Classes
 90
    32768
280
     0
281
     0
  0
CLASS
  1
ACDBDICTIONARYWDFLT
  2
AcDbDictionaryWithDefault
  3
ObjectDBX Classes
 90
        0
280
     0
281
     0
  0
CLASS
  1
ACDBPLACEHOLDER
  2
AcDbPlaceHolder
  3
ObjectDBX Classes
 90
        0
280
     0
281
     0
  0
CLASS
  1
LAYOUT
  2
AcDbLayout
  3
ObjectDBX Classes
 90
        0
280
     0
281
     0
  0
CLASS
  1
DICTIONARYVAR
  2
AcDbDictionaryVar
  3
ObjectDBX Classes
 90
        0
280
     0
281
     0
  0
CLASS
  1
TABLESTYLE
  2
AcDbTableStyle
  3
ObjectDBX Classes
 90
     4095
280
     0
281
     0
  0
CLASS
  1
PLOTSETTINGS
  2
AcDbPlotSettings
  3
ObjectDBX Classes
 90
        0
280
     0
281
     0
  0
CLASS
  1
MATERIAL
  2
AcDbMaterial
  3
ObjectDBX Classes
 90
     1153
280
     0
281
     0
  0
CLASS
  1
VISUALSTYLE
  2
AcDbVisualStyle
  3
ObjectDBX Classes
 90
     4095
280
     0
281
     0
  0
CLASS
  1
SORTENTSTABLE
  2
AcDbSortentsTable
  3
ObjectDBX Classes
 90
        0
280
     0
281
     0
  0
CLASS
  1
FIELD
  2
AcDbField
  3
ObjectDBX Classes
 90
    33920
280
     0
281
     0
  0
CLASS
  1
FIELDLIST
  2
AcDbFieldList
  3
ObjectDBX Classes
 90
     1152
280
     0
281
     0
  0
CLASS
  1
EXACTERMXREFMAP
  2
ExAcTermXrefMap
  3
EXAC_SERVICE
 90
    33793
280
     0
281
     0
  0
CLASS
  1
NPOCOLLECTION
  2
AcDbImpNonPersistentObjectsCollection
  3
ObjectDBX Classes
 90
    33921
280
     0
281
     0
  0
CLASS
  1
EXACXREFPANELOBJECT
  2
ExAcXREFPanelObject
  3
EXAC_ESW
 90
    33793
280
     0
281
     0
  0
CLASS
  1
ACAD_EVALUATION_GRAPH
  2
AcDbEvalGraph
  3
ObjectDBX Classes
 90
    33921
280
     0
281
     0
  0
CLASS
  1
BLOCKBASEPOINTPARAMETER
  2
AcDbBlockBasepointParameter
  3
ObjectDBX Classes
 90
    33921
280
     0
281
     0
  0
CLASS
  1
BLOCKVISIBILITYPARAMETER
  2
AcDbBlockVisibilityParameter
  3
ObjectDBX Classes
 90
    33921
280
     0
281
     0
  0
CLASS
  1
BLOCKVISIBILITYGRIP
  2
AcDbBlockVisibilityGrip
  3
ObjectDBX Classes
 90
    33921
280
     0
281
     0
  0
CLASS
  1
BLOCKGRIPLOCATIONCOMPONENT
  2
AcDbBlockGripExpr
  3
ObjectDBX Classes
 90
    33921
280
     0
281
     0
  0
CLASS
  1
ACDB_DYNAMICBLOCKPURGEPREVENTER_VERSION
  2
AcDbDynamicBlockPurgePreventer
  3
ObjectDBX Classes
 90
    33921
280
     0
281
     0
  0
CLASS
  1
ACAECUSTOBJ
  2
AcAeEditorObj
  3
AcAeEditorObj
 90
    33792
280
     0
281
     0
  0
CLASS
  1
BASEPOINTPARAMETERENTITY
  2
AcDbBlockBasepointParameterEntity
  3
ObjectDBX Classes
 90
    33793
280
     0
281
     1
  0
CLASS
  1
ACAEEEMGROBJ
  2
AcAeEEMgrObj
  3
AcAeEEMgrObj
 90
    33792
280
     0
281
     0
  0
CLASS
  1
VISIBILITYPARAMETERENTITY
  2
AcDbBlockVisibilityParameterEntity
  3
ObjectDBX Classes
 90
    33793
280
     0
281
     1
  0
CLASS
  1
VISIBILITYGRIPENTITY
  2
AcDbBlockVisibilityGripEntity
  3
ObjectDBX Classes
 90
    33793
280
     0
281
     1
  0
CLASS
  1
ACDB_BLOCKREPRESENTATION_DATA
  2
AcDbBlockRepresentationData
  3
ObjectDBX Classes
 90
    33921
280
     0
281
     0
  0
CLASS
  1
BLOCKLINEARPARAMETER
  2
AcDbBlockLinearParameter
  3
ObjectDBX Classes
 90
    33921
280
     0
281
     0
  0
CLASS
  1
BLOCKLINEARGRIP
  2
AcDbBlockLinearGrip
  3
ObjectDBX Classes
 90
    33921
280
     0
281
     0
  0
CLASS
  1
BLOCKSTRETCHACTION
  2
AcDbBlockStretchAction
  3
ObjectDBX Classes
 90
    33921
280
     0
281
     0
  0
CLASS
  1
DBCOLOR
  2
AcDbColor
  3
ObjectDBX Classes
 90
        0
280
     0
281
     0
  0
CLASS
  1
BLOCKROTATIONPARAMETER
  2
AcDbBlockRotationParameter
  3
ObjectDBX Classes
 90
    33921
280
     0
281
     0
  0
CLASS
  1
BLOCKROTATIONGRIP
  2
AcDbBlockRotationGrip
  3
ObjectDBX Classes
 90
    33921
280
     0
281
     0
  0
CLASS
  1
BLOCKMOVEACTION
  2
AcDbBlockMoveAction
  3
ObjectDBX Classes
 90
    33921
280
     0
281
     0
  0
CLASS
  1
BLOCKARRAYACTION
  2
AcDbBlockArrayAction
  3
ObjectDBX Classes
 90
    33921
280
     0
281
     0
  0
CLASS
  1
BLOCKROTATEACTION
  2
AcDbBlockRotateAction
  3
ObjectDBX Classes
 90
    33921
280
     0
281
     0
  0
CLASS
  1
ACAD_TABLE
  2
AcDbTable
  3
ObjectDBX Classes
 90
    33793
280
     0
281
     1
  0
CLASS
  1
BLOCKSCALEACTION
  2
AcDbBlockScaleAction
  3
ObjectDBX Classes
 90
    33921
280
     0
281
     0
  0
CLASS
  1
SCALE
  2
AcDbScale
  3
ObjectDBX Classes
 90
     1153
280
     0
281
     0
  0
CLASS
  1
MLEADERSTYLE
  2
AcDbMLeaderStyle
  3
ACDB_MLEADERSTYLE_CLASS
 90
     4095
280
     0
281
     0
  0
CLASS
  1
CELLSTYLEMAP
  2
AcDbCellStyleMap
  3
ObjectDBX Classes
 90
     1152
280
     0
281
     0
  0
CLASS
  1
AEC_REFEDIT_STATUS_TRACKER
  2
AecDbRefEditStatusTracker
  3
AecArchBase60|Product Desc: Autodesk Architectural Desktop 2007 |Company: Autodesk,Inc. |WEB Address: www.autodesk.com
 90
    32897
280
     0
281
     0
  0
ENDSEC
  0
SECTION
  2
TABLES
  0
TABLE
  2
VPORT
  5
1A
102
{ACAD_XDICTIONARY
360
139C
102
}
330
0
100
AcDbSymbolTable
 70
     1
  0
VPORT
  5
882
330
1A
100
AcDbSymbolTableRecord
100
AcDbViewportTableRecord
  2
*Active
 70
     0
 10
0.0
 20
0.0
 11
1.0
 21
1.0
 12
6.223846463747142
 22
4.295720540435073
 13
0.0
 23
0.0
 14
0.5
 24
0.5
 15
0.5
 25
0.5
 16
0.0
 26
0.0
 36
1.0
 17
0.0
 27
0.0
 37
0.0
 40
2.197195940446365
 41
2.377604166666666
 42
50.0
 43
0.0
 44
0.0
 50
0.0
 51
0.0
 71
     0
 72
   100
 73
     1
 74
     1
 75
     0
 76
     0
 77
     0
 78
     2
281
     0
 65
     1
110
0.0
120
0.0
130
0.0
111
1.0
121
0.0
131
0.0
112
0.0
122
1.0
132
0.0
 79
     0
146
0.0
  0
ENDTAB
  0
TABLE
  2
LTYPE
  5
15
330
0
100
AcDbSymbolTable
 70
     1
  0
LTYPE
  5
16
330
15
100
AcDbSymbolTableRecord
100
AcDbLinetypeTableRecord
  2
BYBLOCK
 70
     0
  3

 72
    65
 73
     0
 40
0.0
  0
LTYPE
  5
17
330
15
100
AcDbSymbolTableRecord
100
AcDbLinetypeTableRecord
  2
BYLAYER
 70
     0
  3

 72
    65
 73
     0
 40
0.0
  0
LTYPE
  5
8
330
15
100
AcDbSymbolTableRecord
100
AcDbLinetypeTableRecord
  2
CONTINUOUS
 70
     0
  3
Solid line
 72
    65
 73
     0
 40
0.0
  0
ENDTAB
  0
TABLE
  2
LAYER
  5
11
102
{ACAD_XDICTIONARY
360
899
102
}
330
0
100
AcDbSymbolTable
 70
     6
  0
LAYER
  5
4
102
{ACAD_XDICTIONARY
360
3F16F
102
}
330
11
100
AcDbSymbolTableRecord
100
AcDbLayerTableRecord
  2
0
 70
     0
 62
     7
  6
CONTINUOUS
370
    -3
390
5
1001
RAK
1000
{ACET-LAYISO
1070
     0
1070
     7
1000
CONTINUOUS
1071
       -3
1071
        1
1005
5
1000
ACET-LAYISO}
  0
LAYER
  5
1A61
102
{ACAD_XDICTIONARY
360
1A62
102
}
330
11
100
AcDbSymbolTableRecord
100
AcDbLayerTableRecord
  2
DIM
 70
     0
 62
     1
  6
CONTINUOUS
370
    -3
390
5
  0
LAYER
  5
1A6D
102
{ACAD_XDICTIONARY
360
1A6E
102
}
330
11
100
AcDbSymbolTableRecord
100
AcDbLayerTableRecord
  2
IMAGE
 70
     0
 62
     5
  6
CONTINUOUS
370
    -3
390
5
  0
LAYER
  5
1A70
102
{ACAD_XDICTIONARY
360
1A71
102
}
330
11
100
AcDbSymbolTableRecord
100
AcDbLayerTableRecord
  2
WALL
 70
     0
 62
     6
  6
CONTINUOUS
370
    -3
390
5
  0
LAYER
  5
1A79
102
{ACAD_XDICTIONARY
360
1A7A
102
}
330
11
100
AcDbSymbolTableRecord
100
AcDbLayerTableRecord
  2
HATCH
 70
     0
 62
     2
  6
CONTINUOUS
370
    -3
390
5
  0
LAYER
  5
1A7F
102
{ACAD_XDICTIONARY
360
1A80
102
}
330
11
100
AcDbSymbolTableRecord
100
AcDbLayerTableRecord
  2
DETAIL
 70
     0
 62
     1
  6
CONTINUOUS
370
    -3
390
5
  0
ENDTAB
  0
TABLE
  2
STYLE
  5
12
330
0
100
AcDbSymbolTable
 70
     2
  0
STYLE
  5
13
330
12
100
AcDbSymbolTableRecord
100
AcDbTextStyleTableRecord
  2
STANDARD
 70
     0
 40
0.0
 41
1.0
 50
0.0
 71
     0
 42
0.2
  3
txt
  4

  0
STYLE
  5
20
330
12
100
AcDbSymbolTableRecord
100
AcDbTextStyleTableRecord
  2
STD
 70
     0
 40
0.0
 41
1.0
 50
0.0
 71
     0
 42
0.125
  3
arial_0.ttf
  4

1001
ACAD
1000
Arial
1071
       34
  0
ENDTAB
  0
TABLE
  2
VIEW
  5
18
330
0
100
AcDbSymbolTable
 70
     0
  0
ENDTAB
  0
TABLE
  2
UCS
  5
19
330
0
100
AcDbSymbolTable
 70
     0
  0
ENDTAB
  0
TABLE
  2
APPID
  5
1C
330
0
100
AcDbSymbolTable
 70
    37
  0
APPID
  5
1D
330
1C
100
AcDbSymbolTableRecord
100
AcDbRegAppTableRecord
  2
ACAD
 70
     0
  0
APPID
  5
9
330
1C
100
AcDbSymbolTableRecord
100
AcDbRegAppTableRecord
  2
RAK
 70
     0
  0
APPID
  5
3A
330
1C
100
AcDbSymbolTableRecord
100
AcDbRegAppTableRecord
  2
DCO15
 70
     0
  0
APPID
  5
126
330
1C
100
AcDbSymbolTableRecord
100
AcDbRegAppTableRecord
  2
ABNSLEADERTOOLS
 70
     0
  0
APPID
  5
895
330
1C
100
AcDbSymbolTableRecord
100
AcDbRegAppTableRecord
  2
ACAD_PSEXT
 70
     0
  0
APPID
  5
A2A
330
1C
100
AcDbSymbolTableRecord
100
AcDbRegAppTableRecord
  2
ACAD_DSTYLE_DIMTEXT_FILL
 70
     0
  0
APPID
  5
10A5
330
1C
100
AcDbSymbolTableRecord
100
AcDbRegAppTableRecord
  2
AcAecLayerStandard
 70
     0
  0
APPID
  5
198C
330
1C
100
AcDbSymbolTableRecord
100
AcDbRegAppTableRecord
  2
AcDbBlockRepETag
 70
     0
  0
APPID
  5
198D
330
1C
100
AcDbSymbolTableRecord
100
AcDbRegAppTableRecord
  2
AcLayerTools
 70
     0
  0
APPID
  5
1A37
330
1C
100
AcDbSymbolTableRecord
100
AcDbRegAppTableRecord
  2
ACAD_DSTYLE_DIMJAG
 70
     0
  0
APPID
  5
1A38
330
1C
100
AcDbSymbolTableRecord
100
AcDbRegAppTableRecord
  2
ACAD_DSTYLE_DIMBREAK
 70
     0
  0
APPID
  5
1A39
330
1C
100
AcDbSymbolTableRecord
100
AcDbRegAppTableRecord
  2
AcadAnnotative
 70
     0
  0
APPID
  5
1A3A
330
1C
100
AcDbSymbolTableRecord
100
AcDbRegAppTableRecord
  2
ACAD_DSTYLE_DIMTALN
 70
     0
  0
APPID
  5
1A3B
330
1C
100
AcDbSymbolTableRecord
100
AcDbRegAppTableRecord
  2
AcadAnnoAV
 70
     0
  0
APPID
  5
1D4C
330
1C
100
AcDbSymbolTableRecord
100
AcDbRegAppTableRecord
  2
ACAD_MLEADERVER
 70
     0
  0
APPID
  5
1D4D
330
1C
100
AcDbSymbolTableRecord
100
AcDbRegAppTableRecord
  2
AcadAnnoPO
 70
     0
  0
APPID
  5
1D4E
330
1C
100
AcDbSymbolTableRecord
100
AcDbRegAppTableRecord
  2
ACAD_DSTYLE_DIMRADIAL_EXTENSION
 70
     0
  0
APPID
  5
8637
330
1C
100
AcDbSymbolTableRecord
100
AcDbRegAppTableRecord
  2
AcDbDynamicBlockTrueName
 70
     0
  0
APPID
  5
8638
330
1C
100
AcDbSymbolTableRecord
100
AcDbRegAppTableRecord
  2
AcDbDynamicBlockGUID
 70
     0
  0
APPID
  5
EECA
330
1C
100
AcDbSymbolTableRecord
100
AcDbRegAppTableRecord
  2
ACAUTHENVIRON
 70
     0
  0
APPID
  5
EED2
330
1C
100
AcDbSymbolTableRecord
100
AcDbRegAppTableRecord
  2
AcDbBlockRepBTag
 70
     0
  0
APPID
  5
30413
330
1C
100
AcDbSymbolTableRecord
100
AcDbRegAppTableRecord
  2
ACAD_EXEMPT_FROM_CAD_STANDARDS
 70
     0
  0
APPID
  5
3A70F
330
1C
100
AcDbSymbolTableRecord
100
AcDbRegAppTableRecord
  2
AcDbBlockArrayActionTag
 70
     0
  0
APPID
  5
3F1A1
330
1C
100
AcDbSymbolTableRecord
100
AcDbRegAppTableRecord
  2
ACATTRIBSERVICES
 70
     0
  0
APPID
  5
3F1A2
330
1C
100
AcDbSymbolTableRecord
100
AcDbRegAppTableRecord
  2
MCAD_NO_VIS
 70
     0
  0
APPID
  5
3F1A3
330
1C
100
AcDbSymbolTableRecord
100
AcDbRegAppTableRecord
  2
ACAD_TEMP_GRAPHIC
 70
     0
  0
APPID
  5
3F1A4
330
1C
100
AcDbSymbolTableRecord
100
AcDbRegAppTableRecord
  2
AD_DRAW
 70
     0
  0
APPID
  5
3F1A5
330
1C
100
AcDbSymbolTableRecord
100
AcDbRegAppTableRecord
  2
DESIGNERASSEMBLIES
 70
     0
  0
APPID
  5
3F1A6
330
1C
100
AcDbSymbolTableRecord
100
AcDbRegAppTableRecord
  2
ACADM_DIM_EDIT
 70
     0
  0
APPID
  5
3F1A7
330
1C
100
AcDbSymbolTableRecord
100
AcDbRegAppTableRecord
  2
AMDT_DM_ADJ
 70
     0
  0
APPID
  5
3F1A8
330
1C
100
AcDbSymbolTableRecord
100
AcDbRegAppTableRecord
  2
ACAD_DSTYLE_DIMARC_LENGTH_SYMBOL
 70
     0
  0
APPID
  5
3F1A9
330
1C
100
AcDbSymbolTableRecord
100
AcDbRegAppTableRecord
  2
ACAD_DSTYLE_DIM_LINETYPE
 70
     0
  0
APPID
  5
3F1AA
330
1C
100
AcDbSymbolTableRecord
100
AcDbRegAppTableRecord
  2
ACAD_DSTYLE_DIM_EXT1_LINETYPE
 70
     0
  0
APPID
  5
3F1AB
330
1C
100
AcDbSymbolTableRecord
100
AcDbRegAppTableRecord
  2
ACAD_DSTYLE_DIM_EXT2_LINETYPE
 70
     0
  0
APPID
  5
3F1AC
330
1C
100
AcDbSymbolTableRecord
100
AcDbRegAppTableRecord
  2
GradientColor1ACI
 70
     0
  0
APPID
  5
3F1AD
330
1C
100
AcDbSymbolTableRecord
100
AcDbRegAppTableRecord
  2
GradientColor2ACI
 70
     0
  0
APPID
  5
3F1AE
330
1C
100
AcDbSymbolTableRecord
100
AcDbRegAppTableRecord
  2
ACAD_NAV_VCDISPLAY
 70
     0
  0
ENDTAB
  0
TABLE
  2
DIMSTYLE
  5
1E
330
0
100
AcDbSymbolTable
 70
     1
100
AcDbDimStyleTable
 71
     1
340
29264
  0
DIMSTYLE
105
29264
330
1E
100
AcDbSymbolTableRecord
100
AcDbDimStyleTableRecord
  2
F-DIM@5
 70
     0
  4
"
 40
0.5
 41
0.125
 42
0.07
 43
0.25
 44
0.14
 78
     3
140
0.125
141
0.0
143
1.0
171
     3
176
     2
177
     3
178
   256
271
     6
272
     6
274
     3
276
     2
277
     5
340
20
1001
ACAD_DSTYLE_DIMJAG
1070
   388
1040
1.5
1001
ACAD_DSTYLE_DIMTALN
1070
   392
1070
     0
1001
ACAD_DSTYLE_DIMARC_LENGTH_SYMBOL
1070
   379
1070
     1
  0
ENDTAB
  0
TABLE
  2
BLOCK_RECORD
  5
1
330
0
100
AcDbSymbolTable
 70
     0
  0
BLOCK_RECORD
  5
2
102
{ACAD_XDICTIONARY
360
2FE15
102
}
330
1
100
AcDbSymbolTableRecord
100
AcDbBlockTableRecord
  2
*MODEL_SPACE
340
B
  0
BLOCK_RECORD
  5
D
102
{ACAD_XDICTIONARY
360
1D72
102
}
330
1
100
AcDbSymbolTableRecord
100
AcDbBlockTableRecord
  2
*PAPER_SPACE
340
10
  0
ENDTAB
  0
ENDSEC
  0
SECTION
  2
BLOCKS
  0
BLOCK
  5
3
330
2
100
AcDbEntity
  8
0
100
AcDbBlockBegin
  2
*MODEL_SPACE
 70
     0
 10
0.0
 20
0.0
 30
0.0
  3
*MODEL_SPACE
  1

  0
ENDBLK
  5
A
330
2
100
AcDbEntity
  8
0
100
AcDbBlockEnd
  0
BLOCK
  5
E
330
D
100
AcDbEntity
 67
     1
  8
0
100
AcDbBlockBegin
  2
*PAPER_SPACE
 70
     0
 10
0.0
 20
0.0
 30
0.0
  3
*PAPER_SPACE
  1

  0
ENDBLK
  5
F
330
D
100
AcDbEntity
 67
     1
  8
0
100
AcDbBlockEnd
  0
ENDSEC
  0
SECTION
  2
ENTITIES
  0
LINE
  5
3E1A2
330
2
100
AcDbEntity
  8
WALL
 62
     5
100
AcDbLine
 10
5.479435886313922
 20
3.598464789460233
 30
0.0
 11
5.479435886313922
 21
4.098464789460233
 31
0.0
  0
LINE
  5
3E1A3
330
2
100
AcDbEntity
  8
WALL
 62
     5
100
AcDbLine
 10
5.479435886313922
 20
4.098464789460233
 30
0.0
 11
3.715440214378439
 21
4.098464789460233
 31
0.0
  0
LINE
  5
3E1A4
330
2
100
AcDbEntity
  8
WALL
 62
     5
100
AcDbLine
 10
5.479435886313922
 20
3.598464789460233
 30
0.0
 11
3.715440214378439
 21
3.598464789460233
 31
0.0
  0
LINE
  5
3E20E
330
2
100
AcDbEntity
  8
WALL
 62
     5
100
AcDbLine
 10
5.479435886313922
 20
4.098464789460233
 30
0.0
 11
5.479435886313922
 21
5.176832562942838
 31
0.0
  0
LINE
  5
3F019
330
2
100
AcDbEntity
  8
WALL
 62
     5
100
AcDbLine
 10
6.968329872142818
 20
3.598464789460233
 30
0.0
 11
6.968329872142818
 21
4.098464789460233
 31
0.0
  0
LINE
  5
3F01B
330
2
100
AcDbEntity
  8
WALL
 62
     5
100
AcDbLine
 10
6.968329872142818
 20
4.098464789460233
 30
0.0
 11
8.7323255440783
 21
4.098464789460233
 31
0.0
  0
LINE
  5
3F01C
330
2
100
AcDbEntity
  8
WALL
 62
     5
100
AcDbLine
 10
6.968329872142818
 20
3.598464789460233
 30
0.0
 11
8.7323255440783
 21
3.598464789460233
 31
0.0
  0
LINE
  5
3F01F
330
2
100
AcDbEntity
  8
WALL
 62
     5
100
AcDbLine
 10
6.968329872142818
 20
4.098464789460233
 30
0.0
 11
6.968329872142818
 21
5.176832562942838
 31
0.0
  0
LINE
  5
3F099
330
2
100
AcDbEntity
  8
DETAIL
100
AcDbLine
 10
7.359727586367816
 20
3.872929705345267
 30
0.0
 11
7.359727586367816
 21
3.92715655600536
 31
0.0
1001
AcDbBlockRepETag
1070
     1
1071
       35
1005
3F099
  0
LINE
  5
3F09A
330
2
100
AcDbEntity
  8
DETAIL
100
AcDbLine
 10
7.359727586367816
 20
4.185429705345266
 30
0.0
 11
7.359727586367816
 21
4.240001869939031
 31
0.0
1001
AcDbBlockRepETag
1070
     1
1071
       38
1005
3F09A
  0
LINE
  5
3F09B
330
2
100
AcDbEntity
  8
DETAIL
100
AcDbLine
 10
7.441740086367835
 20
3.72014405600539
 30
0.0
 11
7.441740086367835
 21
3.728417205345247
 31
0.0
1001
AcDbBlockRepETag
1070
     1
1071
       11
1005
3F09B
  0
LINE
  5
3F09C
330
2
100
AcDbEntity
  8
DETAIL
100
AcDbLine
 10
7.359727586367816
 20
3.802156556005352
 30
0.0
 11
7.359727586367816
 21
3.720722525534801
 31
0.0
1001
AcDbBlockRepETag
1070
     1
1071
       40
1005
3F09C
  0
LINE
  5
3F09D
330
2
100
AcDbEntity
  8
DETAIL
100
AcDbLine
 10
7.277696336367816
 20
3.560314369939088
 30
0.0
 11
7.512071336367816
 21
3.560314369939088
 31
0.0
1001
AcDbBlockRepETag
1070
     1
1071
       41
1005
3F09D
  0
ARC
  5
3F09E
330
2
100
AcDbEntity
  8
DETAIL
100
AcDbCircle
 10
7.648209743136153
 20
3.731113384225853
 30
0.0
 40
0.2184169615179908
100
AcDbArc
 50
179.7440252656454
 51
231.4427765282966
1001
AcDbBlockRepETag
1070
     1
1071
       42
1005
3F09E
  0
LINE
  5
3F0AB
330
2
100
AcDbEntity
  8
DETAIL
100
AcDbLine
 10
7.429794961357591
 20
3.740362330355491
 30
0.0
 11
7.429794961357591
 21
3.794589181015626
 31
0.0
1001
AcDbBlockRepETag
1070
     1
1071
       22
1005
3F0AB
  0
LINE
  5
3F0AC
330
2
100
AcDbEntity
  8
DETAIL
100
AcDbLine
 10
7.429794961357591
 20
3.802862330355491
 30
0.0
 11
7.429794961357591
 21
3.857089181015626
 31
0.0
1001
AcDbBlockRepETag
1070
     1
1071
       36
1005
3F0AC
  0
LINE
  5
3F0AD
330
2
100
AcDbEntity
  8
DETAIL
100
AcDbLine
 10
7.429794961357591
 20
4.11536233035549
 30
0.0
 11
7.429794961357591
 21
4.169589181015626
 31
0.0
1001
AcDbBlockRepETag
1070
     1
1071
       37
1005
3F0AD
  0
LINE
  5
3F0AE
330
2
100
AcDbEntity
  8
DETAIL
100
AcDbLine
 10
7.429794961357591
 20
4.17786233035549
 30
0.0
 11
7.429794961357591
 21
4.232089181015633
 31
0.0
1001
AcDbBlockRepETag
1070
     1
1071
       39
1005
3F0AE
  0
LINE
  5
3F0AF
330
2
100
AcDbEntity
  8
DETAIL
100
AcDbLine
 10
7.348027586367797
 20
3.884629705345286
 30
0.0
 11
7.441740086367835
 21
3.790917205345247
 31
0.0
1001
AcDbBlockRepETag
1070
     1
1071
       23
1005
3F0AF
  0
LINE
  5
3F0B0
330
2
100
AcDbEntity
  8
DETAIL
100
AcDbLine
 10
7.348027586367797
 20
3.876356556005371
 30
0.0
 11
7.441740086367835
 21
3.78264405600539
 31
0.0
1001
AcDbBlockRepETag
1070
     1
1071
       24
1005
3F0B0
  0
LINE
  5
3F0B1
330
2
100
AcDbEntity
  8
DETAIL
100
AcDbLine
 10
7.348027586367797
 20
3.876356556005371
 30
0.0
 11
7.348027586367797
 21
3.884629705345286
 31
0.0
1001
AcDbBlockRepETag
1070
     1
1071
       25
1005
3F0B1
  0
LINE
  5
3F0B2
330
2
100
AcDbEntity
  8
DETAIL
100
AcDbLine
 10
7.441740086367835
 20
3.78264405600539
 30
0.0
 11
7.441740086367835
 21
3.790917205345247
 31
0.0
1001
AcDbBlockRepETag
1070
     1
1071
       26
1005
3F0B2
  0
LINE
  5
3F0B3
330
2
100
AcDbEntity
  8
DETAIL
100
AcDbLine
 10
7.348027586367797
 20
4.197129705345286
 30
0.0
 11
7.441740086367835
 21
4.103417205345247
 31
0.0
1001
AcDbBlockRepETag
1070
     1
1071
       27
1005
3F0B3
  0
LINE
  5
3F0B4
330
2
100
AcDbEntity
  8
DETAIL
100
AcDbLine
 10
7.348027586367797
 20
4.188856556005371
 30
0.0
 11
7.441740086367835
 21
4.09514405600539
 31
0.0
1001
AcDbBlockRepETag
1070
     1
1071
       28
1005
3F0B4
  0
LINE
  5
3F0B5
330
2
100
AcDbEntity
  8
DETAIL
100
AcDbLine
 10
7.348027586367797
 20
4.188856556005371
 30
0.0
 11
7.348027586367797
 21
4.197129705345286
 31
0.0
1001
AcDbBlockRepETag
1070
     1
1071
       29
1005
3F0B5
  0
LINE
  5
3F0B6
330
2
100
AcDbEntity
  8
DETAIL
100
AcDbLine
 10
7.441740086367835
 20
4.09514405600539
 30
0.0
 11
7.441740086367835
 21
4.103417205345247
 31
0.0
1001
AcDbBlockRepETag
1070
     1
1071
       30
1005
3F0B6
  0
LINE
  5
3F0B7
330
2
100
AcDbEntity
  8
DETAIL
100
AcDbLine
 10
7.348027586367797
 20
4.259629705345286
 30
0.0
 11
7.441740086367835
 21
4.165917205345247
 31
0.0
1001
AcDbBlockRepETag
1070
     1
1071
       31
1005
3F0B7
  0
LINE
  5
3F0B8
330
2
100
AcDbEntity
  8
DETAIL
100
AcDbLine
 10
7.348027586367797
 20
4.251356556005371
 30
0.0
 11
7.441740086367835
 21
4.15764405600539
 31
0.0
1001
AcDbBlockRepETag
1070
     1
1071
       32
1005
3F0B8
  0
LINE
  5
3F0B9
330
2
100
AcDbEntity
  8
DETAIL
100
AcDbLine
 10
7.348027586367797
 20
4.251356556005371
 30
0.0
 11
7.348027586367797
 21
4.259629705345286
 31
0.0
1001
AcDbBlockRepETag
1070
     1
1071
       33
1005
3F0B9
  0
LINE
  5
3F0BA
330
2
100
AcDbEntity
  8
DETAIL
100
AcDbLine
 10
7.441740086367835
 20
4.15764405600539
 30
0.0
 11
7.441740086367835
 21
4.165917205345247
 31
0.0
1001
AcDbBlockRepETag
1070
     1
1071
       34
1005
3F0BA
  0
ARC
  5
3F0BB
330
2
100
AcDbEntity
  8
DETAIL
100
AcDbCircle
 10
7.14155792959948
 20
3.731113384225853
 30
0.0
 40
0.2184169615179908
100
AcDbArc
 50
308.5572234717033
 51
357.2732101754434
1001
AcDbBlockRepETag
1070
     1
1071
       43
1005
3F0BB
  0
LINE
  5
3F0D9
330
2
100
AcDbEntity
  8
DETAIL
100
AcDbLine
 10
7.394883836367816
 20
4.310314369939089
 30
0.0
 11
7.430040086367816
 21
4.240001869939089
 31
0.0
1001
AcDbBlockRepETag
1070
     1
1071
        0
1005
3F0D9
  0
LINE
  5
3F0DA
330
2
100
AcDbEntity
  8
DETAIL
100
AcDbLine
 10
7.371725149944347
 20
4.290158992428882
 30
0.0
 11
7.441740086367835
 21
4.22014405600539
 31
0.0
1001
AcDbBlockRepETag
1070
     1
1071
        1
1005
3F0DA
  0
LINE
  5
3F0DB
330
2
100
AcDbEntity
  8
DETAIL
100
AcDbLine
 10
7.374482866390928
 20
4.295674425322156
 30
0.0
 11
7.441740086367835
 21
4.228417205345305
 31
0.0
1001
AcDbBlockRepETag
1070
     1
1071
        2
1005
3F0DB
  0
LINE
  5
3F0DC
330
2
100
AcDbEntity
  8
DETAIL
100
AcDbLine
 10
7.362370198169896
 20
4.245287093543187
 30
0.0
 11
7.380445815056609
 21
4.281438327316616
 31
0.0
1001
AcDbBlockRepETag
1070
     1
1071
        3
1005
3F0DC
  0
LINE
  5
3F0DD
330
2
100
AcDbEntity
  8
DETAIL
100
AcDbLine
 10
7.38320353150319
 20
4.286953760209892
 30
0.0
 11
7.394883836367816
 21
4.310314369939089
 31
0.0
1001
AcDbBlockRepETag
1070
     1
1071
        4
1005
3F0DD
  0
LINE
  5
3F0DE
330
2
100
AcDbEntity
  8
DETAIL
100
AcDbLine
 10
7.371725149944347
 20
4.290158992428882
 30
0.0
 11
7.374482866390928
 21
4.295674425322156
 31
0.0
1001
AcDbBlockRepETag
1070
     1
1071
        5
1005
3F0DE
  0
LINE
  5
3F0DF
330
2
100
AcDbEntity
  8
DETAIL
100
AcDbLine
 10
7.441740086367835
 20
4.22014405600539
 30
0.0
 11
7.441740086367835
 21
4.228417205345305
 31
0.0
1001
AcDbBlockRepETag
1070
     1
1071
        6
1005
3F0DF
  0
LINE
  5
3F0E0
330
2
100
AcDbEntity
  8
DETAIL
100
AcDbLine
 10
7.348027586367797
 20
3.822129705345286
 30
0.0
 11
7.441740086367835
 21
3.728417205345247
 31
0.0
1001
AcDbBlockRepETag
1070
     1
1071
        7
1005
3F0E0
  0
LINE
  5
3F0E1
330
2
100
AcDbEntity
  8
DETAIL
100
AcDbLine
 10
7.348027586367797
 20
3.813856556005371
 30
0.0
 11
7.441740086367835
 21
3.72014405600539
 31
0.0
1001
AcDbBlockRepETag
1070
     1
1071
        8
1005
3F0E1
  0
LINE
  5
3F0E2
330
2
100
AcDbEntity
  8
DETAIL
100
AcDbLine
 10
7.348027586367797
 20
3.813856556005371
 30
0.0
 11
7.348027586367797
 21
3.822129705345286
 31
0.0
1001
AcDbBlockRepETag
1070
     1
1071
        9
1005
3F0E2
  0
LINE
  5
3F0E3
330
2
100
AcDbEntity
  8
DETAIL
100
AcDbLine
 10
7.359727586367816
 20
3.810429705345267
 30
0.0
 11
7.359727586367816
 21
3.86465655600536
 31
0.0
1001
AcDbBlockRepETag
1070
     1
1071
       10
1005
3F0E3
  0
LINE
  5
3F0E9
330
2
100
AcDbEntity
  8
DETAIL
100
AcDbLine
 10
7.359727586367816
 20
3.935429705345267
 30
0.0
 11
7.359727586367816
 21
3.98965655600536
 31
0.0
1001
AcDbBlockRepETag
1070
     1
1071
       35
1005
3F0E9
1001
AcDbBlockArrayActionTag
1070
     1
  0
LINE
  5
3F0EA
330
2
100
AcDbEntity
  8
DETAIL
100
AcDbLine
 10
7.429794961357591
 20
3.865362330355491
 30
0.0
 11
7.429794961357591
 21
3.919589181015626
 31
0.0
1001
AcDbBlockRepETag
1070
     1
1071
       36
1005
3F0EA
1001
AcDbBlockArrayActionTag
1070
     1
  0
LINE
  5
3F0EB
330
2
100
AcDbEntity
  8
DETAIL
100
AcDbLine
 10
7.348027586367797
 20
3.947129705345286
 30
0.0
 11
7.441740086367835
 21
3.853417205345247
 31
0.0
1001
AcDbBlockRepETag
1070
     1
1071
       23
1005
3F0EB
1001
AcDbBlockArrayActionTag
1070
     1
  0
LINE
  5
3F0EC
330
2
100
AcDbEntity
  8
DETAIL
100
AcDbLine
 10
7.348027586367797
 20
3.938856556005371
 30
0.0
 11
7.441740086367835
 21
3.84514405600539
 31
0.0
1001
AcDbBlockRepETag
1070
     1
1071
       24
1005
3F0EC
1001
AcDbBlockArrayActionTag
1070
     1
  0
LINE
  5
3F0ED
330
2
100
AcDbEntity
  8
DETAIL
100
AcDbLine
 10
7.348027586367797
 20
3.938856556005371
 30
0.0
 11
7.348027586367797
 21
3.947129705345286
 31
0.0
1001
AcDbBlockRepETag
1070
     1
1071
       25
1005
3F0ED
1001
AcDbBlockArrayActionTag
1070
     1
  0
LINE
  5
3F0EE
330
2
100
AcDbEntity
  8
DETAIL
100
AcDbLine
 10
7.441740086367835
 20
3.84514405600539
 30
0.0
 11
7.441740086367835
 21
3.853417205345247
 31
0.0
1001
AcDbBlockRepETag
1070
     1
1071
       26
1005
3F0EE
1001
AcDbBlockArrayActionTag
1070
     1
  0
LINE
  5
3F0EF
330
2
100
AcDbEntity
  8
DETAIL
100
AcDbLine
 10
7.359727586367816
 20
3.997929705345267
 30
0.0
 11
7.359727586367816
 21
4.05215655600536
 31
0.0
1001
AcDbBlockRepETag
1070
     1
1071
       35
1005
3F0EF
1001
AcDbBlockArrayActionTag
1070
     1
  0
LINE
  5
3F0F0
330
2
100
AcDbEntity
  8
DETAIL
100
AcDbLine
 10
7.429794961357591
 20
3.927862330355491
 30
0.0
 11
7.429794961357591
 21
3.982089181015626
 31
0.0
1001
AcDbBlockRepETag
1070
     1
1071
       36
1005
3F0F0
1001
AcDbBlockArrayActionTag
1070
     1
  0
LINE
  5
3F0F1
330
2
100
AcDbEntity
  8
DETAIL
100
AcDbLine
 10
7.348027586367797
 20
4.009629705345286
 30
0.0
 11
7.441740086367835
 21
3.915917205345247
 31
0.0
1001
AcDbBlockRepETag
1070
     1
1071
       23
1005
3F0F1
1001
AcDbBlockArrayActionTag
1070
     1
  0
LINE
  5
3F0F2
330
2
100
AcDbEntity
  8
DETAIL
100
AcDbLine
 10
7.348027586367797
 20
4.001356556005371
 30
0.0
 11
7.441740086367835
 21
3.90764405600539
 31
0.0
1001
AcDbBlockRepETag
1070
     1
1071
       24
1005
3F0F2
1001
AcDbBlockArrayActionTag
1070
     1
  0
LINE
  5
3F0F3
330
2
100
AcDbEntity
  8
DETAIL
100
AcDbLine
 10
7.348027586367797
 20
4.001356556005371
 30
0.0
 11
7.348027586367797
 21
4.009629705345286
 31
0.0
1001
AcDbBlockRepETag
1070
     1
1071
       25
1005
3F0F3
1001
AcDbBlockArrayActionTag
1070
     1
  0
LINE
  5
3F0F4
330
2
100
AcDbEntity
  8
DETAIL
100
AcDbLine
 10
7.441740086367835
 20
3.90764405600539
 30
0.0
 11
7.441740086367835
 21
3.915917205345247
 31
0.0
1001
AcDbBlockRepETag
1070
     1
1071
       26
1005
3F0F4
1001
AcDbBlockArrayActionTag
1070
     1
  0
LINE
  5
3F0F5
330
2
100
AcDbEntity
  8
DETAIL
100
AcDbLine
 10
7.359727586367816
 20
4.060429705345266
 30
0.0
 11
7.359727586367816
 21
4.11465655600536
 31
0.0
1001
AcDbBlockRepETag
1070
     1
1071
       35
1005
3F0F5
1001
AcDbBlockArrayActionTag
1070
     1
  0
LINE
  5
3F0F6
330
2
100
AcDbEntity
  8
DETAIL
100
AcDbLine
 10
7.429794961357591
 20
3.990362330355491
 30
0.0
 11
7.429794961357591
 21
4.044589181015626
 31
0.0
1001
AcDbBlockRepETag
1070
     1
1071
       36
1005
3F0F6
1001
AcDbBlockArrayActionTag
1070
     1
  0
LINE
  5
3F0F7
330
2
100
AcDbEntity
  8
DETAIL
100
AcDbLine
 10
7.348027586367797
 20
4.072129705345286
 30
0.0
 11
7.441740086367835
 21
3.978417205345247
 31
0.0
1001
AcDbBlockRepETag
1070
     1
1071
       23
1005
3F0F7
1001
AcDbBlockArrayActionTag
1070
     1
  0
LINE
  5
3F0F8
330
2
100
AcDbEntity
  8
DETAIL
100
AcDbLine
 10
7.348027586367797
 20
4.063856556005371
 30
0.0
 11
7.441740086367835
 21
3.97014405600539
 31
0.0
1001
AcDbBlockRepETag
1070
     1
1071
       24
1005
3F0F8
1001
AcDbBlockArrayActionTag
1070
     1
  0
LINE
  5
3F0F9
330
2
100
AcDbEntity
  8
DETAIL
100
AcDbLine
 10
7.348027586367797
 20
4.063856556005371
 30
0.0
 11
7.348027586367797
 21
4.072129705345286
 31
0.0
1001
AcDbBlockRepETag
1070
     1
1071
       25
1005
3F0F9
1001
AcDbBlockArrayActionTag
1070
     1
  0
LINE
  5
3F0FA
330
2
100
AcDbEntity
  8
DETAIL
100
AcDbLine
 10
7.441740086367835
 20
3.97014405600539
 30
0.0
 11
7.441740086367835
 21
3.978417205345247
 31
0.0
1001
AcDbBlockRepETag
1070
     1
1071
       26
1005
3F0FA
1001
AcDbBlockArrayActionTag
1070
     1
  0
LINE
  5
3F0FB
330
2
100
AcDbEntity
  8
DETAIL
100
AcDbLine
 10
7.359727586367816
 20
4.122929705345266
 30
0.0
 11
7.359727586367816
 21
4.17715655600536
 31
0.0
1001
AcDbBlockRepETag
1070
     1
1071
       35
1005
3F0FB
1001
AcDbBlockArrayActionTag
1070
     1
  0
LINE
  5
3F0FC
330
2
100
AcDbEntity
  8
DETAIL
100
AcDbLine
 10
7.429794961357591
 20
4.05286233035549
 30
0.0
 11
7.429794961357591
 21
4.107089181015626
 31
0.0
1001
AcDbBlockRepETag
1070
     1
1071
       36
1005
3F0FC
1001
AcDbBlockArrayActionTag
1070
     1
  0
LINE
  5
3F0FD
330
2
100
AcDbEntity
  8
DETAIL
100
AcDbLine
 10
7.348027586367797
 20
4.134629705345286
 30
0.0
 11
7.441740086367835
 21
4.040917205345247
 31
0.0
1001
AcDbBlockRepETag
1070
     1
1071
       23
1005
3F0FD
1001
AcDbBlockArrayActionTag
1070
     1
  0
LINE
  5
3F0FE
330
2
100
AcDbEntity
  8
DETAIL
100
AcDbLine
 10
7.348027586367797
 20
4.126356556005371
 30
0.0
 11
7.441740086367835
 21
4.03264405600539
 31
0.0
1001
AcDbBlockRepETag
1070
     1
1071
       24
1005
3F0FE
1001
AcDbBlockArrayActionTag
1070
     1
  0
LINE
  5
3F0FF
330
2
100
AcDbEntity
  8
DETAIL
100
AcDbLine
 10
7.348027586367797
 20
4.126356556005371
 30
0.0
 11
7.348027586367797
 21
4.134629705345286
 31
0.0
1001
AcDbBlockRepETag
1070
     1
1071
       25
1005
3F0FF
1001
AcDbBlockArrayActionTag
1070
     1
  0
LINE
  5
3F100
330
2
100
AcDbEntity
  8
DETAIL
100
AcDbLine
 10
7.441740086367835
 20
4.03264405600539
 30
0.0
 11
7.441740086367835
 21
4.040917205345247
 31
0.0
1001
AcDbBlockRepETag
1070
     1
1071
       26
1005
3F100
1001
AcDbBlockArrayActionTag
1070
     1
  0
LINE
  5
3F101
330
2
100
AcDbEntity
  8
DETAIL
100
AcDbLine
 10
5.08803817208892
 20
3.872929705345267
 30
0.0
 11
5.08803817208892
 21
3.92715655600536
 31
0.0
1001
AcDbBlockRepETag
1070
     1
1071
       35
1005
3F101
  0
LINE
  5
3F102
330
2
100
AcDbEntity
  8
DETAIL
100
AcDbLine
 10
5.08803817208892
 20
4.185429705345266
 30
0.0
 11
5.08803817208892
 21
4.240001869939031
 31
0.0
1001
AcDbBlockRepETag
1070
     1
1071
       38
1005
3F102
  0
LINE
  5
3F103
330
2
100
AcDbEntity
  8
DETAIL
100
AcDbLine
 10
5.006025672088902
 20
3.72014405600539
 30
0.0
 11
5.006025672088902
 21
3.728417205345247
 31
0.0
1001
AcDbBlockRepETag
1070
     1
1071
       11
1005
3F103
  0
LINE
  5
3F104
330
2
100
AcDbEntity
  8
DETAIL
100
AcDbLine
 10
5.08803817208892
 20
3.802156556005352
 30
0.0
 11
5.08803817208892
 21
3.720722525534801
 31
0.0
1001
AcDbBlockRepETag
1070
     1
1071
       40
1005
3F104
  0
LINE
  5
3F105
330
2
100
AcDbEntity
  8
DETAIL
100
AcDbLine
 10
5.17006942208892
 20
3.560314369939088
 30
0.0
 11
4.93569442208892
 21
3.560314369939088
 31
0.0
1001
AcDbBlockRepETag
1070
     1
1071
       41
1005
3F105
  0
ARC
  5
3F106
330
2
100
AcDbEntity
  8
DETAIL
100
AcDbCircle
 10
4.799556015320583
 20
3.731113384225853
 30
0.0
 40
0.2184169615179908
100
AcDbArc
 50
308.5572234717033
 51
0.255974734354531
1001
AcDbBlockRepETag
1070
     1
1071
       42
1005
3F106
  0
LINE
  5
3F107
330
2
100
AcDbEntity
  8
DETAIL
100
AcDbLine
 10
5.017970797099144
 20
3.740362330355491
 30
0.0
 11
5.017970797099144
 21
3.794589181015626
 31
0.0
1001
AcDbBlockRepETag
1070
     1
1071
       22
1005
3F107
  0
LINE
  5
3F108
330
2
100
AcDbEntity
  8
DETAIL
100
AcDbLine
 10
5.017970797099144
 20
3.802862330355491
 30
0.0
 11
5.017970797099144
 21
3.857089181015626
 31
0.0
1001
AcDbBlockRepETag
1070
     1
1071
       36
1005
3F108
  0
LINE
  5
3F109
330
2
100
AcDbEntity
  8
DETAIL
100
AcDbLine
 10
5.017970797099144
 20
4.11536233035549
 30
0.0
 11
5.017970797099144
 21
4.169589181015626
 31
0.0
1001
AcDbBlockRepETag
1070
     1
1071
       37
1005
3F109
  0
LINE
  5
3F10A
330
2
100
AcDbEntity
  8
DETAIL
100
AcDbLine
 10
5.017970797099144
 20
4.17786233035549
 30
0.0
 11
5.017970797099144
 21
4.232089181015633
 31
0.0
1001
AcDbBlockRepETag
1070
     1
1071
       39
1005
3F10A
  0
LINE
  5
3F10B
330
2
100
AcDbEntity
  8
DETAIL
100
AcDbLine
 10
5.099738172088939
 20
3.884629705345286
 30
0.0
 11
5.006025672088902
 21
3.790917205345247
 31
0.0
1001
AcDbBlockRepETag
1070
     1
1071
       23
1005
3F10B
  0
LINE
  5
3F10C
330
2
100
AcDbEntity
  8
DETAIL
100
AcDbLine
 10
5.099738172088939
 20
3.876356556005371
 30
0.0
 11
5.006025672088902
 21
3.78264405600539
 31
0.0
1001
AcDbBlockRepETag
1070
     1
1071
       24
1005
3F10C
  0
LINE
  5
3F10D
330
2
100
AcDbEntity
  8
DETAIL
100
AcDbLine
 10
5.099738172088939
 20
3.876356556005371
 30
0.0
 11
5.099738172088939
 21
3.884629705345286
 31
0.0
1001
AcDbBlockRepETag
1070
     1
1071
       25
1005
3F10D
  0
LINE
  5
3F10E
330
2
100
AcDbEntity
  8
DETAIL
100
AcDbLine
 10
5.006025672088902
 20
3.78264405600539
 30
0.0
 11
5.006025672088902
 21
3.790917205345247
 31
0.0
1001
AcDbBlockRepETag
1070
     1
1071
       26
1005
3F10E
  0
LINE
  5
3F10F
330
2
100
AcDbEntity
  8
DETAIL
100
AcDbLine
 10
5.099738172088939
 20
4.197129705345286
 30
0.0
 11
5.006025672088902
 21
4.103417205345247
 31
0.0
1001
AcDbBlockRepETag
1070
     1
1071
       27
1005
3F10F
  0
LINE
  5
3F110
330
2
100
AcDbEntity
  8
DETAIL
100
AcDbLine
 10
5.099738172088939
 20
4.188856556005371
 30
0.0
 11
5.006025672088902
 21
4.09514405600539
 31
0.0
1001
AcDbBlockRepETag
1070
     1
1071
       28
1005
3F110
  0
LINE
  5
3F111
330
2
100
AcDbEntity
  8
DETAIL
100
AcDbLine
 10
5.099738172088939
 20
4.188856556005371
 30
0.0
 11
5.099738172088939
 21
4.197129705345286
 31
0.0
1001
AcDbBlockRepETag
1070
     1
1071
       29
1005
3F111
  0
LINE
  5
3F112
330
2
100
AcDbEntity
  8
DETAIL
100
AcDbLine
 10
5.006025672088902
 20
4.09514405600539
 30
0.0
 11
5.006025672088902
 21
4.103417205345247
 31
0.0
1001
AcDbBlockRepETag
1070
     1
1071
       30
1005
3F112
  0
LINE
  5
3F113
330
2
100
AcDbEntity
  8
DETAIL
100
AcDbLine
 10
5.099738172088939
 20
4.259629705345286
 30
0.0
 11
5.006025672088902
 21
4.165917205345247
 31
0.0
1001
AcDbBlockRepETag
1070
     1
1071
       31
1005
3F113
  0
LINE
  5
3F114
330
2
100
AcDbEntity
  8
DETAIL
100
AcDbLine
 10
5.099738172088939
 20
4.251356556005371
 30
0.0
 11
5.006025672088902
 21
4.15764405600539
 31
0.0
1001
AcDbBlockRepETag
1070
     1
1071
       32
1005
3F114
  0
LINE
  5
3F115
330
2
100
AcDbEntity
  8
DETAIL
100
AcDbLine
 10
5.099738172088939
 20
4.251356556005371
 30
0.0
 11
5.099738172088939
 21
4.259629705345286
 31
0.0
1001
AcDbBlockRepETag
1070
     1
1071
       33
1005
3F115
  0
LINE
  5
3F116
330
2
100
AcDbEntity
  8
DETAIL
100
AcDbLine
 10
5.006025672088902
 20
4.15764405600539
 30
0.0
 11
5.006025672088902
 21
4.165917205345247
 31
0.0
1001
AcDbBlockRepETag
1070
     1
1071
       34
1005
3F116
  0
ARC
  5
3F117
330
2
100
AcDbEntity
  8
DETAIL
100
AcDbCircle
 10
5.306207828857258
 20
3.731113384225853
 30
0.0
 40
0.2184169615179908
100
AcDbArc
 50
182.7267898245566
 51
231.4427765282967
1001
AcDbBlockRepETag
1070
     1
1071
       43
1005
3F117
  0
LINE
  5
3F118
330
2
100
AcDbEntity
  8
DETAIL
100
AcDbLine
 10
5.05288192208892
 20
4.310314369939089
 30
0.0
 11
5.01772567208892
 21
4.240001869939089
 31
0.0
1001
AcDbBlockRepETag
1070
     1
1071
        0
1005
3F118
  0
LINE
  5
3F119
330
2
100
AcDbEntity
  8
DETAIL
100
AcDbLine
 10
5.076040608512394
 20
4.290158992428882
 30
0.0
 11
5.006025672088902
 21
4.22014405600539
 31
0.0
1001
AcDbBlockRepETag
1070
     1
1071
        1
1005
3F119
  0
LINE
  5
3F11A
330
2
100
AcDbEntity
  8
DETAIL
100
AcDbLine
 10
5.073282892065812
 20
4.295674425322156
 30
0.0
 11
5.006025672088902
 21
4.228417205345305
 31
0.0
1001
AcDbBlockRepETag
1070
     1
1071
        2
1005
3F11A
  0
LINE
  5
3F11B
330
2
100
AcDbEntity
  8
DETAIL
100
AcDbLine
 10
5.085395560286841
 20
4.245287093543187
 30
0.0
 11
5.067319943400129
 21
4.281438327316616
 31
0.0
1001
AcDbBlockRepETag
1070
     1
1071
        3
1005
3F11B
  0
LINE
  5
3F11C
330
2
100
AcDbEntity
  8
DETAIL
100
AcDbLine
 10
5.064562226953547
 20
4.286953760209892
 30
0.0
 11
5.05288192208892
 21
4.310314369939089
 31
0.0
1001
AcDbBlockRepETag
1070
     1
1071
        4
1005
3F11C
  0
LINE
  5
3F11D
330
2
100
AcDbEntity
  8
DETAIL
100
AcDbLine
 10
5.076040608512394
 20
4.290158992428882
 30
0.0
 11
5.073282892065812
 21
4.295674425322156
 31
0.0
1001
AcDbBlockRepETag
1070
     1
1071
        5
1005
3F11D
  0
LINE
  5
3F11E
330
2
100
AcDbEntity
  8
DETAIL
100
AcDbLine
 10
5.006025672088902
 20
4.22014405600539
 30
0.0
 11
5.006025672088902
 21
4.228417205345305
 31
0.0
1001
AcDbBlockRepETag
1070
     1
1071
        6
1005
3F11E
  0
LINE
  5
3F11F
330
2
100
AcDbEntity
  8
DETAIL
100
AcDbLine
 10
5.099738172088939
 20
3.822129705345286
 30
0.0
 11
5.006025672088902
 21
3.728417205345247
 31
0.0
1001
AcDbBlockRepETag
1070
     1
1071
        7
1005
3F11F
  0
LINE
  5
3F120
330
2
100
AcDbEntity
  8
DETAIL
100
AcDbLine
 10
5.099738172088939
 20
3.813856556005371
 30
0.0
 11
5.006025672088902
 21
3.72014405600539
 31
0.0
1001
AcDbBlockRepETag
1070
     1
1071
        8
1005
3F120
  0
LINE
  5
3F121
330
2
100
AcDbEntity
  8
DETAIL
100
AcDbLine
 10
5.099738172088939
 20
3.813856556005371
 30
0.0
 11
5.099738172088939
 21
3.822129705345286
 31
0.0
1001
AcDbBlockRepETag
1070
     1
1071
        9
1005
3F121
  0
LINE
  5
3F122
330
2
100
AcDbEntity
  8
DETAIL
100
AcDbLine
 10
5.08803817208892
 20
3.810429705345267
 30
0.0
 11
5.08803817208892
 21
3.86465655600536
 31
0.0
1001
AcDbBlockRepETag
1070
     1
1071
       10
1005
3F122
  0
LINE
  5
3F123
330
2
100
AcDbEntity
  8
DETAIL
100
AcDbLine
 10
5.08803817208892
 20
3.935429705345267
 30
0.0
 11
5.08803817208892
 21
3.98965655600536
 31
0.0
1001
AcDbBlockRepETag
1070
     1
1071
       35
1005
3F123
1001
AcDbBlockArrayActionTag
1070
     1
  0
LINE
  5
3F124
330
2
100
AcDbEntity
  8
DETAIL
100
AcDbLine
 10
5.017970797099144
 20
3.865362330355491
 30
0.0
 11
5.017970797099144
 21
3.919589181015626
 31
0.0
1001
AcDbBlockRepETag
1070
     1
1071
       36
1005
3F124
1001
AcDbBlockArrayActionTag
1070
     1
  0
LINE
  5
3F125
330
2
100
AcDbEntity
  8
DETAIL
100
AcDbLine
 10
5.099738172088939
 20
3.947129705345286
 30
0.0
 11
5.006025672088902
 21
3.853417205345247
 31
0.0
1001
AcDbBlockRepETag
1070
     1
1071
       23
1005
3F125
1001
AcDbBlockArrayActionTag
1070
     1
  0
LINE
  5
3F126
330
2
100
AcDbEntity
  8
DETAIL
100
AcDbLine
 10
5.099738172088939
 20
3.938856556005371
 30
0.0
 11
5.006025672088902
 21
3.84514405600539
 31
0.0
1001
AcDbBlockRepETag
1070
     1
1071
       24
1005
3F126
1001
AcDbBlockArrayActionTag
1070
     1
  0
LINE
  5
3F127
330
2
100
AcDbEntity
  8
DETAIL
100
AcDbLine
 10
5.099738172088939
 20
3.938856556005371
 30
0.0
 11
5.099738172088939
 21
3.947129705345286
 31
0.0
1001
AcDbBlockRepETag
1070
     1
1071
       25
1005
3F127
1001
AcDbBlockArrayActionTag
1070
     1
  0
LINE
  5
3F128
330
2
100
AcDbEntity
  8
DETAIL
100
AcDbLine
 10
5.006025672088902
 20
3.84514405600539
 30
0.0
 11
5.006025672088902
 21
3.853417205345247
 31
0.0
1001
AcDbBlockRepETag
1070
     1
1071
       26
1005
3F128
1001
AcDbBlockArrayActionTag
1070
     1
  0
LINE
  5
3F129
330
2
100
AcDbEntity
  8
DETAIL
100
AcDbLine
 10
5.08803817208892
 20
3.997929705345267
 30
0.0
 11
5.08803817208892
 21
4.05215655600536
 31
0.0
1001
AcDbBlockRepETag
1070
     1
1071
       35
1005
3F129
1001
AcDbBlockArrayActionTag
1070
     1
  0
LINE
  5
3F12A
330
2
100
AcDbEntity
  8
DETAIL
100
AcDbLine
 10
5.017970797099144
 20
3.927862330355491
 30
0.0
 11
5.017970797099144
 21
3.982089181015626
 31
0.0
1001
AcDbBlockRepETag
1070
     1
1071
       36
1005
3F12A
1001
AcDbBlockArrayActionTag
1070
     1
  0
LINE
  5
3F12B
330
2
100
AcDbEntity
  8
DETAIL
100
AcDbLine
 10
5.099738172088939
 20
4.009629705345286
 30
0.0
 11
5.006025672088902
 21
3.915917205345247
 31
0.0
1001
AcDbBlockRepETag
1070
     1
1071
       23
1005
3F12B
1001
AcDbBlockArrayActionTag
1070
     1
  0
LINE
  5
3F12C
330
2
100
AcDbEntity
  8
DETAIL
100
AcDbLine
 10
5.099738172088939
 20
4.001356556005371
 30
0.0
 11
5.006025672088902
 21
3.90764405600539
 31
0.0
1001
AcDbBlockRepETag
1070
     1
1071
       24
1005
3F12C
1001
AcDbBlockArrayActionTag
1070
     1
  0
LINE
  5
3F12D
330
2
100
AcDbEntity
  8
DETAIL
100
AcDbLine
 10
5.099738172088939
 20
4.001356556005371
 30
0.0
 11
5.099738172088939
 21
4.009629705345286
 31
0.0
1001
AcDbBlockRepETag
1070
     1
1071
       25
1005
3F12D
1001
AcDbBlockArrayActionTag
1070
     1
  0
LINE
  5
3F12E
330
2
100
AcDbEntity
  8
DETAIL
100
AcDbLine
 10
5.006025672088902
 20
3.90764405600539
 30
0.0
 11
5.006025672088902
 21
3.915917205345247
 31
0.0
1001
AcDbBlockRepETag
1070
     1
1071
       26
1005
3F12E
1001
AcDbBlockArrayActionTag
1070
     1
  0
LINE
  5
3F12F
330
2
100
AcDbEntity
  8
DETAIL
100
AcDbLine
 10
5.08803817208892
 20
4.060429705345266
 30
0.0
 11
5.08803817208892
 21
4.11465655600536
 31
0.0
1001
AcDbBlockRepETag
1070
     1
1071
       35
1005
3F12F
1001
AcDbBlockArrayActionTag
1070
     1
  0
LINE
  5
3F130
330
2
100
AcDbEntity
  8
DETAIL
100
AcDbLine
 10
5.017970797099144
 20
3.990362330355491
 30
0.0
 11
5.017970797099144
 21
4.044589181015626
 31
0.0
1001
AcDbBlockRepETag
1070
     1
1071
       36
1005
3F130
1001
AcDbBlockArrayActionTag
1070
     1
  0
LINE
  5
3F131
330
2
100
AcDbEntity
  8
DETAIL
100
AcDbLine
 10
5.099738172088939
 20
4.072129705345286
 30
0.0
 11
5.006025672088902
 21
3.978417205345247
 31
0.0
1001
AcDbBlockRepETag
1070
     1
1071
       23
1005
3F131
1001
AcDbBlockArrayActionTag
1070
     1
  0
LINE
  5
3F132
330
2
100
AcDbEntity
  8
DETAIL
100
AcDbLine
 10
5.099738172088939
 20
4.063856556005371
 30
0.0
 11
5.006025672088902
 21
3.97014405600539
 31
0.0
1001
AcDbBlockRepETag
1070
     1
1071
       24
1005
3F132
1001
AcDbBlockArrayActionTag
1070
     1
  0
LINE
  5
3F133
330
2
100
AcDbEntity
  8
DETAIL
100
AcDbLine
 10
5.099738172088939
 20
4.063856556005371
 30
0.0
 11
5.099738172088939
 21
4.072129705345286
 31
0.0
1001
AcDbBlockRepETag
1070
     1
1071
       25
1005
3F133
1001
AcDbBlockArrayActionTag
1070
     1
  0
LINE
  5
3F134
330
2
100
AcDbEntity
  8
DETAIL
100
AcDbLine
 10
5.006025672088902
 20
3.97014405600539
 30
0.0
 11
5.006025672088902
 21
3.978417205345247
 31
0.0
1001
AcDbBlockRepETag
1070
     1
1071
       26
1005
3F134
1001
AcDbBlockArrayActionTag
1070
     1
  0
LINE
  5
3F135
330
2
100
AcDbEntity
  8
DETAIL
100
AcDbLine
 10
5.08803817208892
 20
4.122929705345266
 30
0.0
 11
5.08803817208892
 21
4.17715655600536
 31
0.0
1001
AcDbBlockRepETag
1070
     1
1071
       35
1005
3F135
1001
AcDbBlockArrayActionTag
1070
     1
  0
LINE
  5
3F136
330
2
100
AcDbEntity
  8
DETAIL
100
AcDbLine
 10
5.017970797099144
 20
4.05286233035549
 30
0.0
 11
5.017970797099144
 21
4.107089181015626
 31
0.0
1001
AcDbBlockRepETag
1070
     1
1071
       36
1005
3F136
1001
AcDbBlockArrayActionTag
1070
     1
  0
LINE
  5
3F137
330
2
100
AcDbEntity
  8
DETAIL
100
AcDbLine
 10
5.099738172088939
 20
4.134629705345286
 30
0.0
 11
5.006025672088902
 21
4.040917205345247
 31
0.0
1001
AcDbBlockRepETag
1070
     1
1071
       23
1005
3F137
1001
AcDbBlockArrayActionTag
1070
     1
  0
LINE
  5
3F138
330
2
100
AcDbEntity
  8
DETAIL
100
AcDbLine
 10
5.099738172088939
 20
4.126356556005371
 30
0.0
 11
5.006025672088902
 21
4.03264405600539
 31
0.0
1001
AcDbBlockRepETag
1070
     1
1071
       24
1005
3F138
1001
AcDbBlockArrayActionTag
1070
     1
  0
LINE
  5
3F139
330
2
100
AcDbEntity
  8
DETAIL
100
AcDbLine
 10
5.099738172088939
 20
4.126356556005371
 30
0.0
 11
5.099738172088939
 21
4.134629705345286
 31
0.0
1001
AcDbBlockRepETag
1070
     1
1071
       25
1005
3F139
1001
AcDbBlockArrayActionTag
1070
     1
  0
LINE
  5
3F13A
330
2
100
AcDbEntity
  8
DETAIL
100
AcDbLine
 10
5.006025672088902
 20
4.03264405600539
 30
0.0
 11
5.006025672088902
 21
4.040917205345247
 31
0.0
1001
AcDbBlockRepETag
1070
     1
1071
       26
1005
3F13A
1001
AcDbBlockArrayActionTag
1070
     1
  0
LINE
  5
40777
330
2
100
AcDbEntity
  8
DIM
 62
     3
100
AcDbLine
 10
5.733882879228374
 20
3.513464789460236
 30
0.0
 11
5.733882879228374
 21
3.171610235814688
 31
0.0
  0
LINE
  5
4077A
330
2
100
AcDbEntity
  8
DIM
 62
     3
100
AcDbLine
 10
6.713882879228362
 20
3.513464789460236
 30
0.0
 11
6.713882879228362
 21
3.171610235814688
 31
0.0
  0
LINE
  5
4077B
330
2
100
AcDbEntity
  8
DIM
 62
     2
100
AcDbLine
 10
5.796382879228374
 20
3.241610235814688
 30
0.0
 11
6.067333595463021
 21
3.241610235814688
 31
0.0
  0
LINE
  5
4077C
330
2
100
AcDbEntity
  8
DIM
 62
     2
100
AcDbLine
 10
6.651382879228362
 20
3.241610235814688
 30
0.0
 11
6.380432162993717
 21
3.241610235814688
 31
0.0
  0
SOLID
  5
4077D
330
2
100
AcDbEntity
  8
DIM
 62
     2
100
AcDbTrace
 10
5.796382879228374
 20
3.252026902481355
 30
0.0
 11
5.796382879228374
 21
3.231193569148021
 31
0.0
 12
5.733882879228374
 22
3.241610235814688
 32
0.0
 13
5.733882879228374
 23
3.241610235814688
 33
0.0
  0
SOLID
  5
4077E
330
2
100
AcDbEntity
  8
DIM
 62
     2
100
AcDbTrace
 10
6.651382879228362
 20
3.252026902481355
 30
0.0
 11
6.651382879228362
 21
3.231193569148021
 31
0.0
 12
6.713882879228362
 22
3.241610235814688
 32
0.0
 13
6.713882879228362
 23
3.241610235814688
 33
0.0
  0
MTEXT
  5
4077F
330
2
100
AcDbEntity
  8
DIM
100
AcDbMText
 10
6.223882879228368
 20
3.241610235814688
 30
0.0
 40
0.0625
 41
0.0
 71
     5
 72
     1
  1
\A1;1" - 2"
  7
STD
 73
     1
 44
1.0
1001
ACAD
1000
MTEXTBEGIN
1070
    73
1070
     1
1070
    44
1040
1.0
1070
    74
1070
     0
1000
MTEXTEND
  0
LINE
  5
40780
330
2
100
AcDbEntity
  8
HATCH
100
AcDbLine
 10
7.194689793217802
 20
3.566430893292408
 30
0.0
 11
7.18488571918226
 21
3.556238732956852
 31
0.0
  0
LINE
  5
40781
330
2
100
AcDbEntity
  8
HATCH
100
AcDbLine
 10
7.18488571918226
 20
3.556238732956852
 30
0.0
 11
7.124881953553368
 21
3.555074181723983
 31
0.0
  0
LINE
  5
40782
330
2
100
AcDbEntity
  8
HATCH
100
AcDbLine
 10
7.124881953553368
 20
3.555074181723983
 30
0.0
 11
7.114689793217819
 21
3.564878255759519
 31
0.0
  0
LINE
  5
40783
330
2
100
AcDbEntity
  8
HATCH
100
AcDbLine
 10
7.114689793217819
 20
3.564878255759519
 30
0.0
 11
7.104885719182262
 21
3.554686095423963
 31
0.0
  0
LINE
  5
40784
330
2
100
AcDbEntity
  8
HATCH
100
AcDbLine
 10
7.104885719182262
 20
3.554686095423963
 30
0.0
 11
7.044881953553371
 21
3.553521544191095
 31
0.0
  0
LINE
  5
40785
330
2
100
AcDbEntity
  8
HATCH
100
AcDbLine
 10
7.044881953553371
 20
3.553521544191095
 30
0.0
 11
7.034689793217808
 21
3.563325618226631
 31
0.0
  0
LINE
  5
40786
330
2
100
AcDbEntity
  8
HATCH
100
AcDbLine
 10
7.034689793217808
 20
3.563325618226631
 30
0.0
 11
7.024885719182265
 21
3.553133457891075
 31
0.0
  0
LINE
  5
40787
330
2
100
AcDbEntity
  8
HATCH
100
AcDbLine
 10
7.024885719182265
 20
3.553133457891075
 30
0.0
 11
6.964881953553372
 21
3.551968906658205
 31
0.0
  0
LINE
  5
40788
330
2
100
AcDbEntity
  8
HATCH
100
AcDbLine
 10
6.964881953553372
 20
3.551968906658205
 30
0.0
 11
6.954689793217822
 21
3.561772980693741
 31
0.0
  0
LINE
  5
40789
330
2
100
AcDbEntity
  8
HATCH
100
AcDbLine
 10
6.954689793217822
 20
3.561772980693741
 30
0.0
 11
6.944885719182252
 21
3.551580820358185
 31
0.0
  0
LINE
  5
4078A
330
2
100
AcDbEntity
  8
HATCH
100
AcDbLine
 10
6.944885719182252
 20
3.551580820358185
 30
0.0
 11
6.884881953553374
 21
3.55041626912531
 31
0.0
  0
LINE
  5
4078B
330
2
100
AcDbEntity
  8
HATCH
100
AcDbLine
 10
6.884881953553374
 20
3.55041626912531
 30
0.0
 11
6.874689793217811
 21
3.560220343160852
 31
0.0
  0
LINE
  5
4078C
330
2
100
AcDbEntity
  8
HATCH
100
AcDbLine
 10
6.874689793217811
 20
3.560220343160852
 30
0.0
 11
6.864885719182266
 21
3.550028182825297
 31
0.0
  0
LINE
  5
4078D
330
2
100
AcDbEntity
  8
HATCH
100
AcDbLine
 10
6.864885719182266
 20
3.550028182825297
 30
0.0
 11
6.780094246232664
 21
3.548382552533166
 31
0.0
  0
ARC
  5
4078E
330
2
100
AcDbEntity
  8
HATCH
100
AcDbCircle
 10
6.73407843052279
 20
3.56794130260969
 30
0.0
 40
0.0500000000000106
100
AcDbArc
 50
264.9653245437284
 51
336.9723687973063
  0
LINE
  5
4078F
330
2
100
AcDbEntity
  8
HATCH
100
AcDbLine
 10
6.729690499289829
 20
3.518134214163406
 30
0.0
 11
6.729690499289829
 21
3.623464789460231
 31
0.0
  0
LINE
  5
40790
330
2
100
AcDbEntity
  8
HATCH
100
AcDbLine
 10
6.729690499289829
 20
3.623464789460231
 30
0.0
 11
6.77969049928984
 21
3.623464789460231
 31
0.0
  0
LINE
  5
40791
330
2
100
AcDbEntity
  8
HATCH
100
AcDbLine
 10
6.77969049928984
 20
3.623464789460231
 30
0.0
 11
6.77969049928984
 21
3.598464789460233
 31
0.0
  0
LINE
  5
40792
330
2
100
AcDbEntity
  8
HATCH
100
AcDbLine
 10
6.77969049928984
 20
3.598464789460233
 30
0.0
 11
6.90469049928984
 21
3.598464789460233
 31
0.0
  0
LINE
  5
40793
330
2
100
AcDbEntity
  8
HATCH
100
AcDbLine
 10
6.90469049928984
 20
3.598464789460233
 30
0.0
 11
6.90469049928984
 21
3.723464789460233
 31
0.0
  0
LINE
  5
40794
330
2
100
AcDbEntity
  8
HATCH
100
AcDbLine
 10
6.90469049928984
 20
3.723464789460233
 30
0.0
 11
6.77969049928984
 21
3.723464789460233
 31
0.0
  0
LINE
  5
40795
330
2
100
AcDbEntity
  8
HATCH
100
AcDbLine
 10
6.77969049928984
 20
3.723464789460233
 30
0.0
 11
6.77969049928984
 21
3.698464789460234
 31
0.0
  0
LINE
  5
40796
330
2
100
AcDbEntity
  8
HATCH
100
AcDbLine
 10
6.77969049928984
 20
3.698464789460234
 30
0.0
 11
6.729690499289829
 21
3.698464789460234
 31
0.0
  0
LINE
  5
40797
330
2
100
AcDbEntity
  8
HATCH
100
AcDbLine
 10
6.729690499289829
 20
3.698464789460234
 30
0.0
 11
6.729690499289829
 21
3.773464789460231
 31
0.0
  0
LINE
  5
40798
330
2
100
AcDbEntity
  8
HATCH
100
AcDbLine
 10
6.729690499289829
 20
3.773464789460231
 30
0.0
 11
6.954690499289823
 21
3.773464789460231
 31
0.0
  0
LINE
  5
40799
330
2
100
AcDbEntity
  8
HATCH
100
AcDbLine
 10
6.954690499289823
 20
3.773464789460231
 30
0.0
 11
6.954690499289839
 21
3.598464789460233
 31
0.0
  0
LINE
  5
4079A
330
2
100
AcDbEntity
  8
HATCH
100
AcDbLine
 10
6.954690499289839
 20
3.598464789460233
 30
0.0
 11
7.814690499289838
 21
3.598464789460233
 31
0.0
  0
ARC
  5
4079B
330
2
100
AcDbEntity
  8
HATCH
100
AcDbCircle
 10
7.814690499289835
 20
3.583464789460238
 30
0.0
 40
0.0149999999999957
100
AcDbArc
 50
271.1118551353075
 51
89.99999999999323
  0
LINE
  5
4079C
330
2
100
AcDbEntity
  8
HATCH
100
AcDbLine
 10
7.814981564014842
 20
3.568467613681921
 30
0.0
 11
7.764881953553356
 21
3.567495281987095
 31
0.0
  0
LINE
  5
4079D
330
2
100
AcDbEntity
  8
HATCH
100
AcDbLine
 10
7.764881953553356
 20
3.567495281987095
 30
0.0
 11
7.754689793217806
 21
3.577299356022638
 31
0.0
  0
LINE
  5
4079E
330
2
100
AcDbEntity
  8
HATCH
100
AcDbLine
 10
7.754689793217806
 20
3.577299356022638
 30
0.0
 11
7.744885719182262
 21
3.567107195687088
 31
0.0
  0
LINE
  5
4079F
330
2
100
AcDbEntity
  8
HATCH
100
AcDbLine
 10
7.744885719182262
 20
3.567107195687088
 30
0.0
 11
7.684881953553373
 21
3.565942644454206
 31
0.0
  0
LINE
  5
407A0
330
2
100
AcDbEntity
  8
HATCH
100
AcDbLine
 10
7.684881953553373
 20
3.565942644454206
 30
0.0
 11
7.674689793217793
 21
3.57574671848975
 31
0.0
  0
LINE
  5
407A1
330
2
100
AcDbEntity
  8
HATCH
100
AcDbLine
 10
7.674689793217793
 20
3.57574671848975
 30
0.0
 11
7.66488571918225
 21
3.5655545581542
 31
0.0
  0
LINE
  5
407A2
330
2
100
AcDbEntity
  8
HATCH
100
AcDbLine
 10
7.66488571918225
 20
3.5655545581542
 30
0.0
 11
7.604881953553358
 21
3.564390006921318
 31
0.0
  0
LINE
  5
407A3
330
2
100
AcDbEntity
  8
HATCH
100
AcDbLine
 10
7.604881953553358
 20
3.564390006921318
 30
0.0
 11
7.594689793217809
 21
3.574194080956861
 31
0.0
  0
LINE
  5
407A4
330
2
100
AcDbEntity
  8
HATCH
100
AcDbLine
 10
7.594689793217809
 20
3.574194080956861
 30
0.0
 11
7.584885719182267
 21
3.56400192062131
 31
0.0
  0
LINE
  5
407A5
330
2
100
AcDbEntity
  8
HATCH
100
AcDbLine
 10
7.584885719182267
 20
3.56400192062131
 30
0.0
 11
7.524881953553374
 21
3.562837369388428
 31
0.0
  0
LINE
  5
407A6
330
2
100
AcDbEntity
  8
HATCH
100
AcDbLine
 10
7.524881953553374
 20
3.562837369388428
 30
0.0
 11
7.514689793217796
 21
3.572641443423971
 31
0.0
  0
LINE
  5
407A7
330
2
100
AcDbEntity
  8
HATCH
100
AcDbLine
 10
7.514689793217796
 20
3.572641443423971
 30
0.0
 11
7.504885719182254
 21
3.562449283088422
 31
0.0
  0
LINE
  5
407A8
330
2
100
AcDbEntity
  8
HATCH
100
AcDbLine
 10
7.504885719182254
 20
3.562449283088422
 30
0.0
 11
7.444881953553362
 21
3.56128473185554
 31
0.0
  0
LINE
  5
407A9
330
2
100
AcDbEntity
  8
HATCH
100
AcDbLine
 10
7.444881953553362
 20
3.56128473185554
 30
0.0
 11
7.434689793217812
 21
3.571088805891082
 31
0.0
  0
LINE
  5
407AA
330
2
100
AcDbEntity
  8
HATCH
100
AcDbLine
 10
7.434689793217812
 20
3.571088805891082
 30
0.0
 11
7.424885719182269
 21
3.560896645555533
 31
0.0
  0
LINE
  5
407AB
330
2
100
AcDbEntity
  8
HATCH
100
AcDbLine
 10
7.424885719182269
 20
3.560896645555533
 30
0.0
 11
7.364881953553362
 21
3.559732094322643
 31
0.0
  0
LINE
  5
407AC
330
2
100
AcDbEntity
  8
HATCH
100
AcDbLine
 10
7.364881953553362
 20
3.559732094322643
 30
0.0
 11
7.354689793217801
 21
3.569536168358187
 31
0.0
  0
LINE
  5
407AD
330
2
100
AcDbEntity
  8
HATCH
100
AcDbLine
 10
7.354689793217801
 20
3.569536168358187
 30
0.0
 11
7.344885719182257
 21
3.559344008022636
 31
0.0
  0
LINE
  5
407AE
330
2
100
AcDbEntity
  8
HATCH
100
AcDbLine
 10
7.344885719182257
 20
3.559344008022636
 30
0.0
 11
7.284881953553366
 21
3.558179456789754
 31
0.0
  0
LINE
  5
407AF
330
2
100
AcDbEntity
  8
HATCH
100
AcDbLine
 10
7.284881953553366
 20
3.558179456789754
 30
0.0
 11
7.274689793217817
 21
3.567983530825298
 31
0.0
  0
LINE
  5
407B0
330
2
100
AcDbEntity
  8
HATCH
100
AcDbLine
 10
7.274689793217817
 20
3.567983530825298
 30
0.0
 11
7.264885719182273
 21
3.557791370489748
 31
0.0
  0
LINE
  5
407B1
330
2
100
AcDbEntity
  8
HATCH
100
AcDbLine
 10
7.264885719182273
 20
3.557791370489748
 30
0.0
 11
7.204881953553383
 21
3.556626819256865
 31
0.0
  0
LINE
  5
407B2
330
2
100
AcDbEntity
  8
HATCH
100
AcDbLine
 10
7.204881953553383
 20
3.556626819256865
 30
0.0
 11
7.194689793217802
 21
3.566430893292408
 31
0.0
  0
LINE
  5
407B3
330
2
100
AcDbEntity
  8
HATCH
100
AcDbLine
 10
6.758139753871413
 20
3.524111487201523
 30
0.0
 11
6.729690499289829
 21
3.552560741783107
 31
0.0
1001
ACAD
1010
0.0
1020
0.0
1030
0.0
  0
LINE
  5
407B4
330
2
100
AcDbEntity
  8
HATCH
100
AcDbLine
 10
6.779470278587109
 20
3.546975136309986
 30
0.0
 11
6.729690499289829
 21
3.596754915607268
 31
0.0
1001
ACAD
1010
0.0
1020
0.0
1030
0.0
  0
LINE
  5
407B5
330
2
100
AcDbEntity
  8
HATCH
100
AcDbLine
 10
6.821454321129984
 20
3.549185267591273
 30
0.0
 11
6.747174799261025
 21
3.623464789460231
 31
0.0
1001
ACAD
1010
0.0
1020
0.0
1030
0.0
  0
LINE
  5
407B6
330
2
100
AcDbEntity
  8
HATCH
100
AcDbLine
 10
6.864807105452953
 20
3.550026657092462
 30
0.0
 11
6.816368973085182
 21
3.598464789460233
 31
0.0
1001
ACAD
1010
0.0
1020
0.0
1030
0.0
  0
LINE
  5
407B7
330
2
100
AcDbEntity
  8
HATCH
100
AcDbLine
 10
6.908159889775922
 20
3.550868046593651
 30
0.0
 11
6.860563146909339
 21
3.598464789460233
 31
0.0
1001
ACAD
1010
0.0
1020
0.0
1030
0.0
  0
LINE
  5
407B8
330
2
100
AcDbEntity
  8
HATCH
100
AcDbLine
 10
6.760563146909338
 20
3.698464789460234
 30
0.0
 11
6.729690499289828
 21
3.729337437079743
 31
0.0
1001
ACAD
1010
0.0
1020
0.0
1030
0.0
  0
LINE
  5
407B9
330
2
100
AcDbEntity
  8
HATCH
100
AcDbLine
 10
6.948197948555451
 20
3.555024161638281
 30
0.0
 11
6.904690499289839
 21
3.598531610903893
 31
0.0
1001
ACAD
1010
0.0
1020
0.0
1030
0.0
  0
LINE
  5
407BA
330
2
100
AcDbEntity
  8
HATCH
100
AcDbLine
 10
6.779757320733499
 20
3.723464789460233
 30
0.0
 11
6.729757320733503
 21
3.773464789460229
 31
0.0
1001
ACAD
1010
0.0
1020
0.0
1030
0.0
  0
LINE
  5
407BB
330
2
100
AcDbEntity
  8
HATCH
100
AcDbLine
 10
6.994865458421862
 20
3.552550825596031
 30
0.0
 11
6.90469049928984
 21
3.642725784728051
 31
0.0
1001
ACAD
1010
0.0
1020
0.0
1030
0.0
  0
LINE
  5
407BC
330
2
100
AcDbEntity
  8
HATCH
100
AcDbLine
 10
6.823951494557657
 20
3.723464789460233
 30
0.0
 11
6.773951494557661
 21
3.773464789460229
 31
0.0
1001
ACAD
1010
0.0
1020
0.0
1030
0.0
  0
LINE
  5
407BD
330
2
100
AcDbEntity
  8
HATCH
100
AcDbLine
 10
7.03154946998761
 20
3.560060987854441
 30
0.0
 11
6.993145668381819
 21
3.598464789460231
 31
0.0
1001
ACAD
1010
0.0
1020
0.0
1030
0.0
  0
LINE
  5
407BE
330
2
100
AcDbEntity
  8
HATCH
100
AcDbLine
 10
6.868145668381818
 20
3.723464789460233
 30
0.0
 11
6.818145668381822
 21
3.773464789460228
 31
0.0
1001
ACAD
1010
0.0
1020
0.0
1030
0.0
  0
LINE
  5
407BF
330
2
100
AcDbEntity
  8
HATCH
100
AcDbLine
 10
6.954690499289834
 20
3.636919958552216
 30
0.0
 11
6.90469049928984
 21
3.686919958552211
 31
0.0
1001
ACAD
1010
0.0
1020
0.0
1030
0.0
  0
LINE
  5
407C0
330
2
100
AcDbEntity
  8
HATCH
100
AcDbLine
 10
7.081571027067803
 20
3.554233604598408
 30
0.0
 11
7.037339842205977
 21
3.598464789460231
 31
0.0
1001
ACAD
1010
0.0
1020
0.0
1030
0.0
  0
LINE
  5
407C1
330
2
100
AcDbEntity
  8
HATCH
100
AcDbLine
 10
6.954690499289831
 20
3.68111413237638
 30
0.0
 11
6.86233984220598
 21
3.773464789460228
 31
0.0
1001
ACAD
1010
0.0
1020
0.0
1030
0.0
  0
LINE
  5
407C2
330
2
100
AcDbEntity
  8
HATCH
100
AcDbLine
 10
7.124923811390768
 20
3.5550749940996
 30
0.0
 11
7.081534016030138
 21
3.598464789460231
 31
0.0
1001
ACAD
1010
0.0
1020
0.0
1030
0.0
  0
LINE
  5
407C3
330
2
100
AcDbEntity
  8
HATCH
100
AcDbLine
 10
6.954690499289827
 20
3.725308306200543
 30
0.0
 11
6.906534016030142
 21
3.773464789460228
 31
0.0
1001
ACAD
1010
0.0
1020
0.0
1030
0.0
  0
LINE
  5
407C4
330
2
100
AcDbEntity
  8
HATCH
100
AcDbLine
 10
7.168276595713746
 20
3.555916383600783
 30
0.0
 11
7.125728189854299
 21
3.598464789460231
 31
0.0
1001
ACAD
1010
0.0
1020
0.0
1030
0.0
  0
LINE
  5
407C5
330
2
100
AcDbEntity
  8
HATCH
100
AcDbLine
 10
6.954690499289823
 20
3.769502480024706
 30
0.0
 11
6.9507281898543
 21
3.773464789460228
 31
0.0
1001
ACAD
1010
0.0
1020
0.0
1030
0.0
  0
LINE
  5
407C6
330
2
100
AcDbEntity
  8
HATCH
100
AcDbLine
 10
7.211629380036717
 20
3.556757773101971
 30
0.0
 11
7.169922363678456
 21
3.598464789460233
 31
0.0
1001
ACAD
1010
0.0
1020
0.0
1030
0.0
  0
LINE
  5
407C7
330
2
100
AcDbEntity
  8
HATCH
100
AcDbLine
 10
7.254982164359684
 20
3.557599162603164
 30
0.0
 11
7.214116537502616
 21
3.598464789460231
 31
0.0
1001
ACAD
1010
0.0
1020
0.0
1030
0.0
  0
LINE
  5
407C8
330
2
100
AcDbEntity
  8
HATCH
100
AcDbLine
 10
7.298334948682658
 20
3.558440552104348
 30
0.0
 11
7.258310711326775
 21
3.598464789460231
 31
0.0
1001
ACAD
1010
0.0
1020
0.0
1030
0.0
  0
LINE
  5
407C9
330
2
100
AcDbEntity
  8
HATCH
100
AcDbLine
 10
7.341687733005625
 20
3.559281941605542
 30
0.0
 11
7.302504885150936
 21
3.598464789460231
 31
0.0
1001
ACAD
1010
0.0
1020
0.0
1030
0.0
  0
LINE
  5
407CA
330
2
100
AcDbEntity
  8
HATCH
100
AcDbLine
 10
7.385040517328596
 20
3.560123331106728
 30
0.0
 11
7.346699058975093
 21
3.598464789460233
 31
0.0
1001
ACAD
1010
0.0
1020
0.0
1030
0.0
  0
LINE
  5
407CB
330
2
100
AcDbEntity
  8
HATCH
100
AcDbLine
 10
7.426638849817655
 20
3.562719172441828
 30
0.0
 11
7.390893232799253
 21
3.598464789460233
 31
0.0
1001
ACAD
1010
0.0
1020
0.0
1030
0.0
  0
LINE
  5
407CC
330
2
100
AcDbEntity
  8
HATCH
100
AcDbLine
 10
7.471746085974531
 20
3.56180611010911
 30
0.0
 11
7.435087406623411
 21
3.598464789460233
 31
0.0
1001
ACAD
1010
0.0
1020
0.0
1030
0.0
  0
LINE
  5
407CD
330
2
100
AcDbEntity
  8
HATCH
100
AcDbLine
 10
7.509990371249807
 20
3.567755998657997
 30
0.0
 11
7.479281580447571
 21
3.598464789460233
 31
0.0
1001
ACAD
1010
0.0
1020
0.0
1030
0.0
  0
LINE
  5
407CE
330
2
100
AcDbEntity
  8
HATCH
100
AcDbLine
 10
7.558451654620472
 20
3.56348888911149
 30
0.0
 11
7.523475754271728
 21
3.598464789460233
 31
0.0
1001
ACAD
1010
0.0
1020
0.0
1030
0.0
  0
LINE
  5
407CF
330
2
100
AcDbEntity
  8
HATCH
100
AcDbLine
 10
7.593341892681973
 20
3.57279282487415
 30
0.0
 11
7.567669928095889
 21
3.598464789460233
 31
0.0
1001
ACAD
1010
0.0
1020
0.0
1030
0.0
  0
LINE
  5
407D0
330
2
100
AcDbEntity
  8
HATCH
100
AcDbLine
 10
7.645157223266414
 20
3.565171668113868
 30
0.0
 11
7.611864101920049
 21
3.598464789460233
 31
0.0
1001
ACAD
1010
0.0
1020
0.0
1030
0.0
  0
LINE
  5
407D1
330
2
100
AcDbEntity
  8
HATCH
100
AcDbLine
 10
7.688510007589387
 20
3.566013057615053
 30
0.0
 11
7.656058275744206
 21
3.598464789460233
 31
0.0
1001
ACAD
1010
0.0
1020
0.0
1030
0.0
  0
LINE
  5
407D2
330
2
100
AcDbEntity
  8
HATCH
100
AcDbLine
 10
7.731862791912355
 20
3.566854447116245
 30
0.0
 11
7.700252449568367
 21
3.598464789460233
 31
0.0
1001
ACAD
1010
0.0
1020
0.0
1030
0.0
  0
LINE
  5
407D3
330
2
100
AcDbEntity
  8
HATCH
100
AcDbLine
 10
7.775215576235328
 20
3.567695836617428
 30
0.0
 11
7.744446623392525
 21
3.598464789460233
 31
0.0
1001
ACAD
1010
0.0
1020
0.0
1030
0.0
  0
LINE
  5
407D4
330
2
100
AcDbEntity
  8
HATCH
100
AcDbLine
 10
7.818219709277106
 20
3.568885877399811
 30
0.0
 11
7.788640797216683
 21
3.598464789460233
 31
0.0
1001
ACAD
1010
0.0
1020
0.0
1030
0.0
  0
LINE
  5
407D5
330
2
100
AcDbEntity
  8
HATCH
100
AcDbLine
 10
6.968329872142816
 20
5.12716583148429
 30
0.0
 11
7.059767361853491
 21
5.218603321194964
 31
0.0
1001
ACAD
1010
0.0
1020
0.0
1030
0.0
  0
LINE
  5
407D6
330
2
100
AcDbEntity
  8
HATCH
100
AcDbLine
 10
6.968329872142816
 20
4.985744475246981
 30
0.0
 11
7.296229367238623
 21
5.31364397034279
 31
0.0
1001
ACAD
1010
0.0
1020
0.0
1030
0.0
  0
LINE
  5
407D7
330
2
100
AcDbEntity
  8
HATCH
100
AcDbLine
 10
6.968329872142816
 20
4.84432311900967
 30
0.0
 11
7.474882169154362
 21
5.350875416021216
 31
0.0
1001
ACAD
1010
0.0
1020
0.0
1030
0.0
  0
LINE
  5
407D8
330
2
100
AcDbEntity
  8
HATCH
100
AcDbLine
 10
6.968329872142818
 20
4.702901762772362
 30
0.0
 11
7.598318082008918
 21
5.332889972638463
 31
0.0
1001
ACAD
1010
0.0
1020
0.0
1030
0.0
  0
LINE
  5
407D9
330
2
100
AcDbEntity
  8
HATCH
100
AcDbLine
 10
6.968329872142818
 20
4.561480406535054
 30
0.0
 11
7.679834595112532
 21
5.272985129504768
 31
0.0
1001
ACAD
1010
0.0
1020
0.0
1030
0.0
  0
LINE
  5
407DA
330
2
100
AcDbEntity
  8
HATCH
100
AcDbLine
 10
6.968329872142818
 20
4.420059050297743
 30
0.0
 11
7.735022530430084
 21
5.186751708585012
 31
0.0
1001
ACAD
1010
0.0
1020
0.0
1030
0.0
  0
LINE
  5
407DB
330
2
100
AcDbEntity
  8
HATCH
100
AcDbLine
 10
6.968329872142818
 20
4.278637694060435
 30
0.0
 11
7.777521043970511
 21
5.08782886588813
 31
0.0
1001
ACAD
1010
0.0
1020
0.0
1030
0.0
  0
LINE
  5
407DC
330
2
100
AcDbEntity
  8
HATCH
100
AcDbLine
 10
6.968329872142818
 20
4.137216337823126
 30
0.0
 11
7.815058414527978
 21
4.983944880208286
 31
0.0
1001
ACAD
1010
0.0
1020
0.0
1030
0.0
  0
LINE
  5
407DD
330
2
100
AcDbEntity
  8
HATCH
100
AcDbLine
 10
7.070999680017235
 20
4.098464789460233
 30
0.0
 11
7.853168965509462
 21
4.88063407495246
 31
0.0
1001
ACAD
1010
0.0
1020
0.0
1030
0.0
  0
LINE
  5
407DE
330
2
100
AcDbEntity
  8
HATCH
100
AcDbLine
 10
7.212421036254545
 20
4.098464789460233
 30
0.0
 11
7.356670194583744
 21
4.242713947789432
 31
0.0
1001
ACAD
1010
0.0
1020
0.0
1030
0.0
  0
LINE
  5
407DF
330
2
100
AcDbEntity
  8
HATCH
100
AcDbLine
 10
7.40467942982301
 20
4.290723183028698
 30
0.0
 11
7.897168485823365
 21
4.783212239029053
 31
0.0
1001
ACAD
1010
0.0
1020
0.0
1030
0.0
  0
LINE
  5
407E0
330
2
100
AcDbEntity
  8
HATCH
100
AcDbLine
 10
7.3608067692537
 20
4.246850522459386
 30
0.0
 11
7.36549705600229
 21
4.251540809207977
 31
0.0
1001
ACAD
1010
0.0
1020
0.0
1030
0.0
  0
LINE
  5
407E1
330
2
100
AcDbEntity
  8
HATCH
100
AcDbLine
 10
7.353842392491857
 20
4.098464789460233
 30
0.0
 11
7.359727586367816
 21
4.104349983336194
 31
0.0
1001
ACAD
1010
0.0
1020
0.0
1030
0.0
  0
LINE
  5
407E2
330
2
100
AcDbEntity
  8
HATCH
100
AcDbLine
 10
7.431517447372352
 20
4.176139844340731
 30
0.0
 11
7.9536995870374
 21
4.698321984005778
 31
0.0
1001
ACAD
1010
0.0
1020
0.0
1030
0.0
  0
LINE
  5
407E3
330
2
100
AcDbEntity
  8
HATCH
100
AcDbLine
 10
7.495263748729164
 20
4.098464789460233
 30
0.0
 11
8.033692766928684
 21
4.636893807659753
 31
0.0
1001
ACAD
1010
0.0
1020
0.0
1030
0.0
  0
LINE
  5
407E4
330
2
100
AcDbEntity
  8
HATCH
100
AcDbLine
 10
7.636685104966472
 20
4.098464789460233
 30
0.0
 11
8.155117613525352
 21
4.616897298019112
 31
0.0
1001
ACAD
1010
0.0
1020
0.0
1030
0.0
  0
LINE
  5
407E5
330
2
100
AcDbEntity
  8
HATCH
100
AcDbLine
 10
7.778106461203782
 20
4.098464789460233
 30
0.0
 11
8.303193656386229
 21
4.623551984642681
 31
0.0
1001
ACAD
1010
0.0
1020
0.0
1030
0.0
  0
LINE
  5
407E6
330
2
100
AcDbEntity
  8
HATCH
100
AcDbLine
 10
7.919527817441093
 20
4.098464789460233
 30
0.0
 11
8.427708687899247
 21
4.606645659918389
 31
0.0
1001
ACAD
1010
0.0
1020
0.0
1030
0.0
  0
LINE
  5
407E7
330
2
100
AcDbEntity
  8
HATCH
100
AcDbLine
 10
8.060949173678402
 20
4.098464789460233
 30
0.0
 11
8.514655440545647
 21
4.552171056327478
 31
0.0
1001
ACAD
1010
0.0
1020
0.0
1030
0.0
  0
LINE
  5
407E8
330
2
100
AcDbEntity
  8
HATCH
100
AcDbLine
 10
8.202370529915713
 20
4.098464789460233
 30
0.0
 11
8.578811322028839
 21
4.47490558157336
 31
0.0
1001
ACAD
1010
0.0
1020
0.0
1030
0.0
  0
LINE
  5
407E9
330
2
100
AcDbEntity
  8
HATCH
100
AcDbLine
 10
8.343791886153022
 20
4.098464789460233
 30
0.0
 11
8.628925434214506
 21
4.383598337521719
 31
0.0
1001
ACAD
1010
0.0
1020
0.0
1030
0.0
  0
LINE
  5
407EA
330
2
100
AcDbEntity
  8
HATCH
100
AcDbLine
 10
8.485213242390331
 20
4.098464789460233
 30
0.0
 11
8.670289771143091
 21
4.283541318212993
 31
0.0
1001
ACAD
1010
0.0
1020
0.0
1030
0.0
  0
LINE
  5
407EB
330
2
100
AcDbEntity
  8
HATCH
100
AcDbLine
 10
8.626634598627639
 20
4.098464789460233
 30
0.0
 11
8.706636457413706
 21
4.178466648246303
 31
0.0
1001
ACAD
1010
0.0
1020
0.0
1030
0.0
  0
LINE
  5
407EC
330
2
100
AcDbEntity
  8
HATCH
 62
     1
100
AcDbLine
 10
7.114186542706107
 20
3.603663588491156
 30
0.0
 11
7.090082007342862
 21
3.632390255108118
 31
0.0
1001
ACAD
1010
0.0
1020
0.0
1030
0.0
  0
LINE
  5
407ED
330
2
100
AcDbEntity
  8
HATCH
 62
     1
100
AcDbLine
 10
7.472816634006486
 20
3.635039655982453
 30
0.0
 11
7.448712098643238
 21
3.663766322599415
 31
0.0
1001
ACAD
1010
0.0
1020
0.0
1030
0.0
  0
LINE
  5
407EE
330
2
100
AcDbEntity
  8
HATCH
 62
     1
100
AcDbLine
 10
7.183562209647543
 20
3.979759655385993
 30
0.0
 11
7.159457674284295
 21
4.008486322002955
 31
0.0
1001
ACAD
1010
0.0
1020
0.0
1030
0.0
  0
LINE
  5
407EF
330
2
100
AcDbEntity
  8
HATCH
 62
     1
100
AcDbLine
 10
7.831446725306862
 20
3.666415723473752
 30
0.0
 11
7.807342189943617
 21
3.695142390090714
 31
0.0
1001
ACAD
1010
0.0
1020
0.0
1030
0.0
  0
LINE
  5
407F0
330
2
100
AcDbEntity
  8
HATCH
 62
     1
100
AcDbLine
 10
7.542192300947919
 20
4.011135722877291
 30
0.0
 11
7.518087765584674
 21
4.039862389494254
 31
0.0
1001
ACAD
1010
0.0
1020
0.0
1030
0.0
  0
LINE
  5
407F1
330
2
100
AcDbEntity
  8
HATCH
 62
     1
100
AcDbLine
 10
8.190076816607236
 20
3.697791790965048
 30
0.0
 11
8.165972281243991
 21
3.726518457582011
 31
0.0
1001
ACAD
1010
0.0
1020
0.0
1030
0.0
  0
LINE
  5
407F2
330
2
100
AcDbEntity
  8
HATCH
 62
     1
100
AcDbLine
 10
7.900822392248294
 20
4.042511790368589
 30
0.0
 11
7.876717856885049
 21
4.071238456985549
 31
0.0
1001
ACAD
1010
0.0
1020
0.0
1030
0.0
  0
LINE
  5
407F3
330
2
100
AcDbEntity
  8
HATCH
 62
     1
100
AcDbLine
 10
8.548706907907616
 20
3.729167858456346
 30
0.0
 11
8.524602372544372
 21
3.757894525073308
 31
0.0
1001
ACAD
1010
0.0
1020
0.0
1030
0.0
  0
LINE
  5
407F4
330
2
100
AcDbEntity
  8
HATCH
 62
     1
100
AcDbLine
 10
8.259452483548672
 20
4.073887857859887
 30
0.0
 11
8.238829989307355
 21
4.098464789460233
 31
0.0
1001
ACAD
1010
0.0
1020
0.0
1030
0.0
  0
LINE
  5
407F5
330
2
100
AcDbEntity
  8
HATCH
 62
     1
100
AcDbLine
 10
8.548706906258869
 20
3.729167859291024
 30
0.0
 11
8.518821065316116
 21
3.726553187008593
 31
0.0
1001
ACAD
1010
0.0
1020
0.0
1030
0.0
  0
LINE
  5
407F6
330
2
100
AcDbEntity
  8
HATCH
 62
     1
100
AcDbLine
 10
8.19007681494584
 20
3.697791791901866
 30
0.0
 11
8.160190974003088
 21
3.695177119619438
 31
0.0
1001
ACAD
1010
0.0
1020
0.0
1030
0.0
  0
LINE
  5
407F7
330
2
100
AcDbEntity
  8
HATCH
 62
     1
100
AcDbLine
 10
7.831446723632812
 20
3.66641572451271
 30
0.0
 11
7.801560882690061
 21
3.663801052230281
 31
0.0
1001
ACAD
1010
0.0
1020
0.0
1030
0.0
  0
LINE
  5
407F8
330
2
100
AcDbEntity
  8
HATCH
 62
     1
100
AcDbLine
 10
7.472816632319785
 20
3.635039657123553
 30
0.0
 11
7.442930791377031
 21
3.632424984841123
 31
0.0
1001
ACAD
1010
0.0
1020
0.0
1030
0.0
  0
LINE
  5
407F9
330
2
100
AcDbEntity
  8
HATCH
 62
     1
100
AcDbLine
 10
7.114186541006758
 20
3.603663589734396
 30
0.0
 11
7.084300700064004
 21
3.601048917451966
 31
0.0
1001
ACAD
1010
0.0
1020
0.0
1030
0.0
  0
LINE
  5
407FA
330
2
100
AcDbEntity
  8
HATCH
 62
     1
100
AcDbLine
 10
8.259452481752342
 20
4.073887858751873
 30
0.0
 11
8.22956664080959
 21
4.071273186469443
 31
0.0
1001
ACAD
1010
0.0
1020
0.0
1030
0.0
  0
LINE
  5
407FB
330
2
100
AcDbEntity
  8
HATCH
 62
     1
100
AcDbLine
 10
7.900822390439313
 20
4.042511791362715
 30
0.0
 11
7.870936549496562
 21
4.039897119080285
 31
0.0
1001
ACAD
1010
0.0
1020
0.0
1030
0.0
  0
LINE
  5
407FC
330
2
100
AcDbEntity
  8
HATCH
 62
     1
100
AcDbLine
 10
7.542192299126286
 20
4.011135723973557
 30
0.0
 11
7.512306458183534
 21
4.008521051691127
 31
0.0
1001
ACAD
1010
0.0
1020
0.0
1030
0.0
  0
LINE
  5
407FD
330
2
100
AcDbEntity
  8
HATCH
 62
     1
100
AcDbLine
 10
7.183562207813258
 20
3.979759656584401
 30
0.0
 11
7.153676366870505
 21
3.977144984301972
 31
0.0
1001
ACAD
1010
0.0
1020
0.0
1030
0.0
  0
LINE
  5
407FE
330
2
100
AcDbEntity
  8
HATCH
 62
     1
100
AcDbLine
 10
7.084297935287754
 20
3.601044716669458
 30
0.0
 11
7.090079216213134
 21
3.63238605911312
 31
0.0
1001
ACAD
1010
0.0
1020
0.0
1030
0.0
  0
LINE
  5
407FF
330
2
100
AcDbEntity
  8
HATCH
 62
     1
100
AcDbLine
 10
7.153673308387722
 20
3.9771408368109
 30
0.0
 11
7.159454589313102
 21
4.008482179254563
 31
0.0
1001
ACAD
1010
0.0
1020
0.0
1030
0.0
  0
LINE
  5
40800
330
2
100
AcDbEntity
  8
HATCH
 62
     1
100
AcDbLine
 10
7.442927999244733
 20
3.632421065780423
 30
0.0
 11
7.448709280170112
 21
3.663762408224084
 31
0.0
1001
ACAD
1010
0.0
1020
0.0
1030
0.0
  0
LINE
  5
40801
330
2
100
AcDbEntity
  8
HATCH
 62
     1
100
AcDbLine
 10
7.512303372344701
 20
4.008517185921864
 30
0.0
 11
7.518084653270079
 21
4.039858528365527
 31
0.0
1001
ACAD
1010
0.0
1020
0.0
1030
0.0
  0
LINE
  5
40802
330
2
100
AcDbEntity
  8
HATCH
 62
     1
100
AcDbLine
 10
7.801558063201711
 20
3.663797414891388
 30
0.0
 11
7.807339344127091
 21
3.695138757335049
 31
0.0
1001
ACAD
1010
0.0
1020
0.0
1030
0.0
  0
LINE
  5
40803
330
2
100
AcDbEntity
  8
HATCH
 62
     1
100
AcDbLine
 10
7.870933436301677
 20
4.039893535032828
 30
0.0
 11
7.876714717227057
 21
4.071234877476491
 31
0.0
1001
ACAD
1010
0.0
1020
0.0
1030
0.0
  0
LINE
  5
40804
330
2
100
AcDbEntity
  8
HATCH
 62
     1
100
AcDbLine
 10
8.160188127158686
 20
3.695173764002352
 30
0.0
 11
8.165969408084066
 21
3.726515106446015
 31
0.0
1001
ACAD
1010
0.0
1020
0.0
1030
0.0
  0
LINE
  5
40805
330
2
100
AcDbEntity
  8
HATCH
 62
     1
100
AcDbLine
 10
8.229563500258656
 20
4.071269884143793
 30
0.0
 11
8.234579921863954
 21
4.098464789460233
 31
0.0
1001
ACAD
1010
0.0
1020
0.0
1030
0.0
  0
LINE
  5
40806
330
2
100
AcDbEntity
  8
HATCH
 62
     1
100
AcDbLine
 10
8.518818191115665
 20
3.726550113113316
 30
0.0
 11
8.524599472041044
 21
3.757891455556976
 31
0.0
1001
ACAD
1010
0.0
1020
0.0
1030
0.0
  0
LINE
  5
40807
330
2
100
AcDbEntity
  8
HATCH
 62
     1
100
AcDbLine
 10
7.108256404820259
 20
3.748195881332933
 30
0.0
 11
7.069312157104655
 21
3.788784156362376
 31
0.0
1001
ACAD
1010
0.0
1020
0.0
1030
0.0
  0
LINE
  5
40808
330
2
100
AcDbEntity
  8
HATCH
 62
     1
100
AcDbLine
 10
7.641876929133081
 20
3.830955388497443
 30
0.0
 11
7.602932681417477
 21
3.871543663526886
 31
0.0
1001
ACAD
1010
0.0
1020
0.0
1030
0.0
  0
LINE
  5
40809
330
2
100
AcDbEntity
  8
HATCH
 62
     1
100
AcDbLine
 10
8.175497453445903
 20
3.913714895661951
 30
0.0
 11
8.136553205730301
 21
3.954303170691392
 31
0.0
1001
ACAD
1010
0.0
1020
0.0
1030
0.0
  0
LINE
  5
4080A
330
2
100
AcDbEntity
  8
HATCH
 62
     1
100
AcDbLine
 10
8.709117977758726
 20
3.996474402826461
 30
0.0
 11
8.670173730043121
 21
4.037062677855904
 31
0.0
1001
ACAD
1010
0.0
1020
0.0
1030
0.0
  0
LINE
  5
4080B
330
2
100
AcDbEntity
  8
HATCH
 62
     1
100
AcDbLine
 10
7.063785214162956
 20
3.741295308659399
 30
0.0
 11
7.069309306396168
 21
3.788780213606758
 31
0.0
1001
ACAD
1010
0.0
1020
0.0
1030
0.0
  0
LINE
  5
4080C
330
2
100
AcDbEntity
  8
HATCH
 62
     1
100
AcDbLine
 10
7.597405664029278
 20
3.824055149140188
 30
0.0
 11
7.60292975626249
 21
3.871540054087548
 31
0.0
1001
ACAD
1010
0.0
1020
0.0
1030
0.0
  0
LINE
  5
4080D
330
2
100
AcDbEntity
  8
HATCH
 62
     1
100
AcDbLine
 10
8.131026113895602
 20
3.906814989620978
 30
0.0
 11
8.136550206128813
 21
3.954299894568337
 31
0.0
1001
ACAD
1010
0.0
1020
0.0
1030
0.0
  0
LINE
  5
4080E
330
2
100
AcDbEntity
  8
HATCH
 62
     1
100
AcDbLine
 10
8.664646563761923
 20
3.989574830101767
 30
0.0
 11
8.670170655995136
 21
4.037059735049124
 31
0.0
1001
ACAD
1010
0.0
1020
0.0
1030
0.0
  0
LINE
  5
4080F
330
2
100
AcDbEntity
  8
HATCH
 62
     1
100
AcDbLine
 10
8.709117977922231
 20
3.996474403701298
 30
0.0
 11
8.664649600893735
 21
3.989577778116888
 31
0.0
1001
ACAD
1010
0.0
1020
0.0
1030
0.0
  0
LINE
  5
40810
330
2
100
AcDbEntity
  8
HATCH
 62
     1
100
AcDbLine
 10
8.175497453580277
 20
3.913714896688397
 30
0.0
 11
8.131029076551779
 21
3.906818271103988
 31
0.0
1001
ACAD
1010
0.0
1020
0.0
1030
0.0
  0
LINE
  5
40811
330
2
100
AcDbEntity
  8
HATCH
 62
     1
100
AcDbLine
 10
7.641876929238324
 20
3.830955389675496
 30
0.0
 11
7.597408552209826
 21
3.824058764091088
 31
0.0
1001
ACAD
1010
0.0
1020
0.0
1030
0.0
  0
LINE
  5
40812
330
2
100
AcDbEntity
  8
HATCH
 62
     1
100
AcDbLine
 10
7.108256404896371
 20
3.748195882662595
 30
0.0
 11
7.063788027867874
 21
3.741299257078186
 31
0.0
1001
ACAD
1010
0.0
1020
0.0
1030
0.0
  0
LINE
  5
40813
330
2
100
AcDbEntity
  8
HATCH
 62
     1
100
AcDbLine
 10
7.16825431797304
 20
3.661796463389508
 30
0.0
 11
7.133245051979393
 21
3.675235261497458
 31
0.0
1001
ACAD
1010
0.0
1020
0.0
1030
0.0
  0
LINE
  5
40814
330
2
100
AcDbEntity
  8
HATCH
 62
     1
100
AcDbLine
 10
7.886819035956009
 20
3.701840331426792
 30
0.0
 11
7.851809769962365
 21
3.715279129534741
 31
0.0
1001
ACAD
1010
0.0
1020
0.0
1030
0.0
  0
LINE
  5
40815
330
2
100
AcDbEntity
  8
HATCH
 62
     1
100
AcDbLine
 10
7.466707844032268
 20
3.863105908722178
 30
0.0
 11
7.431698578038622
 21
3.876544706830127
 31
0.0
1001
ACAD
1010
0.0
1020
0.0
1030
0.0
  0
LINE
  5
40816
330
2
100
AcDbEntity
  8
HATCH
 62
     1
100
AcDbLine
 10
7.046596652108527
 20
4.024371486017562
 30
0.0
 11
7.011587386114881
 21
4.037810284125511
 31
0.0
1001
ACAD
1010
0.0
1020
0.0
1030
0.0
  0
LINE
  5
40817
330
2
100
AcDbEntity
  8
HATCH
 62
     1
100
AcDbLine
 10
8.605383753938982
 20
3.741884199464076
 30
0.0
 11
8.570374487945336
 21
3.755322997572026
 31
0.0
1001
ACAD
1010
0.0
1020
0.0
1030
0.0
  0
LINE
  5
40818
330
2
100
AcDbEntity
  8
HATCH
 62
     1
100
AcDbLine
 10
8.18527256201524
 20
3.903149776759461
 30
0.0
 11
8.150263296021595
 21
3.916588574867411
 31
0.0
1001
ACAD
1010
0.0
1020
0.0
1030
0.0
  0
LINE
  5
40819
330
2
100
AcDbEntity
  8
HATCH
 62
     1
100
AcDbLine
 10
7.765161370091498
 20
4.064415354054847
 30
0.0
 11
7.730152104097854
 21
4.077854152162796
 31
0.0
1001
ACAD
1010
0.0
1020
0.0
1030
0.0
  0
LINE
  5
4081A
330
2
100
AcDbEntity
  8
HATCH
 62
     1
100
AcDbLine
 10
8.605383752166961
 20
3.741884198581693
 30
0.0
 11
8.580512624990308
 21
3.725108411477571
 31
0.0
1001
ACAD
1010
0.0
1020
0.0
1030
0.0
  0
LINE
  5
4081B
330
2
100
AcDbEntity
  8
HATCH
 62
     1
100
AcDbLine
 10
8.474838975821047
 20
4.098464789460233
 30
0.0
 11
8.458854959029517
 21
4.087683434000995
 31
0.0
1001
ACAD
1010
0.0
1020
0.0
1030
0.0
  0
LINE
  5
4081C
330
2
100
AcDbEntity
  8
HATCH
 62
     1
100
AcDbLine
 10
8.185272560086353
 20
3.903149775855649
 30
0.0
 11
8.160401432909701
 21
3.886373988751526
 31
0.0
1001
ACAD
1010
0.0
1020
0.0
1030
0.0
  0
LINE
  5
4081D
330
2
100
AcDbEntity
  8
HATCH
 62
     1
100
AcDbLine
 10
7.886819033966536
 20
3.70184033060618
 30
0.0
 11
7.861947906789888
 21
3.685064543502058
 31
0.0
1001
ACAD
1010
0.0
1020
0.0
1030
0.0
  0
LINE
  5
4081E
330
2
100
AcDbEntity
  8
HATCH
 62
     1
100
AcDbLine
 10
7.76516136800575
 20
4.064415353129607
 30
0.0
 11
7.740290240829097
 21
4.047639566025486
 31
0.0
1001
ACAD
1010
0.0
1020
0.0
1030
0.0
  0
LINE
  5
4081F
330
2
100
AcDbEntity
  8
HATCH
 62
     1
100
AcDbLine
 10
7.466707841885933
 20
3.863105907880138
 30
0.0
 11
7.441836714709282
 21
3.846330120776017
 31
0.0
1001
ACAD
1010
0.0
1020
0.0
1030
0.0
  0
LINE
  5
40820
330
2
100
AcDbEntity
  8
HATCH
 62
     1
100
AcDbLine
 10
7.168254315766119
 20
3.661796462630671
 30
0.0
 11
7.143383188589467
 21
3.645020675526548
 31
0.0
1001
ACAD
1010
0.0
1020
0.0
1030
0.0
  0
LINE
  5
40821
330
2
100
AcDbEntity
  8
HATCH
 62
     1
100
AcDbLine
 10
7.046596649805326
 20
4.024371485154098
 30
0.0
 11
7.021725522628674
 21
4.007595698049976
 31
0.0
1001
ACAD
1010
0.0
1020
0.0
1030
0.0
  0
LINE
  5
40822
330
2
100
AcDbEntity
  8
HATCH
 62
     1
100
AcDbLine
 10
7.143380441365975
 20
3.645016562611801
 30
0.0
 11
7.133242279267697
 21
3.675231138971203
 31
0.0
1001
ACAD
1010
0.0
1020
0.0
1030
0.0
  0
LINE
  5
40823
330
2
100
AcDbEntity
  8
HATCH
 62
     1
100
AcDbLine
 10
7.021722492687461
 20
4.007591489353215
 30
0.0
 11
7.011584330589183
 21
4.037806065712616
 31
0.0
1001
ACAD
1010
0.0
1020
0.0
1030
0.0
  0
LINE
  5
40824
330
2
100
AcDbEntity
  8
HATCH
 62
     1
100
AcDbLine
 10
7.441833806978206
 20
3.846326240998239
 30
0.0
 11
7.43169564487993
 21
3.876540817357641
 31
0.0
1001
ACAD
1010
0.0
1020
0.0
1030
0.0
  0
LINE
  5
40825
330
2
100
AcDbEntity
  8
HATCH
 62
     1
100
AcDbLine
 10
7.861945121268951
 20
3.685060992643261
 30
0.0
 11
7.851806959170675
 21
3.715275569002663
 31
0.0
1001
ACAD
1010
0.0
1020
0.0
1030
0.0
  0
LINE
  5
40826
330
2
100
AcDbEntity
  8
HATCH
 62
     1
100
AcDbLine
 10
7.740287172590436
 20
4.047635919384674
 30
0.0
 11
7.730149010492161
 21
4.077850495744076
 31
0.0
1001
ACAD
1010
0.0
1020
0.0
1030
0.0
  0
LINE
  5
40827
330
2
100
AcDbEntity
  8
HATCH
 62
     1
100
AcDbLine
 10
8.160398486881183
 20
3.886370671029698
 30
0.0
 11
8.150260324782909
 21
3.9165852473891
 31
0.0
1001
ACAD
1010
0.0
1020
0.0
1030
0.0
  0
LINE
  5
40828
330
2
100
AcDbEntity
  8
HATCH
 62
     1
100
AcDbLine
 10
8.580509801171928
 20
3.725105422674723
 30
0.0
 11
8.570371639073652
 21
3.755319999034125
 31
0.0
1001
ACAD
1010
0.0
1020
0.0
1030
0.0
  0
LINE
  5
40829
330
2
100
AcDbEntity
  8
HATCH
 62
     1
100
AcDbLine
 10
8.458851852493419
 20
4.087680349416135
 30
0.0
 11
8.455233254635029
 21
4.098464789460234
 31
0.0
1001
ACAD
1010
0.0
1020
0.0
1030
0.0
  0
LINE
  5
40877
330
2
100
AcDbEntity
  8
HATCH
100
AcDbLine
 10
4.629546049179634
 20
3.568885877399813
 30
0.0
 11
4.659124961240054
 21
3.598464789460233
 31
0.0
1001
ACAD
1010
0.0
1020
0.0
1030
0.0
  0
LINE
  5
40878
330
2
100
AcDbEntity
  8
HATCH
100
AcDbLine
 10
4.672550182221412
 20
3.56769583661743
 30
0.0
 11
4.703319135064215
 21
3.598464789460233
 31
0.0
1001
ACAD
1010
0.0
1020
0.0
1030
0.0
  0
LINE
  5
40879
330
2
100
AcDbEntity
  8
HATCH
100
AcDbLine
 10
4.715902966544386
 20
3.566854447116246
 30
0.0
 11
4.747513308888374
 21
3.598464789460233
 31
0.0
1001
ACAD
1010
0.0
1020
0.0
1030
0.0
  0
LINE
  5
4087A
330
2
100
AcDbEntity
  8
HATCH
100
AcDbLine
 10
4.75925575086735
 20
3.566013057615053
 30
0.0
 11
4.791707482712533
 21
3.598464789460233
 31
0.0
1001
ACAD
1010
0.0
1020
0.0
1030
0.0
  0
LINE
  5
4087B
330
2
100
AcDbEntity
  8
HATCH
100
AcDbLine
 10
4.802608535190326
 20
3.565171668113868
 30
0.0
 11
4.835901656536691
 21
3.598464789460233
 31
0.0
1001
ACAD
1010
0.0
1020
0.0
1030
0.0
  0
LINE
  5
4087C
330
2
100
AcDbEntity
  8
HATCH
100
AcDbLine
 10
4.854423865774768
 20
3.57279282487415
 30
0.0
 11
4.880095830360851
 21
3.598464789460233
 31
0.0
1001
ACAD
1010
0.0
1020
0.0
1030
0.0
  0
LINE
  5
4087D
330
2
100
AcDbEntity
  8
HATCH
100
AcDbLine
 10
4.889314103836269
 20
3.56348888911149
 30
0.0
 11
4.924290004185012
 21
3.598464789460233
 31
0.0
1001
ACAD
1010
0.0
1020
0.0
1030
0.0
  0
LINE
  5
4087E
330
2
100
AcDbEntity
  8
HATCH
100
AcDbLine
 10
4.937775387206933
 20
3.567755998657995
 30
0.0
 11
4.968484178009171
 21
3.598464789460233
 31
0.0
1001
ACAD
1010
0.0
1020
0.0
1030
0.0
  0
LINE
  5
4087F
330
2
100
AcDbEntity
  8
HATCH
100
AcDbLine
 10
4.976019672482209
 20
3.561806110109113
 30
0.0
 11
5.012678351833328
 21
3.598464789460233
 31
0.0
1001
ACAD
1010
0.0
1020
0.0
1030
0.0
  0
LINE
  5
40880
330
2
100
AcDbEntity
  8
HATCH
100
AcDbLine
 10
5.021126908639081
 20
3.562719172441826
 30
0.0
 11
5.056872525657488
 21
3.598464789460233
 31
0.0
1001
ACAD
1010
0.0
1020
0.0
1030
0.0
  0
LINE
  5
40881
330
2
100
AcDbEntity
  8
HATCH
100
AcDbLine
 10
5.062725241128143
 20
3.560123331106728
 30
0.0
 11
5.101066699481648
 21
3.598464789460233
 31
0.0
1001
ACAD
1010
0.0
1020
0.0
1030
0.0
  0
LINE
  5
40882
330
2
100
AcDbEntity
  8
HATCH
100
AcDbLine
 10
5.106078025451116
 20
3.559281941605544
 30
0.0
 11
5.145260873305806
 21
3.598464789460233
 31
0.0
1001
ACAD
1010
0.0
1020
0.0
1030
0.0
  0
LINE
  5
40883
330
2
100
AcDbEntity
  8
HATCH
100
AcDbLine
 10
5.149430809774083
 20
3.558440552104348
 30
0.0
 11
5.189455047129966
 21
3.598464789460233
 31
0.0
1001
ACAD
1010
0.0
1020
0.0
1030
0.0
  0
LINE
  5
40884
330
2
100
AcDbEntity
  8
HATCH
100
AcDbLine
 10
5.192783594097059
 20
3.557599162603164
 30
0.0
 11
5.233649220954124
 21
3.598464789460233
 31
0.0
1001
ACAD
1010
0.0
1020
0.0
1030
0.0
  0
LINE
  5
40885
330
2
100
AcDbEntity
  8
HATCH
100
AcDbLine
 10
5.236136378420021
 20
3.556757773101971
 30
0.0
 11
5.277843394778284
 21
3.598464789460233
 31
0.0
1001
ACAD
1010
0.0
1020
0.0
1030
0.0
  0
LINE
  5
40886
330
2
100
AcDbEntity
  8
HATCH
100
AcDbLine
 10
5.279489162742994
 20
3.555916383600783
 30
0.0
 11
5.322037568602443
 21
3.598464789460233
 31
0.0
1001
ACAD
1010
0.0
1020
0.0
1030
0.0
  0
LINE
  5
40887
330
2
100
AcDbEntity
  8
HATCH
100
AcDbLine
 10
5.493075259166912
 20
3.769502480024703
 30
0.0
 11
5.497037568602441
 21
3.773464789460231
 31
0.0
1001
ACAD
1010
0.0
1020
0.0
1030
0.0
  0
LINE
  5
40888
330
2
100
AcDbEntity
  8
HATCH
100
AcDbLine
 10
5.322841947065971
 20
3.555074994099602
 30
0.0
 11
5.366231742426601
 21
3.598464789460233
 31
0.0
1001
ACAD
1010
0.0
1020
0.0
1030
0.0
  0
LINE
  5
40889
330
2
100
AcDbEntity
  8
HATCH
100
AcDbLine
 10
5.49307525916691
 20
3.725308306200541
 30
0.0
 11
5.541231742426599
 21
3.773464789460231
 31
0.0
1001
ACAD
1010
0.0
1020
0.0
1030
0.0
  0
LINE
  5
4088A
330
2
100
AcDbEntity
  8
HATCH
100
AcDbLine
 10
5.366194731388936
 20
3.554233604598406
 30
0.0
 11
5.410425916250763
 21
3.598464789460233
 31
0.0
1001
ACAD
1010
0.0
1020
0.0
1030
0.0
  0
LINE
  5
4088B
330
2
100
AcDbEntity
  8
HATCH
100
AcDbLine
 10
5.493075259166905
 20
3.681114132376378
 30
0.0
 11
5.585425916250759
 21
3.773464789460231
 31
0.0
1001
ACAD
1010
0.0
1020
0.0
1030
0.0
  0
LINE
  5
4088C
330
2
100
AcDbEntity
  8
HATCH
100
AcDbLine
 10
5.416216288469127
 20
3.560060987854441
 30
0.0
 11
5.45462009007492
 21
3.598464789460233
 31
0.0
1001
ACAD
1010
0.0
1020
0.0
1030
0.0
  0
LINE
  5
4088D
330
2
100
AcDbEntity
  8
HATCH
100
AcDbLine
 10
5.57962009007492
 20
3.723464789460233
 30
0.0
 11
5.629620090074919
 21
3.773464789460231
 31
0.0
1001
ACAD
1010
0.0
1020
0.0
1030
0.0
  0
LINE
  5
4088E
330
2
100
AcDbEntity
  8
HATCH
100
AcDbLine
 10
5.493075259166902
 20
3.636919958552215
 30
0.0
 11
5.543075259166895
 21
3.686919958552209
 31
0.0
1001
ACAD
1010
0.0
1020
0.0
1030
0.0
  0
LINE
  5
4088F
330
2
100
AcDbEntity
  8
HATCH
100
AcDbLine
 10
5.452900300034879
 20
3.552550825596031
 30
0.0
 11
5.543075259166895
 21
3.642725784728049
 31
0.0
1001
ACAD
1010
0.0
1020
0.0
1030
0.0
  0
LINE
  5
40890
330
2
100
AcDbEntity
  8
HATCH
100
AcDbLine
 10
5.62381426389908
 20
3.723464789460233
 30
0.0
 11
5.673814263899076
 21
3.773464789460229
 31
0.0
1001
ACAD
1010
0.0
1020
0.0
1030
0.0
  0
LINE
  5
40891
330
2
100
AcDbEntity
  8
HATCH
100
AcDbLine
 10
5.499567809901287
 20
3.555024161638281
 30
0.0
 11
5.543075259166895
 21
3.598531610903891
 31
0.0
1001
ACAD
1010
0.0
1020
0.0
1030
0.0
  0
LINE
  5
40892
330
2
100
AcDbEntity
  8
HATCH
100
AcDbLine
 10
5.668008437723239
 20
3.723464789460233
 30
0.0
 11
5.718008437723237
 21
3.773464789460231
 31
0.0
1001
ACAD
1010
0.0
1020
0.0
1030
0.0
  0
LINE
  5
40893
330
2
100
AcDbEntity
  8
HATCH
100
AcDbLine
 10
5.539605868680816
 20
3.550868046593651
 30
0.0
 11
5.587202611547398
 21
3.598464789460233
 31
0.0
1001
ACAD
1010
0.0
1020
0.0
1030
0.0
  0
LINE
  5
40894
330
2
100
AcDbEntity
  8
HATCH
100
AcDbLine
 10
5.687202611547401
 20
3.698464789460234
 30
0.0
 11
5.718075259166907
 21
3.729337437079741
 31
0.0
1001
ACAD
1010
0.0
1020
0.0
1030
0.0
  0
LINE
  5
40895
330
2
100
AcDbEntity
  8
HATCH
100
AcDbLine
 10
5.582958653003787
 20
3.550026657092462
 30
0.0
 11
5.631396785371558
 21
3.598464789460233
 31
0.0
1001
ACAD
1010
0.0
1020
0.0
1030
0.0
  0
LINE
  5
40896
330
2
100
AcDbEntity
  8
HATCH
100
AcDbLine
 10
5.626311437326759
 20
3.549185267591273
 30
0.0
 11
5.700590959195716
 21
3.623464789460231
 31
0.0
1001
ACAD
1010
0.0
1020
0.0
1030
0.0
  0
LINE
  5
40897
330
2
100
AcDbEntity
  8
HATCH
100
AcDbLine
 10
5.668295479869629
 20
3.546975136309986
 30
0.0
 11
5.718075259166909
 21
3.596754915607265
 31
0.0
1001
ACAD
1010
0.0
1020
0.0
1030
0.0
  0
LINE
  5
40898
330
2
100
AcDbEntity
  8
HATCH
100
AcDbLine
 10
5.689626004585324
 20
3.524111487201521
 30
0.0
 11
5.718075259166909
 21
3.552560741783107
 31
0.0
1001
ACAD
1010
0.0
1020
0.0
1030
0.0
  0
LINE
  5
40899
330
2
100
AcDbEntity
  8
HATCH
 62
     1
100
AcDbLine
 10
3.899058850549123
 20
3.729167858456346
 30
0.0
 11
3.923163385912368
 21
3.757894525073308
 31
0.0
1001
ACAD
1010
0.0
1020
0.0
1030
0.0
  0
LINE
  5
4089A
330
2
100
AcDbEntity
  8
HATCH
 62
     1
100
AcDbLine
 10
4.188313274908066
 20
4.073887857859887
 30
0.0
 11
4.208935769149387
 21
4.098464789460233
 31
0.0
1001
ACAD
1010
0.0
1020
0.0
1030
0.0
  0
LINE
  5
4089B
330
2
100
AcDbEntity
  8
HATCH
 62
     1
100
AcDbLine
 10
4.257688941849499
 20
3.697791790965048
 30
0.0
 11
4.281793477212746
 21
3.72651845758201
 31
0.0
1001
ACAD
1010
0.0
1020
0.0
1030
0.0
  0
LINE
  5
4089C
330
2
100
AcDbEntity
  8
HATCH
 62
     1
100
AcDbLine
 10
4.546943366208443
 20
4.042511790368587
 30
0.0
 11
4.571047901571688
 21
4.071238456985549
 31
0.0
1001
ACAD
1010
0.0
1020
0.0
1030
0.0
  0
LINE
  5
4089D
330
2
100
AcDbEntity
  8
HATCH
 62
     1
100
AcDbLine
 10
4.616319033149877
 20
3.666415723473751
 30
0.0
 11
4.640423568513122
 21
3.695142390090712
 31
0.0
1001
ACAD
1010
0.0
1020
0.0
1030
0.0
  0
LINE
  5
4089E
330
2
100
AcDbEntity
  8
HATCH
 62
     1
100
AcDbLine
 10
4.90557345750882
 20
4.01113572287729
 30
0.0
 11
4.929677992872066
 21
4.039862389494253
 31
0.0
1001
ACAD
1010
0.0
1020
0.0
1030
0.0
  0
LINE
  5
4089F
330
2
100
AcDbEntity
  8
HATCH
 62
     1
100
AcDbLine
 10
4.974949124450254
 20
3.635039655982453
 30
0.0
 11
4.999053659813498
 21
3.663766322599415
 31
0.0
1001
ACAD
1010
0.0
1020
0.0
1030
0.0
  0
LINE
  5
408A0
330
2
100
AcDbEntity
  8
HATCH
 62
     1
100
AcDbLine
 10
5.264203548809197
 20
3.979759655385993
 30
0.0
 11
5.288308084172443
 21
4.008486322002955
 31
0.0
1001
ACAD
1010
0.0
1020
0.0
1030
0.0
  0
LINE
  5
408A1
330
2
100
AcDbEntity
  8
HATCH
 62
     1
100
AcDbLine
 10
5.33357921575063
 20
3.603663588491156
 30
0.0
 11
5.357683751113875
 21
3.632390255108118
 31
0.0
1001
ACAD
1010
0.0
1020
0.0
1030
0.0
  0
LINE
  5
408A2
330
2
100
AcDbEntity
  8
HATCH
 62
     1
100
AcDbLine
 10
4.188313276704397
 20
4.073887858751873
 30
0.0
 11
4.218199117647149
 21
4.071273186469444
 31
0.0
1001
ACAD
1010
0.0
1020
0.0
1030
0.0
  0
LINE
  5
408A3
330
2
100
AcDbEntity
  8
HATCH
 62
     1
100
AcDbLine
 10
4.546943368017425
 20
4.042511791362716
 30
0.0
 11
4.576829208960176
 21
4.039897119080285
 31
0.0
1001
ACAD
1010
0.0
1020
0.0
1030
0.0
  0
LINE
  5
408A4
330
2
100
AcDbEntity
  8
HATCH
 62
     1
100
AcDbLine
 10
4.905573459330453
 20
4.011135723973558
 30
0.0
 11
4.935459300273205
 21
4.008521051691128
 31
0.0
1001
ACAD
1010
0.0
1020
0.0
1030
0.0
  0
LINE
  5
408A5
330
2
100
AcDbEntity
  8
HATCH
 62
     1
100
AcDbLine
 10
5.264203550643481
 20
3.979759656584401
 30
0.0
 11
5.294089391586233
 21
3.977144984301972
 31
0.0
1001
ACAD
1010
0.0
1020
0.0
1030
0.0
  0
LINE
  5
408A6
330
2
100
AcDbEntity
  8
HATCH
 62
     1
100
AcDbLine
 10
3.899058852197868
 20
3.729167859291024
 30
0.0
 11
3.928944693140621
 21
3.726553187008593
 31
0.0
1001
ACAD
1010
0.0
1020
0.0
1030
0.0
  0
LINE
  5
408A7
330
2
100
AcDbEntity
  8
HATCH
 62
     1
100
AcDbLine
 10
4.257688943510896
 20
3.697791791901866
 30
0.0
 11
4.287574784453648
 21
3.695177119619438
 31
0.0
1001
ACAD
1010
0.0
1020
0.0
1030
0.0
  0
LINE
  5
408A8
330
2
100
AcDbEntity
  8
HATCH
 62
     1
100
AcDbLine
 10
4.616319034823924
 20
3.66641572451271
 30
0.0
 11
4.646204875766676
 21
3.663801052230281
 31
0.0
1001
ACAD
1010
0.0
1020
0.0
1030
0.0
  0
LINE
  5
408A9
330
2
100
AcDbEntity
  8
HATCH
 62
     1
100
AcDbLine
 10
4.974949126136952
 20
3.635039657123553
 30
0.0
 11
5.004834967079704
 21
3.632424984841123
 31
0.0
1001
ACAD
1010
0.0
1020
0.0
1030
0.0
  0
LINE
  5
408AA
330
2
100
AcDbEntity
  8
HATCH
 62
     1
100
AcDbLine
 10
5.333579217449981
 20
3.603663589734396
 30
0.0
 11
5.363465058392733
 21
3.601048917451966
 31
0.0
1001
ACAD
1010
0.0
1020
0.0
1030
0.0
  0
LINE
  5
408AB
330
2
100
AcDbEntity
  8
HATCH
 62
     1
100
AcDbLine
 10
3.928947567341073
 20
3.726550113113316
 30
0.0
 11
3.923166286415693
 21
3.757891455556977
 31
0.0
1001
ACAD
1010
0.0
1020
0.0
1030
0.0
  0
LINE
  5
408AC
330
2
100
AcDbEntity
  8
HATCH
 62
     1
100
AcDbLine
 10
4.28757763129805
 20
3.695173764002351
 30
0.0
 11
4.281796350372671
 21
3.726515106446013
 31
0.0
1001
ACAD
1010
0.0
1020
0.0
1030
0.0
  0
LINE
  5
408AD
330
2
100
AcDbEntity
  8
HATCH
 62
     1
100
AcDbLine
 10
4.218202258198084
 20
4.071269884143792
 30
0.0
 11
4.213185836592786
 21
4.098464789460233
 31
0.0
1001
ACAD
1010
0.0
1020
0.0
1030
0.0
  0
LINE
  5
408AE
330
2
100
AcDbEntity
  8
HATCH
 62
     1
100
AcDbLine
 10
4.646207695255028
 20
3.663797414891388
 30
0.0
 11
4.640426414329648
 21
3.695138757335048
 31
0.0
1001
ACAD
1010
0.0
1020
0.0
1030
0.0
  0
LINE
  5
408AF
330
2
100
AcDbEntity
  8
HATCH
 62
     1
100
AcDbLine
 10
4.576832322155061
 20
4.039893535032827
 30
0.0
 11
4.571051041229681
 21
4.071234877476491
 31
0.0
1001
ACAD
1010
0.0
1020
0.0
1030
0.0
  0
LINE
  5
408B0
330
2
100
AcDbEntity
  8
HATCH
 62
     1
100
AcDbLine
 10
5.004837759212005
 20
3.632421065780423
 30
0.0
 11
4.999056478286625
 21
3.663762408224084
 31
0.0
1001
ACAD
1010
0.0
1020
0.0
1030
0.0
  0
LINE
  5
408B1
330
2
100
AcDbEntity
  8
HATCH
 62
     1
100
AcDbLine
 10
4.935462386112039
 20
4.008517185921864
 30
0.0
 11
4.929681105186658
 21
4.039858528365527
 31
0.0
1001
ACAD
1010
0.0
1020
0.0
1030
0.0
  0
LINE
  5
408B2
330
2
100
AcDbEntity
  8
HATCH
 62
     1
100
AcDbLine
 10
5.363467823168983
 20
3.601044716669458
 30
0.0
 11
5.357686542243603
 21
3.63238605911312
 31
0.0
1001
ACAD
1010
0.0
1020
0.0
1030
0.0
  0
LINE
  5
408B3
330
2
100
AcDbEntity
  8
HATCH
 62
     1
100
AcDbLine
 10
5.294092450069016
 20
3.9771408368109
 30
0.0
 11
5.288311169143637
 21
4.008482179254563
 31
0.0
1001
ACAD
1010
0.0
1020
0.0
1030
0.0
  0
LINE
  5
408B4
330
2
100
AcDbEntity
  8
HATCH
 62
     1
100
AcDbLine
 10
3.738647780698011
 20
3.996474402826461
 30
0.0
 11
3.777592028413616
 21
4.037062677855904
 31
0.0
1001
ACAD
1010
0.0
1020
0.0
1030
0.0
  0
LINE
  5
408B5
330
2
100
AcDbEntity
  8
HATCH
 62
     1
100
AcDbLine
 10
4.272268305010832
 20
3.913714895661951
 30
0.0
 11
4.311212552726438
 21
3.954303170691393
 31
0.0
1001
ACAD
1010
0.0
1020
0.0
1030
0.0
  0
LINE
  5
408B6
330
2
100
AcDbEntity
  8
HATCH
 62
     1
100
AcDbLine
 10
4.805888829323656
 20
3.830955388497443
 30
0.0
 11
4.844833077039259
 21
3.871543663526884
 31
0.0
1001
ACAD
1010
0.0
1020
0.0
1030
0.0
  0
LINE
  5
408B7
330
2
100
AcDbEntity
  8
HATCH
 62
     1
100
AcDbLine
 10
5.339509353636478
 20
3.748195881332933
 30
0.0
 11
5.378453601352082
 21
3.788784156362376
 31
0.0
1001
ACAD
1010
0.0
1020
0.0
1030
0.0
  0
LINE
  5
408B8
330
2
100
AcDbEntity
  8
HATCH
 62
     1
100
AcDbLine
 10
3.783119194694812
 20
3.989574830101767
 30
0.0
 11
3.777595102461602
 21
4.037059735049124
 31
0.0
1001
ACAD
1010
0.0
1020
0.0
1030
0.0
  0
LINE
  5
408B9
330
2
100
AcDbEntity
  8
HATCH
 62
     1
100
AcDbLine
 10
4.316739644561134
 20
3.906814989620978
 30
0.0
 11
4.311215552327922
 21
3.954299894568337
 31
0.0
1001
ACAD
1010
0.0
1020
0.0
1030
0.0
  0
LINE
  5
408BA
330
2
100
AcDbEntity
  8
HATCH
 62
     1
100
AcDbLine
 10
4.850360094427458
 20
3.824055149140188
 30
0.0
 11
4.844836002194246
 21
3.871540054087548
 31
0.0
1001
ACAD
1010
0.0
1020
0.0
1030
0.0
  0
LINE
  5
408BB
330
2
100
AcDbEntity
  8
HATCH
 62
     1
100
AcDbLine
 10
5.38398054429378
 20
3.741295308659399
 30
0.0
 11
5.378456452060568
 21
3.788780213606758
 31
0.0
1001
ACAD
1010
0.0
1020
0.0
1030
0.0
  0
LINE
  5
408BC
330
2
100
AcDbEntity
  8
HATCH
 62
     1
100
AcDbLine
 10
3.738647780534508
 20
3.9964744037013
 30
0.0
 11
3.783116157563005
 21
3.989577778116891
 31
0.0
1001
ACAD
1010
0.0
1020
0.0
1030
0.0
  0
LINE
  5
408BD
330
2
100
AcDbEntity
  8
HATCH
 62
     1
100
AcDbLine
 10
4.272268304876461
 20
3.913714896688398
 30
0.0
 11
4.316736681904957
 21
3.90681827110399
 31
0.0
1001
ACAD
1010
0.0
1020
0.0
1030
0.0
  0
LINE
  5
408BE
330
2
100
AcDbEntity
  8
HATCH
 62
     1
100
AcDbLine
 10
4.805888829218415
 20
3.830955389675498
 30
0.0
 11
4.85035720624691
 21
3.824058764091088
 31
0.0
1001
ACAD
1010
0.0
1020
0.0
1030
0.0
  0
LINE
  5
408BF
330
2
100
AcDbEntity
  8
HATCH
 62
     1
100
AcDbLine
 10
5.339509353560369
 20
3.748195882662596
 30
0.0
 11
5.383977730588865
 21
3.741299257078189
 31
0.0
1001
ACAD
1010
0.0
1020
0.0
1030
0.0
  0
LINE
  5
408C0
330
2
100
AcDbEntity
  8
HATCH
 62
     1
100
AcDbLine
 10
3.842382004517754
 20
3.741884199464076
 30
0.0
 11
3.8773912705114
 21
3.755322997572026
 31
0.0
1001
ACAD
1010
0.0
1020
0.0
1030
0.0
  0
LINE
  5
408C1
330
2
100
AcDbEntity
  8
HATCH
 62
     1
100
AcDbLine
 10
4.262493196441496
 20
3.903149776759461
 30
0.0
 11
4.297502462435141
 21
3.916588574867411
 31
0.0
1001
ACAD
1010
0.0
1020
0.0
1030
0.0
  0
LINE
  5
408C2
330
2
100
AcDbEntity
  8
HATCH
 62
     1
100
AcDbLine
 10
4.682604388365237
 20
4.064415354054847
 30
0.0
 11
4.717613654358881
 21
4.077854152162796
 31
0.0
1001
ACAD
1010
0.0
1020
0.0
1030
0.0
  0
LINE
  5
408C3
330
2
100
AcDbEntity
  8
HATCH
 62
     1
100
AcDbLine
 10
4.560946722500726
 20
3.701840331426792
 30
0.0
 11
4.595955988494372
 21
3.715279129534741
 31
0.0
1001
ACAD
1010
0.0
1020
0.0
1030
0.0
  0
LINE
  5
408C4
330
2
100
AcDbEntity
  8
HATCH
 62
     1
100
AcDbLine
 10
4.981057914424467
 20
3.863105908722178
 30
0.0
 11
5.016067180418113
 21
3.876544706830127
 31
0.0
1001
ACAD
1010
0.0
1020
0.0
1030
0.0
  0
LINE
  5
408C5
330
2
100
AcDbEntity
  8
HATCH
 62
     1
100
AcDbLine
 10
5.401169106348209
 20
4.024371486017562
 30
0.0
 11
5.436178372341855
 21
4.037810284125511
 31
0.0
1001
ACAD
1010
0.0
1020
0.0
1030
0.0
  0
LINE
  5
408C6
330
2
100
AcDbEntity
  8
HATCH
 62
     1
100
AcDbLine
 10
5.279511440483699
 20
3.661796463389508
 30
0.0
 11
5.314520706477344
 21
3.675235261497458
 31
0.0
1001
ACAD
1010
0.0
1020
0.0
1030
0.0
  0
LINE
  5
408C7
330
2
100
AcDbEntity
  8
HATCH
 62
     1
100
AcDbLine
 10
5.401169108651409
 20
4.024371485154095
 30
0.0
 11
5.426040235828061
 21
4.007595698049971
 31
0.0
1001
ACAD
1010
0.0
1020
0.0
1030
0.0
  0
LINE
  5
408C8
330
2
100
AcDbEntity
  8
HATCH
 62
     1
100
AcDbLine
 10
4.682604390450988
 20
4.064415353129605
 30
0.0
 11
4.707475517627639
 21
4.047639566025482
 31
0.0
1001
ACAD
1010
0.0
1020
0.0
1030
0.0
  0
LINE
  5
408C9
330
2
100
AcDbEntity
  8
HATCH
 62
     1
100
AcDbLine
 10
4.981057916570803
 20
3.863105907880136
 30
0.0
 11
5.005929043747456
 21
3.846330120776013
 31
0.0
1001
ACAD
1010
0.0
1020
0.0
1030
0.0
  0
LINE
  5
408CA
330
2
100
AcDbEntity
  8
HATCH
 62
     1
100
AcDbLine
 10
5.279511442690619
 20
3.661796462630667
 30
0.0
 11
5.304382569867271
 21
3.645020675526546
 31
0.0
1001
ACAD
1010
0.0
1020
0.0
1030
0.0
  0
LINE
  5
408CB
330
2
100
AcDbEntity
  8
HATCH
 62
     1
100
AcDbLine
 10
3.972926782635687
 20
4.098464789460233
 30
0.0
 11
3.988910799427218
 21
4.087683434000993
 31
0.0
1001
ACAD
1010
0.0
1020
0.0
1030
0.0
  0
LINE
  5
408CC
330
2
100
AcDbEntity
  8
HATCH
 62
     1
100
AcDbLine
 10
4.262493198370383
 20
3.903149775855647
 30
0.0
 11
4.287364325547033
 21
3.886373988751524
 31
0.0
1001
ACAD
1010
0.0
1020
0.0
1030
0.0
  0
LINE
  5
408CD
330
2
100
AcDbEntity
  8
HATCH
 62
     1
100
AcDbLine
 10
4.560946724490198
 20
3.701840330606178
 30
0.0
 11
4.585817851666849
 21
3.685064543502056
 31
0.0
1001
ACAD
1010
0.0
1020
0.0
1030
0.0
  0
LINE
  5
408CE
330
2
100
AcDbEntity
  8
HATCH
 62
     1
100
AcDbLine
 10
3.842382006289776
 20
3.74188419858169
 30
0.0
 11
3.867253133466426
 21
3.725108411477568
 31
0.0
1001
ACAD
1010
0.0
1020
0.0
1030
0.0
  0
LINE
  5
408CF
330
2
100
AcDbEntity
  8
HATCH
 62
     1
100
AcDbLine
 10
3.867255957284809
 20
3.725105422674723
 30
0.0
 11
3.877394119383086
 21
3.755319999034123
 31
0.0
1001
ACAD
1010
0.0
1020
0.0
1030
0.0
  0
LINE
  5
408D0
330
2
100
AcDbEntity
  8
HATCH
 62
     1
100
AcDbLine
 10
3.988913905963323
 20
4.087680349416135
 30
0.0
 11
3.992532503821711
 21
4.098464789460233
 31
0.0
1001
ACAD
1010
0.0
1020
0.0
1030
0.0
  0
LINE
  5
408D1
330
2
100
AcDbEntity
  8
HATCH
 62
     1
100
AcDbLine
 10
4.287367271575555
 20
3.886370671029698
 30
0.0
 11
4.297505433673832
 21
3.9165852473891
 31
0.0
1001
ACAD
1010
0.0
1020
0.0
1030
0.0
  0
LINE
  5
408D2
330
2
100
AcDbEntity
  8
HATCH
 62
     1
100
AcDbLine
 10
4.585820637187786
 20
3.685060992643261
 30
0.0
 11
4.595958799286063
 21
3.715275569002663
 31
0.0
1001
ACAD
1010
0.0
1020
0.0
1030
0.0
  0
LINE
  5
408D3
330
2
100
AcDbEntity
  8
HATCH
 62
     1
100
AcDbLine
 10
4.707478585866301
 20
4.047635919384674
 30
0.0
 11
4.717616747964576
 21
4.077850495744076
 31
0.0
1001
ACAD
1010
0.0
1020
0.0
1030
0.0
  0
LINE
  5
408D4
330
2
100
AcDbEntity
  8
HATCH
 62
     1
100
AcDbLine
 10
5.005931951478531
 20
3.846326240998239
 30
0.0
 11
5.016070113576808
 21
3.876540817357641
 31
0.0
1001
ACAD
1010
0.0
1020
0.0
1030
0.0
  0
LINE
  5
408D5
330
2
100
AcDbEntity
  8
HATCH
 62
     1
100
AcDbLine
 10
5.304385317090761
 20
3.645016562611801
 30
0.0
 11
5.314523479189039
 21
3.675231138971203
 31
0.0
1001
ACAD
1010
0.0
1020
0.0
1030
0.0
  0
LINE
  5
408D6
330
2
100
AcDbEntity
  8
HATCH
 62
     1
100
AcDbLine
 10
5.426043265769276
 20
4.007591489353215
 30
0.0
 11
5.436181427867553
 21
4.037806065712616
 31
0.0
1001
ACAD
1010
0.0
1020
0.0
1030
0.0
  0
LINE
  5
40924
330
2
100
AcDbEntity
  8
HATCH
100
AcDbLine
 10
3.821131159829098
 20
4.098464789460233
 30
0.0
 11
3.741129301043028
 21
4.178466648246303
 31
0.0
1001
ACAD
1010
0.0
1020
0.0
1030
0.0
  0
LINE
  5
40925
330
2
100
AcDbEntity
  8
HATCH
100
AcDbLine
 10
3.962552516066408
 20
4.098464789460233
 30
0.0
 11
3.777475987313648
 21
4.283541318212993
 31
0.0
1001
ACAD
1010
0.0
1020
0.0
1030
0.0
  0
LINE
  5
40926
330
2
100
AcDbEntity
  8
HATCH
100
AcDbLine
 10
4.103973872303718
 20
4.098464789460233
 30
0.0
 11
3.818840324242231
 21
4.383598337521719
 31
0.0
1001
ACAD
1010
0.0
1020
0.0
1030
0.0
  0
LINE
  5
40927
330
2
100
AcDbEntity
  8
HATCH
100
AcDbLine
 10
4.245395228541026
 20
4.098464789460233
 30
0.0
 11
3.8689544364279
 21
4.47490558157336
 31
0.0
1001
ACAD
1010
0.0
1020
0.0
1030
0.0
  0
LINE
  5
40928
330
2
100
AcDbEntity
  8
HATCH
100
AcDbLine
 10
4.386816584778336
 20
4.098464789460233
 30
0.0
 11
3.933110317911091
 21
4.552171056327478
 31
0.0
1001
ACAD
1010
0.0
1020
0.0
1030
0.0
  0
LINE
  5
40929
330
2
100
AcDbEntity
  8
HATCH
100
AcDbLine
 10
4.528237941015644
 20
4.098464789460233
 30
0.0
 11
4.02005707055749
 21
4.606645659918389
 31
0.0
1001
ACAD
1010
0.0
1020
0.0
1030
0.0
  0
LINE
  5
4092A
330
2
100
AcDbEntity
  8
HATCH
100
AcDbLine
 10
4.669659297252955
 20
4.098464789460233
 30
0.0
 11
4.144572102070507
 21
4.623551984642681
 31
0.0
1001
ACAD
1010
0.0
1020
0.0
1030
0.0
  0
LINE
  5
4092B
330
2
100
AcDbEntity
  8
HATCH
100
AcDbLine
 10
4.811080653490264
 20
4.098464789460233
 30
0.0
 11
4.292648144931386
 21
4.616897298019112
 31
0.0
1001
ACAD
1010
0.0
1020
0.0
1030
0.0
  0
LINE
  5
4092C
330
2
100
AcDbEntity
  8
HATCH
100
AcDbLine
 10
4.952502009727575
 20
4.098464789460233
 30
0.0
 11
4.414072991528054
 21
4.636893807659753
 31
0.0
1001
ACAD
1010
0.0
1020
0.0
1030
0.0
  0
LINE
  5
4092D
330
2
100
AcDbEntity
  8
HATCH
100
AcDbLine
 10
5.093923365964882
 20
4.098464789460233
 30
0.0
 11
5.088038172088921
 21
4.104349983336194
 31
0.0
1001
ACAD
1010
0.0
1020
0.0
1030
0.0
  0
LINE
  5
4092E
330
2
100
AcDbEntity
  8
HATCH
100
AcDbLine
 10
5.016248311084386
 20
4.176139844340731
 30
0.0
 11
4.494066171419338
 21
4.698321984005778
 31
0.0
1001
ACAD
1010
0.0
1020
0.0
1030
0.0
  0
LINE
  5
4092F
330
2
100
AcDbEntity
  8
HATCH
100
AcDbLine
 10
5.235344722202192
 20
4.098464789460233
 30
0.0
 11
5.091095563872995
 21
4.242713947789432
 31
0.0
1001
ACAD
1010
0.0
1020
0.0
1030
0.0
  0
LINE
  5
40930
330
2
100
AcDbEntity
  8
HATCH
100
AcDbLine
 10
5.043086328633727
 20
4.290723183028698
 30
0.0
 11
4.550597272633373
 21
4.783212239029053
 31
0.0
1001
ACAD
1010
0.0
1020
0.0
1030
0.0
  0
LINE
  5
40931
330
2
100
AcDbEntity
  8
HATCH
100
AcDbLine
 10
5.086958989203039
 20
4.246850522459386
 30
0.0
 11
5.082268702454449
 21
4.251540809207977
 31
0.0
1001
ACAD
1010
0.0
1020
0.0
1030
0.0
  0
LINE
  5
40932
330
2
100
AcDbEntity
  8
HATCH
100
AcDbLine
 10
5.376766078439502
 20
4.098464789460233
 30
0.0
 11
4.594596792947275
 21
4.88063407495246
 31
0.0
1001
ACAD
1010
0.0
1020
0.0
1030
0.0
  0
LINE
  5
40933
330
2
100
AcDbEntity
  8
HATCH
100
AcDbLine
 10
5.479435886313921
 20
4.137216337823126
 30
0.0
 11
4.63270734392876
 21
4.983944880208286
 31
0.0
1001
ACAD
1010
0.0
1020
0.0
1030
0.0
  0
LINE
  5
40934
330
2
100
AcDbEntity
  8
HATCH
100
AcDbLine
 10
5.479435886313921
 20
4.278637694060435
 30
0.0
 11
4.670244714486226
 21
5.08782886588813
 31
0.0
1001
ACAD
1010
0.0
1020
0.0
1030
0.0
  0
LINE
  5
40935
330
2
100
AcDbEntity
  8
HATCH
100
AcDbLine
 10
5.479435886313922
 20
4.420059050297743
 30
0.0
 11
4.712743228026655
 21
5.186751708585012
 31
0.0
1001
ACAD
1010
0.0
1020
0.0
1030
0.0
  0
LINE
  5
40936
330
2
100
AcDbEntity
  8
HATCH
100
AcDbLine
 10
5.479435886313921
 20
4.561480406535054
 30
0.0
 11
4.767931163344206
 21
5.272985129504768
 31
0.0
1001
ACAD
1010
0.0
1020
0.0
1030
0.0
  0
LINE
  5
40937
330
2
100
AcDbEntity
  8
HATCH
100
AcDbLine
 10
5.479435886313922
 20
4.702901762772362
 30
0.0
 11
4.84944767644782
 21
5.332889972638463
 31
0.0
1001
ACAD
1010
0.0
1020
0.0
1030
0.0
  0
LINE
  5
40938
330
2
100
AcDbEntity
  8
HATCH
100
AcDbLine
 10
5.479435886313922
 20
4.84432311900967
 30
0.0
 11
4.972883589302377
 21
5.350875416021216
 31
0.0
1001
ACAD
1010
0.0
1020
0.0
1030
0.0
  0
LINE
  5
40939
330
2
100
AcDbEntity
  8
HATCH
100
AcDbLine
 10
5.479435886313922
 20
4.985744475246981
 30
0.0
 11
5.151536391218113
 21
5.31364397034279
 31
0.0
1001
ACAD
1010
0.0
1020
0.0
1030
0.0
  0
LINE
  5
4093A
330
2
100
AcDbEntity
  8
HATCH
100
AcDbLine
 10
5.479435886313922
 20
5.12716583148429
 30
0.0
 11
5.387998396603248
 21
5.218603321194964
 31
0.0
1001
ACAD
1010
0.0
1020
0.0
1030
0.0
  0
LINE
  5
4093B
330
2
100
AcDbEntity
  8
HATCH
100
AcDbLine
 10
5.253075965238933
 20
3.566430893292408
 30
0.0
 11
5.262880039274477
 21
3.556238732956852
 31
0.0
  0
LINE
  5
4093C
330
2
100
AcDbEntity
  8
HATCH
100
AcDbLine
 10
5.262880039274477
 20
3.556238732956852
 30
0.0
 11
5.322883804903368
 21
3.555074181723983
 31
0.0
  0
LINE
  5
4093D
330
2
100
AcDbEntity
  8
HATCH
100
AcDbLine
 10
5.322883804903368
 20
3.555074181723983
 30
0.0
 11
5.333075965238919
 21
3.564878255759519
 31
0.0
  0
LINE
  5
4093E
330
2
100
AcDbEntity
  8
HATCH
100
AcDbLine
 10
5.333075965238919
 20
3.564878255759519
 30
0.0
 11
5.342880039274477
 21
3.554686095423963
 31
0.0
  0
LINE
  5
4093F
330
2
100
AcDbEntity
  8
HATCH
100
AcDbLine
 10
5.342880039274477
 20
3.554686095423963
 30
0.0
 11
5.402883804903368
 21
3.553521544191095
 31
0.0
  0
LINE
  5
40940
330
2
100
AcDbEntity
  8
HATCH
100
AcDbLine
 10
5.402883804903368
 20
3.553521544191095
 30
0.0
 11
5.413075965238931
 21
3.563325618226631
 31
0.0
  0
LINE
  5
40941
330
2
100
AcDbEntity
  8
HATCH
100
AcDbLine
 10
5.413075965238931
 20
3.563325618226631
 30
0.0
 11
5.422880039274473
 21
3.553133457891075
 31
0.0
  0
LINE
  5
40942
330
2
100
AcDbEntity
  8
HATCH
100
AcDbLine
 10
5.422880039274473
 20
3.553133457891075
 30
0.0
 11
5.482883804903366
 21
3.551968906658205
 31
0.0
  0
LINE
  5
40943
330
2
100
AcDbEntity
  8
HATCH
100
AcDbLine
 10
5.482883804903366
 20
3.551968906658205
 30
0.0
 11
5.493075965238914
 21
3.561772980693741
 31
0.0
  0
LINE
  5
40944
330
2
100
AcDbEntity
  8
HATCH
100
AcDbLine
 10
5.493075965238914
 20
3.561772980693741
 30
0.0
 11
5.502880039274486
 21
3.551580820358185
 31
0.0
  0
LINE
  5
40945
330
2
100
AcDbEntity
  8
HATCH
100
AcDbLine
 10
5.502880039274486
 20
3.551580820358185
 30
0.0
 11
5.562883804903362
 21
3.55041626912531
 31
0.0
  0
LINE
  5
40946
330
2
100
AcDbEntity
  8
HATCH
100
AcDbLine
 10
5.562883804903362
 20
3.55041626912531
 30
0.0
 11
5.573075965238927
 21
3.560220343160852
 31
0.0
  0
LINE
  5
40947
330
2
100
AcDbEntity
  8
HATCH
100
AcDbLine
 10
5.573075965238927
 20
3.560220343160852
 30
0.0
 11
5.582880039274471
 21
3.550028182825297
 31
0.0
  0
LINE
  5
40948
330
2
100
AcDbEntity
  8
HATCH
100
AcDbLine
 10
5.582880039274471
 20
3.550028182825297
 30
0.0
 11
5.667671512224074
 21
3.548382552533166
 31
0.0
  0
ARC
  5
40949
330
2
100
AcDbEntity
  8
HATCH
100
AcDbCircle
 10
5.713687327933949
 20
3.56794130260969
 30
0.0
 40
0.0500000000000106
100
AcDbArc
 50
203.0276312026937
 51
275.0346754562716
  0
LINE
  5
4094A
330
2
100
AcDbEntity
  8
HATCH
100
AcDbLine
 10
5.718075259166909
 20
3.518134214163406
 30
0.0
 11
5.718075259166909
 21
3.623464789460231
 31
0.0
  0
LINE
  5
4094B
330
2
100
AcDbEntity
  8
HATCH
100
AcDbLine
 10
5.718075259166909
 20
3.623464789460231
 30
0.0
 11
5.668075259166897
 21
3.623464789460231
 31
0.0
  0
LINE
  5
4094C
330
2
100
AcDbEntity
  8
HATCH
100
AcDbLine
 10
5.668075259166897
 20
3.623464789460231
 30
0.0
 11
5.668075259166897
 21
3.598464789460233
 31
0.0
  0
LINE
  5
4094D
330
2
100
AcDbEntity
  8
HATCH
100
AcDbLine
 10
5.668075259166897
 20
3.598464789460233
 30
0.0
 11
5.543075259166895
 21
3.598464789460233
 31
0.0
  0
LINE
  5
4094E
330
2
100
AcDbEntity
  8
HATCH
100
AcDbLine
 10
5.543075259166895
 20
3.598464789460233
 30
0.0
 11
5.543075259166895
 21
3.723464789460233
 31
0.0
  0
LINE
  5
4094F
330
2
100
AcDbEntity
  8
HATCH
100
AcDbLine
 10
5.543075259166895
 20
3.723464789460233
 30
0.0
 11
5.668075259166897
 21
3.723464789460233
 31
0.0
  0
LINE
  5
40950
330
2
100
AcDbEntity
  8
HATCH
100
AcDbLine
 10
5.668075259166897
 20
3.723464789460233
 30
0.0
 11
5.668075259166897
 21
3.698464789460234
 31
0.0
  0
LINE
  5
40951
330
2
100
AcDbEntity
  8
HATCH
100
AcDbLine
 10
5.668075259166897
 20
3.698464789460234
 30
0.0
 11
5.718075259166909
 21
3.698464789460234
 31
0.0
  0
LINE
  5
40952
330
2
100
AcDbEntity
  8
HATCH
100
AcDbLine
 10
5.718075259166909
 20
3.698464789460234
 30
0.0
 11
5.718075259166909
 21
3.773464789460231
 31
0.0
  0
LINE
  5
40953
330
2
100
AcDbEntity
  8
HATCH
100
AcDbLine
 10
5.718075259166909
 20
3.773464789460231
 30
0.0
 11
5.493075259166913
 21
3.773464789460231
 31
0.0
  0
LINE
  5
40954
330
2
100
AcDbEntity
  8
HATCH
100
AcDbLine
 10
5.493075259166913
 20
3.773464789460231
 30
0.0
 11
5.493075259166899
 21
3.598464789460233
 31
0.0
  0
LINE
  5
40955
330
2
100
AcDbEntity
  8
HATCH
100
AcDbLine
 10
5.493075259166899
 20
3.598464789460233
 30
0.0
 11
4.633075259166901
 21
3.598464789460233
 31
0.0
  0
ARC
  5
40956
330
2
100
AcDbEntity
  8
HATCH
100
AcDbCircle
 10
4.633075259166901
 20
3.583464789460238
 30
0.0
 40
0.0149999999999957
100
AcDbArc
 50
90.00000000000676
 51
268.8881448646926
  0
LINE
  5
40957
330
2
100
AcDbEntity
  8
HATCH
100
AcDbLine
 10
4.632784194441896
 20
3.568467613681921
 30
0.0
 11
4.682883804903382
 21
3.567495281987095
 31
0.0
  0
LINE
  5
40958
330
2
100
AcDbEntity
  8
HATCH
100
AcDbLine
 10
4.682883804903382
 20
3.567495281987095
 30
0.0
 11
4.693075965238931
 21
3.577299356022638
 31
0.0
  0
LINE
  5
40959
330
2
100
AcDbEntity
  8
HATCH
100
AcDbLine
 10
4.693075965238931
 20
3.577299356022638
 30
0.0
 11
4.702880039274474
 21
3.567107195687088
 31
0.0
  0
LINE
  5
4095A
330
2
100
AcDbEntity
  8
HATCH
100
AcDbLine
 10
4.702880039274474
 20
3.567107195687088
 30
0.0
 11
4.762883804903367
 21
3.565942644454206
 31
0.0
  0
LINE
  5
4095B
330
2
100
AcDbEntity
  8
HATCH
100
AcDbLine
 10
4.762883804903367
 20
3.565942644454206
 30
0.0
 11
4.773075965238945
 21
3.57574671848975
 31
0.0
  0
LINE
  5
4095C
330
2
100
AcDbEntity
  8
HATCH
100
AcDbLine
 10
4.773075965238945
 20
3.57574671848975
 30
0.0
 11
4.782880039274488
 21
3.5655545581542
 31
0.0
  0
LINE
  5
4095D
330
2
100
AcDbEntity
  8
HATCH
100
AcDbLine
 10
4.782880039274488
 20
3.5655545581542
 30
0.0
 11
4.842883804903379
 21
3.564390006921318
 31
0.0
  0
LINE
  5
4095E
330
2
100
AcDbEntity
  8
HATCH
100
AcDbLine
 10
4.842883804903379
 20
3.564390006921318
 30
0.0
 11
4.853075965238928
 21
3.574194080956861
 31
0.0
  0
LINE
  5
4095F
330
2
100
AcDbEntity
  8
HATCH
100
AcDbLine
 10
4.853075965238928
 20
3.574194080956861
 30
0.0
 11
4.862880039274471
 21
3.56400192062131
 31
0.0
  0
LINE
  5
40960
330
2
100
AcDbEntity
  8
HATCH
100
AcDbLine
 10
4.862880039274471
 20
3.56400192062131
 30
0.0
 11
4.922883804903363
 21
3.562837369388428
 31
0.0
  0
LINE
  5
40961
330
2
100
AcDbEntity
  8
HATCH
100
AcDbLine
 10
4.922883804903363
 20
3.562837369388428
 30
0.0
 11
4.93307596523894
 21
3.572641443423971
 31
0.0
  0
LINE
  5
40962
330
2
100
AcDbEntity
  8
HATCH
100
AcDbLine
 10
4.93307596523894
 20
3.572641443423971
 30
0.0
 11
4.942880039274482
 21
3.562449283088422
 31
0.0
  0
LINE
  5
40963
330
2
100
AcDbEntity
  8
HATCH
100
AcDbLine
 10
4.942880039274482
 20
3.562449283088422
 30
0.0
 11
5.002883804903375
 21
3.56128473185554
 31
0.0
  0
LINE
  5
40964
330
2
100
AcDbEntity
  8
HATCH
100
AcDbLine
 10
5.002883804903375
 20
3.56128473185554
 30
0.0
 11
5.013075965238924
 21
3.571088805891082
 31
0.0
  0
LINE
  5
40965
330
2
100
AcDbEntity
  8
HATCH
100
AcDbLine
 10
5.013075965238924
 20
3.571088805891082
 30
0.0
 11
5.022880039274467
 21
3.560896645555533
 31
0.0
  0
LINE
  5
40966
330
2
100
AcDbEntity
  8
HATCH
100
AcDbLine
 10
5.022880039274467
 20
3.560896645555533
 30
0.0
 11
5.082883804903373
 21
3.559732094322643
 31
0.0
  0
LINE
  5
40967
330
2
100
AcDbEntity
  8
HATCH
100
AcDbLine
 10
5.082883804903373
 20
3.559732094322643
 30
0.0
 11
5.093075965238938
 21
3.569536168358187
 31
0.0
  0
LINE
  5
40968
330
2
100
AcDbEntity
  8
HATCH
100
AcDbLine
 10
5.093075965238938
 20
3.569536168358187
 30
0.0
 11
5.102880039274481
 21
3.559344008022636
 31
0.0
  0
LINE
  5
40969
330
2
100
AcDbEntity
  8
HATCH
100
AcDbLine
 10
5.102880039274481
 20
3.559344008022636
 30
0.0
 11
5.162883804903373
 21
3.558179456789754
 31
0.0
  0
LINE
  5
4096A
330
2
100
AcDbEntity
  8
HATCH
100
AcDbLine
 10
5.162883804903373
 20
3.558179456789754
 30
0.0
 11
5.173075965238921
 21
3.567983530825298
 31
0.0
  0
LINE
  5
4096B
330
2
100
AcDbEntity
  8
HATCH
100
AcDbLine
 10
5.173075965238921
 20
3.567983530825298
 30
0.0
 11
5.182880039274464
 21
3.557791370489748
 31
0.0
  0
LINE
  5
4096C
330
2
100
AcDbEntity
  8
HATCH
100
AcDbLine
 10
5.182880039274464
 20
3.557791370489748
 30
0.0
 11
5.242883804903356
 21
3.556626819256865
 31
0.0
  0
LINE
  5
4096D
330
2
100
AcDbEntity
  8
HATCH
100
AcDbLine
 10
5.242883804903356
 20
3.556626819256865
 30
0.0
 11
5.253075965238933
 21
3.566430893292408
 31
0.0
  0
LINE
  5
4096E
330
2
100
AcDbEntity
  8
IMAGE
100
AcDbLine
 10
6.022599792292608
 20
3.588464789460234
 30
0.0
 11
6.007599792292608
 21
4.048464789460236
 31
0.0
  0
LINE
  5
4096F
330
2
100
AcDbEntity
  8
IMAGE
100
AcDbLine
 10
6.007599792292608
 20
4.048464789460236
 30
0.0
 11
5.840165966164121
 21
4.048464789460236
 31
0.0
  0
LINE
  5
40970
330
2
100
AcDbEntity
  8
IMAGE
100
AcDbLine
 10
5.840165966164121
 20
4.048464789460236
 30
0.0
 11
5.825165966164134
 21
3.588464789460234
 31
0.0
  0
LINE
  5
40971
330
2
100
AcDbEntity
  8
IMAGE
100
AcDbLine
 10
5.825165966164134
 20
3.588464789460234
 30
0.0
 11
5.773882879228366
 21
3.588464789460234
 31
0.0
  0
LINE
  5
40972
330
2
100
AcDbEntity
  8
IMAGE
100
AcDbLine
 10
5.773882879228366
 20
3.588464789460234
 30
0.0
 11
5.773882879228366
 21
3.680964789460237
 31
0.0
  0
LINE
  5
40973
330
2
100
AcDbEntity
  8
IMAGE
100
AcDbLine
 10
5.773882879228366
 20
3.680964789460237
 30
0.0
 11
5.658882879228372
 21
3.680964789460237
 31
0.0
  0
LINE
  5
40974
330
2
100
AcDbEntity
  8
IMAGE
100
AcDbLine
 10
5.658882879228372
 20
3.680964789460237
 30
0.0
 11
5.658882879228372
 21
3.723464789460233
 31
0.0
  0
LINE
  5
40975
330
2
100
AcDbEntity
  8
IMAGE
100
AcDbLine
 10
5.658882879228372
 20
3.723464789460233
 30
0.0
 11
5.558882879228362
 21
3.685964789460238
 31
0.0
  0
LINE
  5
40976
330
2
100
AcDbEntity
  8
IMAGE
100
AcDbLine
 10
5.558882879228362
 20
3.685964789460238
 30
0.0
 11
5.558882879228362
 21
3.635964789460234
 31
0.0
  0
LINE
  5
40977
330
2
100
AcDbEntity
  8
IMAGE
100
AcDbLine
 10
5.558882879228362
 20
3.635964789460234
 30
0.0
 11
5.658882879228372
 21
3.598464789460233
 31
0.0
  0
LINE
  5
40978
330
2
100
AcDbEntity
  8
IMAGE
100
AcDbLine
 10
5.658882879228372
 20
3.598464789460233
 30
0.0
 11
5.658882879228372
 21
3.640964789460237
 31
0.0
  0
LINE
  5
40979
330
2
100
AcDbEntity
  8
IMAGE
100
AcDbLine
 10
5.658882879228372
 20
3.640964789460237
 30
0.0
 11
5.733882879228374
 21
3.640964789460237
 31
0.0
  0
LINE
  5
4097A
330
2
100
AcDbEntity
  8
IMAGE
100
AcDbLine
 10
5.733882879228374
 20
3.640964789460237
 30
0.0
 11
5.733882879228374
 21
3.548464789460236
 31
0.0
  0
LINE
  5
4097B
330
2
100
AcDbEntity
  8
IMAGE
100
AcDbLine
 10
5.733882879228374
 20
3.548464789460236
 30
0.0
 11
5.86388287922837
 21
3.548464789460236
 31
0.0
  0
LINE
  5
4097C
330
2
100
AcDbEntity
  8
IMAGE
100
AcDbLine
 10
5.86388287922837
 20
3.548464789460236
 30
0.0
 11
5.87888287922837
 21
4.008464789460236
 31
0.0
  0
LINE
  5
4097D
330
2
100
AcDbEntity
  8
IMAGE
100
AcDbLine
 10
5.87888287922837
 20
4.008464789460236
 30
0.0
 11
5.968882879228361
 21
4.008464789460236
 31
0.0
  0
LINE
  5
4097E
330
2
100
AcDbEntity
  8
IMAGE
100
AcDbLine
 10
5.968882879228361
 20
4.008464789460236
 30
0.0
 11
5.983882879228374
 21
3.548464789460236
 31
0.0
  0
LINE
  5
4097F
330
2
100
AcDbEntity
  8
IMAGE
100
AcDbLine
 10
5.983882879228374
 20
3.548464789460236
 30
0.0
 11
6.163882879228366
 21
3.548464789460236
 31
0.0
  0
LINE
  5
40980
330
2
100
AcDbEntity
  8
IMAGE
100
AcDbLine
 10
6.163882879228366
 20
3.548464789460236
 30
0.0
 11
6.178882879228366
 21
4.008464789460236
 31
0.0
  0
LINE
  5
40981
330
2
100
AcDbEntity
  8
IMAGE
100
AcDbLine
 10
6.178882879228366
 20
4.008464789460236
 30
0.0
 11
6.268882879228371
 21
4.008464789460236
 31
0.0
  0
LINE
  5
40982
330
2
100
AcDbEntity
  8
IMAGE
100
AcDbLine
 10
6.268882879228371
 20
4.008464789460236
 30
0.0
 11
6.283882879228356
 21
3.548464789460236
 31
0.0
  0
LINE
  5
40983
330
2
100
AcDbEntity
  8
IMAGE
100
AcDbLine
 10
6.283882879228356
 20
3.548464789460236
 30
0.0
 11
6.463882879228362
 21
3.548464789460236
 31
0.0
  0
LINE
  5
40984
330
2
100
AcDbEntity
  8
IMAGE
100
AcDbLine
 10
6.463882879228362
 20
3.548464789460236
 30
0.0
 11
6.478882879228365
 21
4.008464789460236
 31
0.0
  0
LINE
  5
40985
330
2
100
AcDbEntity
  8
IMAGE
100
AcDbLine
 10
6.478882879228365
 20
4.008464789460236
 30
0.0
 11
6.568882879228366
 21
4.008464789460236
 31
0.0
  0
LINE
  5
40986
330
2
100
AcDbEntity
  8
IMAGE
100
AcDbLine
 10
6.568882879228366
 20
4.008464789460236
 30
0.0
 11
6.583882879228369
 21
3.548464789460236
 31
0.0
  0
LINE
  5
40987
330
2
100
AcDbEntity
  8
IMAGE
100
AcDbLine
 10
6.583882879228369
 20
3.548464789460236
 30
0.0
 11
6.713882879228362
 21
3.548464789460236
 31
0.0
  0
LINE
  5
40988
330
2
100
AcDbEntity
  8
IMAGE
100
AcDbLine
 10
6.713882879228362
 20
3.548464789460236
 30
0.0
 11
6.713882879228362
 21
3.640964789460237
 31
0.0
  0
LINE
  5
40989
330
2
100
AcDbEntity
  8
IMAGE
100
AcDbLine
 10
6.713882879228362
 20
3.640964789460237
 30
0.0
 11
6.788882879228366
 21
3.640964789460237
 31
0.0
  0
LINE
  5
4098A
330
2
100
AcDbEntity
  8
IMAGE
100
AcDbLine
 10
6.788882879228366
 20
3.640964789460237
 30
0.0
 11
6.788882879228366
 21
3.598464789460233
 31
0.0
  0
LINE
  5
4098B
330
2
100
AcDbEntity
  8
IMAGE
100
AcDbLine
 10
6.788882879228366
 20
3.598464789460233
 30
0.0
 11
6.888882879228361
 21
3.635964789460234
 31
0.0
  0
LINE
  5
4098C
330
2
100
AcDbEntity
  8
IMAGE
100
AcDbLine
 10
6.888882879228361
 20
3.635964789460234
 30
0.0
 11
6.888882879228361
 21
3.685964789460238
 31
0.0
  0
LINE
  5
4098D
330
2
100
AcDbEntity
  8
IMAGE
100
AcDbLine
 10
6.888882879228361
 20
3.685964789460238
 30
0.0
 11
6.788882879228366
 21
3.723464789460233
 31
0.0
  0
LINE
  5
4098E
330
2
100
AcDbEntity
  8
IMAGE
100
AcDbLine
 10
6.788882879228366
 20
3.723464789460233
 30
0.0
 11
6.788882879228366
 21
3.680964789460237
 31
0.0
  0
LINE
  5
4098F
330
2
100
AcDbEntity
  8
IMAGE
100
AcDbLine
 10
6.788882879228366
 20
3.680964789460237
 30
0.0
 11
6.673882879228372
 21
3.680964789460237
 31
0.0
  0
LINE
  5
40990
330
2
100
AcDbEntity
  8
IMAGE
100
AcDbLine
 10
6.673882879228372
 20
3.680964789460237
 30
0.0
 11
6.673882879228372
 21
3.588464789460234
 31
0.0
  0
LINE
  5
40991
330
2
100
AcDbEntity
  8
IMAGE
100
AcDbLine
 10
6.673882879228372
 20
3.588464789460234
 30
0.0
 11
6.622599792292603
 21
3.588464789460234
 31
0.0
  0
LINE
  5
40992
330
2
100
AcDbEntity
  8
IMAGE
100
AcDbLine
 10
6.622599792292603
 20
3.588464789460234
 30
0.0
 11
6.607599792292601
 21
4.048464789460236
 31
0.0
  0
LINE
  5
40993
330
2
100
AcDbEntity
  8
IMAGE
100
AcDbLine
 10
6.607599792292601
 20
4.048464789460236
 30
0.0
 11
6.44016596616413
 21
4.048464789460236
 31
0.0
  0
LINE
  5
40994
330
2
100
AcDbEntity
  8
IMAGE
100
AcDbLine
 10
6.44016596616413
 20
4.048464789460236
 30
0.0
 11
6.425165966164128
 21
3.588464789460234
 31
0.0
  0
LINE
  5
40995
330
2
100
AcDbEntity
  8
IMAGE
100
AcDbLine
 10
6.425165966164128
 20
3.588464789460234
 30
0.0
 11
6.322599792292606
 21
3.588464789460234
 31
0.0
  0
LINE
  5
40996
330
2
100
AcDbEntity
  8
IMAGE
100
AcDbLine
 10
6.322599792292606
 20
3.588464789460234
 30
0.0
 11
6.307599792292607
 21
4.048464789460236
 31
0.0
  0
LINE
  5
40997
330
2
100
AcDbEntity
  8
IMAGE
100
AcDbLine
 10
6.307599792292607
 20
4.048464789460236
 30
0.0
 11
6.140165966164132
 21
4.048464789460236
 31
0.0
  0
LINE
  5
40998
330
2
100
AcDbEntity
  8
IMAGE
100
AcDbLine
 10
6.140165966164132
 20
4.048464789460236
 30
0.0
 11
6.125165966164132
 21
3.588464789460234
 31
0.0
  0
LINE
  5
40999
330
2
100
AcDbEntity
  8
IMAGE
100
AcDbLine
 10
6.125165966164132
 20
3.588464789460234
 30
0.0
 11
6.022599792292608
 21
3.588464789460234
 31
0.0
  0
LINE
  5
4099A
330
2
100
AcDbEntity
  8
HATCH
 62
     1
100
AcDbLine
 10
5.839111288229664
 20
4.016121332803573
 30
0.0
 11
5.871454744886326
 21
4.048464789460236
 31
0.0
  0
LINE
  5
4099B
330
2
100
AcDbEntity
  8
HATCH
 62
     1
100
AcDbLine
 10
5.558882879228374
 20
3.647504576153963
 30
0.0
 11
5.620419220518411
 21
3.709040917444001
 31
0.0
  0
LINE
  5
4099C
330
2
100
AcDbEntity
  8
HATCH
 62
     1
100
AcDbLine
 10
5.919843092534646
 20
4.008464789460236
 30
0.0
 11
5.959843092534646
 21
4.048464789460236
 31
0.0
  0
LINE
  5
4099D
330
2
100
AcDbEntity
  8
HATCH
 62
     1
100
AcDbLine
 10
5.836131905724669
 20
3.924753602650258
 30
0.0
 11
5.877502197880968
 21
3.966123894806557
 31
0.0
  0
LINE
  5
4099E
330
2
100
AcDbEntity
  8
HATCH
 62
     1
100
AcDbLine
 10
5.614772741740801
 20
3.615006091018072
 30
0.0
 11
5.680731440182962
 21
3.680964789460233
 31
0.0
  0
LINE
  5
4099F
330
2
100
AcDbEntity
  8
HATCH
 62
     1
100
AcDbLine
 10
5.970125465363771
 20
3.970358814641041
 30
0.0
 11
6.00888289696283
 21
4.0091162462401
 31
0.0
  0
LINE
  5
409A0
330
2
100
AcDbEntity
  8
HATCH
 62
     1
100
AcDbLine
 10
5.833152523219672
 20
3.833385872496943
 30
0.0
 11
5.874522815375968
 21
3.87475616465324
 31
0.0
  0
LINE
  5
409A1
330
2
100
AcDbEntity
  8
HATCH
 62
     1
100
AcDbLine
 10
5.729119787831286
 20
3.640964789460237
 30
0.0
 11
5.769119787831282
 21
3.680964789460233
 31
0.0
  0
LINE
  5
409A2
330
2
100
AcDbEntity
  8
HATCH
 62
     1
100
AcDbLine
 10
5.972916676342141
 20
3.884761677971091
 30
0.0
 11
6.011674107941201
 21
3.923519109570151
 31
0.0
  0
LINE
  5
409A3
330
2
100
AcDbEntity
  8
HATCH
 62
     1
100
AcDbLine
 10
5.830173140714677
 20
3.742018142343629
 30
0.0
 11
5.87154343287097
 21
3.783388434499921
 31
0.0
  0
LINE
  5
409A4
330
2
100
AcDbEntity
  8
HATCH
 62
     1
100
AcDbLine
 10
5.733882879228374
 20
3.557339533209006
 30
0.0
 11
5.773882879228366
 21
3.597339533208998
 31
0.0
  0
LINE
  5
409A5
330
2
100
AcDbEntity
  8
HATCH
 62
     1
100
AcDbLine
 10
6.185008135479604
 20
4.008464789460236
 30
0.0
 11
6.225008135479602
 21
4.048464789460235
 31
0.0
  0
LINE
  5
409A6
330
2
100
AcDbEntity
  8
HATCH
 62
     1
100
AcDbLine
 10
5.827193758209681
 20
3.650650412190314
 30
0.0
 11
5.868564050365969
 21
3.6920207043466
 31
0.0
  0
LINE
  5
409A7
330
2
100
AcDbEntity
  8
HATCH
 62
     1
100
AcDbLine
 10
6.137306117760242
 20
3.960762771740872
 30
0.0
 11
6.178676409916527
 21
4.002133063897161
 31
0.0
  0
LINE
  5
409A8
330
2
100
AcDbEntity
  8
HATCH
 62
     1
100
AcDbLine
 10
5.975707887320512
 20
3.799164541301143
 30
0.0
 11
6.014465318919566
 21
3.837921972900198
 31
0.0
  0
LINE
  5
409A9
330
2
100
AcDbEntity
  8
HATCH
 62
     1
100
AcDbLine
 10
5.81339648312792
 20
3.548464789460237
 30
0.0
 11
5.865584667860969
 21
3.600652974193287
 31
0.0
  0
LINE
  5
409AA
330
2
100
AcDbEntity
  8
HATCH
 62
     1
100
AcDbLine
 10
6.269025414088357
 20
4.004093720420674
 30
0.0
 11
6.307782845687404
 21
4.042851152019721
 31
0.0
  0
LINE
  5
409AB
330
2
100
AcDbEntity
  8
HATCH
 62
     1
100
AcDbLine
 10
5.978499098298882
 20
3.713567404631198
 30
0.0
 11
6.017256529897934
 21
3.752324836230251
 31
0.0
  0
LINE
  5
409AC
330
2
100
AcDbEntity
  8
HATCH
 62
     1
100
AcDbLine
 10
6.134326735255242
 20
3.869395041587558
 30
0.0
 11
6.175697027411528
 21
3.910765333743846
 31
0.0
  0
LINE
  5
409AD
330
2
100
AcDbEntity
  8
HATCH
 62
     1
100
AcDbLine
 10
5.981290309277253
 20
3.627970267961249
 30
0.0
 11
6.020047740876304
 21
3.666727699560301
 31
0.0
  0
LINE
  5
409AE
330
2
100
AcDbEntity
  8
HATCH
 62
     1
100
AcDbLine
 10
6.271816625066722
 20
3.918496583750721
 30
0.0
 11
6.310574056665775
 21
3.957254015349771
 31
0.0
  0
LINE
  5
409AF
330
2
100
AcDbEntity
  8
HATCH
 62
     1
100
AcDbLine
 10
6.131347352750241
 20
3.77802731143424
 30
0.0
 11
6.17271764490653
 21
3.819397603590528
 31
0.0
  0
LINE
  5
409B0
330
2
100
AcDbEntity
  8
HATCH
 62
     1
100
AcDbLine
 10
5.990173178424556
 20
3.548464789460234
 30
0.0
 11
6.030173178424554
 21
3.588464789460232
 31
0.0
  0
LINE
  5
409B1
330
2
100
AcDbEntity
  8
HATCH
 62
     1
100
AcDbLine
 10
6.4384803297958
 20
3.99677194083148
 30
0.0
 11
6.490173178424556
 21
4.048464789460235
 31
0.0
  0
LINE
  5
409B2
330
2
100
AcDbEntity
  8
HATCH
 62
     1
100
AcDbLine
 10
6.128367970245244
 20
3.686659581280921
 30
0.0
 11
6.16973826240153
 21
3.728029873437209
 31
0.0
  0
LINE
  5
409B3
330
2
100
AcDbEntity
  8
HATCH
 62
     1
100
AcDbLine
 10
6.274607836045088
 20
3.832899447080768
 30
0.0
 11
6.313365267644143
 21
3.871656878679821
 31
0.0
  0
LINE
  5
409B4
330
2
100
AcDbEntity
  8
HATCH
 62
     1
100
AcDbLine
 10
6.078561526072875
 20
3.548464789460234
 30
0.0
 11
6.118561526072872
 21
3.588464789460232
 31
0.0
  0
LINE
  5
409B5
330
2
100
AcDbEntity
  8
HATCH
 62
     1
100
AcDbLine
 10
6.538561526072877
 20
4.008464789460236
 30
0.0
 11
6.578561526072876
 21
4.048464789460235
 31
0.0
  0
LINE
  5
409B6
330
2
100
AcDbEntity
  8
HATCH
 62
     1
100
AcDbLine
 10
6.125388587740244
 20
3.595291851127603
 30
0.0
 11
6.166758879896532
 21
3.636662143283891
 31
0.0
  0
LINE
  5
409B7
330
2
100
AcDbEntity
  8
HATCH
 62
     1
100
AcDbLine
 10
6.4355009472908
 20
3.905404210678161
 30
0.0
 11
6.47687123944709
 21
3.94677450283445
 31
0.0
  0
LINE
  5
409B8
330
2
100
AcDbEntity
  8
HATCH
 62
     1
100
AcDbLine
 10
6.277399047023455
 20
3.747302310410812
 30
0.0
 11
6.316156478622509
 21
3.786059742009868
 31
0.0
  0
LINE
  5
409B9
330
2
100
AcDbEntity
  8
HATCH
 62
     1
100
AcDbLine
 10
6.280190258001821
 20
3.661705173740863
 30
0.0
 11
6.318947689600879
 21
3.700462605339918
 31
0.0
  0
LINE
  5
409BA
330
2
100
AcDbEntity
  8
HATCH
 62
     1
100
AcDbLine
 10
6.570716573791301
 20
3.952231489530339
 30
0.0
 11
6.60947400539035
 21
3.990988921129389
 31
0.0
  0
LINE
  5
409BB
330
2
100
AcDbEntity
  8
HATCH
 62
     1
100
AcDbLine
 10
6.432521564785802
 20
3.814036480524841
 30
0.0
 11
6.473891856942088
 21
3.85540677268113
 31
0.0
  0
LINE
  5
409BC
330
2
100
AcDbEntity
  8
HATCH
 62
     1
100
AcDbLine
 10
6.282981468980185
 20
3.57610803707091
 30
0.0
 11
6.321738900579243
 21
3.614865468669968
 31
0.0
  0
LINE
  5
409BD
330
2
100
AcDbEntity
  8
HATCH
 62
     1
100
AcDbLine
 10
6.573507784769667
 20
3.866634352860391
 30
0.0
 11
6.612265216368715
 21
3.905391784459441
 31
0.0
  0
LINE
  5
409BE
330
2
100
AcDbEntity
  8
HATCH
 62
     1
100
AcDbLine
 10
6.4295421822808
 20
3.722668750371526
 30
0.0
 11
6.470912474437088
 21
3.764039042527812
 31
0.0
  0
LINE
  5
409BF
330
2
100
AcDbEntity
  8
HATCH
 62
     1
100
AcDbLine
 10
6.343726569017832
 20
3.548464789460237
 30
0.0
 11
6.383726569017831
 21
3.588464789460236
 31
0.0
  0
LINE
  5
409C0
330
2
100
AcDbEntity
  8
HATCH
 62
     1
100
AcDbLine
 10
6.576298995748035
 20
3.781037216190441
 30
0.0
 11
6.615056427347085
 21
3.819794647789491
 31
0.0
  0
LINE
  5
409C1
330
2
100
AcDbEntity
  8
HATCH
 62
     1
100
AcDbLine
 10
6.426562799775803
 20
3.631301020218207
 30
0.0
 11
6.467933091932088
 21
3.672671312374495
 31
0.0
  0
LINE
  5
409C2
330
2
100
AcDbEntity
  8
HATCH
 62
     1
100
AcDbLine
 10
6.432114916666151
 20
3.548464789460236
 30
0.0
 11
6.464953709427089
 21
3.581303582221176
 31
0.0
  0
LINE
  5
409C3
330
2
100
AcDbEntity
  8
HATCH
 62
     1
100
AcDbLine
 10
6.579090206726405
 20
3.695440079520492
 30
0.0
 11
6.617847638325451
 21
3.734197511119538
 31
0.0
  0
LINE
  5
409C4
330
2
100
AcDbEntity
  8
HATCH
 62
     1
100
AcDbLine
 10
6.581881417704773
 20
3.60984294285054
 30
0.0
 11
6.620638849303822
 21
3.648600374449588
 31
0.0
  0
LINE
  5
409C5
330
2
100
AcDbEntity
  8
HATCH
 62
     1
100
AcDbLine
 10
6.608891611962786
 20
3.548464789460236
 30
0.0
 11
6.648891611962786
 21
3.588464789460232
 31
0.0
  0
LINE
  5
409C6
330
2
100
AcDbEntity
  8
HATCH
 62
     1
100
AcDbLine
 10
6.673882879228373
 20
3.613456056725821
 30
0.0
 11
6.741391611962787
 21
3.680964789460236
 31
0.0
  0
LINE
  5
409C7
330
2
100
AcDbEntity
  8
HATCH
 62
     1
100
AcDbLine
 10
6.697279959611106
 20
3.548464789460237
 30
0.0
 11
6.713882879228362
 21
3.565067709077495
 31
0.0
  0
LINE
  5
409C8
330
2
100
AcDbEntity
  8
HATCH
 62
     1
100
AcDbLine
 10
6.788882879228366
 20
3.640067709077498
 30
0.0
 11
6.849535301324903
 21
3.700720131174033
 31
0.0
  0
LINE
  5
409C9
330
2
100
AcDbEntity
  8
HATCH
 62
     1
100
AcDbLine
 10
6.863739564078057
 20
3.626536046278872
 30
0.0
 11
6.888882879228361
 21
3.651679361429174
 31
0.0
  0
LINE
  5
409CA
330
2
100
AcDbEntity
  8
HATCH
 62
     1
100
AcDbLine
 10
5.839483711042786
 20
4.027542299072738
 30
0.0
 11
5.860406201430287
 21
4.048464789460236
 31
0.0
  0
LINE
  5
409CB
330
2
100
AcDbEntity
  8
HATCH
 62
     1
100
AcDbLine
 10
5.558882879228369
 20
3.658553119610001
 30
0.0
 11
5.602741550988749
 21
3.70241179137038
 31
0.0
  0
LINE
  5
409CC
330
2
100
AcDbEntity
  8
HATCH
 62
     1
100
AcDbLine
 10
5.908794549078606
 20
4.008464789460236
 30
0.0
 11
5.948794549078606
 21
4.048464789460236
 31
0.0
  0
LINE
  5
409CD
330
2
100
AcDbEntity
  8
HATCH
 62
     1
100
AcDbLine
 10
5.836504328537793
 20
3.936174568919423
 30
0.0
 11
5.877874620694092
 21
3.977544861075723
 31
0.0
  0
LINE
  5
409CE
330
2
100
AcDbEntity
  8
HATCH
 62
     1
100
AcDbLine
 10
5.606737437409136
 20
3.618019330142448
 30
0.0
 11
5.669682896726924
 21
3.680964789460237
 31
0.0
  0
LINE
  5
409CF
330
2
100
AcDbEntity
  8
HATCH
 62
     1
100
AcDbLine
 10
5.969776563991473
 20
3.981058456724785
 30
0.0
 11
6.008533995590534
 21
4.019815888323846
 31
0.0
  0
LINE
  5
409D0
330
2
100
AcDbEntity
  8
HATCH
 62
     1
100
AcDbLine
 10
5.833524946032794
 20
3.844806838766107
 30
0.0
 11
5.874895238189092
 21
3.886177130922406
 31
0.0
  0
LINE
  5
409D1
330
2
100
AcDbEntity
  8
HATCH
 62
     1
100
AcDbLine
 10
5.718071244375244
 20
3.640964789460237
 30
0.0
 11
5.758071244375241
 21
3.680964789460236
 31
0.0
  0
LINE
  5
409D2
330
2
100
AcDbEntity
  8
HATCH
 62
     1
100
AcDbLine
 10
5.972567774969844
 20
3.895461320054838
 30
0.0
 11
6.011325206568902
 21
3.934218751653896
 31
0.0
  0
LINE
  5
409D3
330
2
100
AcDbEntity
  8
HATCH
 62
     1
100
AcDbLine
 10
5.830545563527799
 20
3.753439108612793
 30
0.0
 11
5.871915855684092
 21
3.794809400769087
 31
0.0
  0
LINE
  5
409D4
330
2
100
AcDbEntity
  8
HATCH
 62
     1
100
AcDbLine
 10
5.733882879228374
 20
3.568388076665048
 30
0.0
 11
5.773882879228366
 21
3.608388076665042
 31
0.0
  0
LINE
  5
409D5
330
2
100
AcDbEntity
  8
HATCH
 62
     1
100
AcDbLine
 10
6.137678540573365
 20
3.972183738010038
 30
0.0
 11
6.213959592023562
 21
4.048464789460236
 31
0.0
  0
LINE
  5
409D6
330
2
100
AcDbEntity
  8
HATCH
 62
     1
100
AcDbLine
 10
5.827566181022803
 20
3.662071378459478
 30
0.0
 11
5.868936473179093
 21
3.703441670615768
 31
0.0
  0
LINE
  5
409D7
330
2
100
AcDbEntity
  8
HATCH
 62
     1
100
AcDbLine
 10
5.975358985948215
 20
3.80986418338489
 30
0.0
 11
6.01411641754727
 21
3.848621614983943
 31
0.0
  0
LINE
  5
409D8
330
2
100
AcDbEntity
  8
HATCH
 62
     1
100
AcDbLine
 10
5.80234793967188
 20
3.548464789460238
 30
0.0
 11
5.865957090674092
 21
3.61207394046245
 31
0.0
  0
LINE
  5
409D9
330
2
100
AcDbEntity
  8
HATCH
 62
     1
100
AcDbLine
 10
6.262347939671879
 20
4.008464789460236
 30
0.0
 11
6.30234793967188
 21
4.048464789460236
 31
0.0
  0
LINE
  5
409DA
330
2
100
AcDbEntity
  8
HATCH
 62
     1
100
AcDbLine
 10
5.978150196926582
 20
3.724267046714941
 30
0.0
 11
6.016907628525637
 21
3.763024478313996
 31
0.0
  0
LINE
  5
409DB
330
2
100
AcDbEntity
  8
HATCH
 62
     1
100
AcDbLine
 10
6.134699158068364
 20
3.880816007856723
 30
0.0
 11
6.176069450224652
 21
3.922186300013009
 31
0.0
  0
LINE
  5
409DC
330
2
100
AcDbEntity
  8
HATCH
 62
     1
100
AcDbLine
 10
5.980941407904956
 20
3.638669910044995
 30
0.0
 11
6.019698839504005
 21
3.677427341644046
 31
0.0
  0
LINE
  5
409DD
330
2
100
AcDbEntity
  8
HATCH
 62
     1
100
AcDbLine
 10
6.271467723694428
 20
3.929196225834466
 30
0.0
 11
6.310225155293476
 21
3.967953657433516
 31
0.0
  0
LINE
  5
409DE
330
2
100
AcDbEntity
  8
HATCH
 62
     1
100
AcDbLine
 10
6.131719775563367
 20
3.789448277703406
 30
0.0
 11
6.173090067719654
 21
3.830818569859693
 31
0.0
  0
LINE
  5
409DF
330
2
100
AcDbEntity
  8
HATCH
 62
     1
100
AcDbLine
 10
5.983732618883325
 20
3.553072773375046
 30
0.0
 11
6.022490050482372
 21
3.591830204974093
 31
0.0
  0
LINE
  5
409E0
330
2
100
AcDbEntity
  8
HATCH
 62
     1
100
AcDbLine
 10
6.438852752608925
 20
4.008192907100645
 30
0.0
 11
6.479124634968518
 21
4.048464789460236
 31
0.0
  0
LINE
  5
409E1
330
2
100
AcDbEntity
  8
HATCH
 62
     1
100
AcDbLine
 10
6.128740393058366
 20
3.698080547550086
 30
0.0
 11
6.170110685214654
 21
3.739450839706376
 31
0.0
  0
LINE
  5
409E2
330
2
100
AcDbEntity
  8
HATCH
 62
     1
100
AcDbLine
 10
6.274258934672793
 20
3.843599089164513
 30
0.0
 11
6.313016366271845
 21
3.882356520763564
 31
0.0
  0
LINE
  5
409E3
330
2
100
AcDbEntity
  8
HATCH
 62
     1
100
AcDbLine
 10
6.067512982616833
 20
3.548464789460234
 30
0.0
 11
6.107512982616832
 21
3.588464789460234
 31
0.0
  0
LINE
  5
409E4
330
2
100
AcDbEntity
  8
HATCH
 62
     1
100
AcDbLine
 10
6.527512982616838
 20
4.008464789460236
 30
0.0
 11
6.567512982616832
 21
4.048464789460234
 31
0.0
  0
LINE
  5
409E5
330
2
100
AcDbEntity
  8
HATCH
 62
     1
100
AcDbLine
 10
6.125761010553366
 20
3.606712817396768
 30
0.0
 11
6.167131302709655
 21
3.648083109553056
 31
0.0
  0
LINE
  5
409E6
330
2
100
AcDbEntity
  8
HATCH
 62
     1
100
AcDbLine
 10
6.435873370103925
 20
3.916825176947326
 30
0.0
 11
6.477243662260214
 21
3.958195469103615
 31
0.0
  0
LINE
  5
409E7
330
2
100
AcDbEntity
  8
HATCH
 62
     1
100
AcDbLine
 10
6.277050145651159
 20
3.758001952494558
 30
0.0
 11
6.315807577250215
 21
3.796759384093615
 31
0.0
  0
LINE
  5
409E8
330
2
100
AcDbEntity
  8
HATCH
 62
     1
100
AcDbLine
 10
6.155901330265152
 20
3.548464789460234
 30
0.0
 11
6.164151920204655
 21
3.556715379399738
 31
0.0
  0
LINE
  5
409E9
330
2
100
AcDbEntity
  8
HATCH
 62
     1
100
AcDbLine
 10
6.570367672419003
 20
3.962931131614084
 30
0.0
 11
6.609125104018052
 21
4.001688563213133
 31
0.0
  0
LINE
  5
409EA
330
2
100
AcDbEntity
  8
HATCH
 62
     1
100
AcDbLine
 10
6.279841356629527
 20
3.672404815824607
 30
0.0
 11
6.31859878822858
 21
3.711162247423661
 31
0.0
  0
LINE
  5
409EB
330
2
100
AcDbEntity
  8
HATCH
 62
     1
100
AcDbLine
 10
6.432893987598927
 20
3.825457446794008
 30
0.0
 11
6.474264279755214
 21
3.866827738950296
 31
0.0
  0
LINE
  5
409EC
330
2
100
AcDbEntity
  8
HATCH
 62
     1
100
AcDbLine
 10
6.282632567607889
 20
3.586807679154654
 30
0.0
 11
6.321389999206949
 21
3.625565110753713
 31
0.0
  0
LINE
  5
409ED
330
2
100
AcDbEntity
  8
HATCH
 62
     1
100
AcDbLine
 10
6.57315888339737
 20
3.877333994944136
 30
0.0
 11
6.611916314996419
 21
3.916091426543186
 31
0.0
  0
LINE
  5
409EE
330
2
100
AcDbEntity
  8
HATCH
 62
     1
100
AcDbLine
 10
6.429914605093926
 20
3.734089716640691
 30
0.0
 11
6.471284897250212
 21
3.775460008796978
 31
0.0
  0
LINE
  5
409EF
330
2
100
AcDbEntity
  8
HATCH
 62
     1
100
AcDbLine
 10
6.33267802556179
 20
3.548464789460237
 30
0.0
 11
6.372678025561789
 21
3.588464789460234
 31
0.0
  0
LINE
  5
409F0
330
2
100
AcDbEntity
  8
HATCH
 62
     1
100
AcDbLine
 10
6.575950094375739
 20
3.791736858274187
 30
0.0
 11
6.614707525974787
 21
3.830494289873234
 31
0.0
  0
LINE
  5
409F1
330
2
100
AcDbEntity
  8
HATCH
 62
     1
100
AcDbLine
 10
6.426935222588925
 20
3.642721986487372
 30
0.0
 11
6.468305514745212
 21
3.684092278643659
 31
0.0
  0
LINE
  5
409F2
330
2
100
AcDbEntity
  8
HATCH
 62
     1
100
AcDbLine
 10
6.421066373210106
 20
3.548464789460236
 30
0.0
 11
6.465326132240213
 21
3.59272454849034
 31
0.0
  0
LINE
  5
409F3
330
2
100
AcDbEntity
  8
HATCH
 62
     1
100
AcDbLine
 10
6.578741305354107
 20
3.706139721604234
 30
0.0
 11
6.617498736953155
 21
3.744897153203283
 31
0.0
  0
LINE
  5
409F4
330
2
100
AcDbEntity
  8
HATCH
 62
     1
100
AcDbLine
 10
6.581532516332474
 20
3.620542584934283
 30
0.0
 11
6.620289947931526
 21
3.659300016533334
 31
0.0
  0
LINE
  5
409F5
330
2
100
AcDbEntity
  8
HATCH
 62
     1
100
AcDbLine
 10
6.597843068506747
 20
3.548464789460237
 30
0.0
 11
6.637843068506743
 21
3.588464789460234
 31
0.0
  0
LINE
  5
409F6
330
2
100
AcDbEntity
  8
HATCH
 62
     1
100
AcDbLine
 10
6.673882879228373
 20
3.624504600181863
 30
0.0
 11
6.730343068506747
 21
3.680964789460237
 31
0.0
  0
LINE
  5
409F7
330
2
100
AcDbEntity
  8
HATCH
 62
     1
100
AcDbLine
 10
6.686231416155065
 20
3.548464789460238
 30
0.0
 11
6.713882879228362
 21
3.576116252533537
 31
0.0
  0
LINE
  5
409F8
330
2
100
AcDbEntity
  8
HATCH
 62
     1
100
AcDbLine
 10
6.778731416155062
 20
3.640964789460238
 30
0.0
 11
6.841499996993237
 21
3.703733370298411
 31
0.0
  0
LINE
  5
409F9
330
2
100
AcDbEntity
  8
HATCH
 62
     1
100
AcDbLine
 10
6.846061894548391
 20
3.619906920205246
 30
0.0
 11
6.88888287922836
 21
3.662727904885214
 31
0.0
  0
LINE
  5
409FA
330
2
100
AcDbEntity
  8
HATCH
 62
     1
100
AcDbLine
 10
5.839856133855914
 20
4.038963265341898
 30
0.0
 11
5.849357657974254
 21
4.048464789460238
 31
0.0
  0
LINE
  5
409FB
330
2
100
AcDbEntity
  8
HATCH
 62
     1
100
AcDbLine
 10
5.558882879228366
 20
3.669601663066031
 30
0.0
 11
5.585063881459096
 21
3.695782665296762
 31
0.0
  0
LINE
  5
409FC
330
2
100
AcDbEntity
  8
HATCH
 62
     1
100
AcDbLine
 10
5.897746005622571
 20
4.008464789460238
 30
0.0
 11
5.937746005622571
 21
4.048464789460236
 31
0.0
  0
LINE
  5
409FD
330
2
100
AcDbEntity
  8
HATCH
 62
     1
100
AcDbLine
 10
5.836876751350914
 20
3.947595535188582
 30
0.0
 11
5.878247043507218
 21
3.988965827344883
 31
0.0
  0
LINE
  5
409FE
330
2
100
AcDbEntity
  8
HATCH
 62
     1
100
AcDbLine
 10
5.598702133077476
 20
3.621032569266823
 30
0.0
 11
5.658882879228372
 21
3.681213315417718
 31
0.0
  0
LINE
  5
409FF
330
2
100
AcDbEntity
  8
HATCH
 62
     1
100
AcDbLine
 10
5.969427662619178
 20
3.991758098808523
 30
0.0
 11
6.008185094218238
 21
4.030515530407586
 31
0.0
  0
LINE
  5
40A00
330
2
100
AcDbEntity
  8
HATCH
 62
     1
100
AcDbLine
 10
5.83389736884592
 20
3.856227805035267
 30
0.0
 11
5.875267661002218
 21
3.897598097191566
 31
0.0
  0
LINE
  5
40A01
330
2
100
AcDbEntity
  8
HATCH
 62
     1
100
AcDbLine
 10
5.70702270091921
 20
3.640964789460238
 30
0.0
 11
5.74702270091921
 21
3.680964789460237
 31
0.0
  0
LINE
  5
40A02
330
2
100
AcDbEntity
  8
HATCH
 62
     1
100
AcDbLine
 10
5.972218873597547
 20
3.906160962138575
 30
0.0
 11
6.010976305196606
 21
3.944918393737634
 31
0.0
  0
LINE
  5
40A03
330
2
100
AcDbEntity
  8
HATCH
 62
     1
100
AcDbLine
 10
5.830917986340924
 20
3.764860074881953
 30
0.0
 11
5.872288278497217
 21
3.806230367038245
 31
0.0
  0
LINE
  5
40A04
330
2
100
AcDbEntity
  8
HATCH
 62
     1
100
AcDbLine
 10
5.733882879228374
 20
3.57943662012108
 30
0.0
 11
5.773882879228366
 21
3.619436620121074
 31
0.0
  0
LINE
  5
40A05
330
2
100
AcDbEntity
  8
HATCH
 62
     1
100
AcDbLine
 10
6.138050963386493
 20
3.983604704279198
 30
0.0
 11
6.202911048567527
 21
4.048464789460236
 31
0.0
  0
LINE
  5
40A06
330
2
100
AcDbEntity
  8
HATCH
 62
     1
100
AcDbLine
 10
5.827938603835928
 20
3.673492344728638
 30
0.0
 11
5.869308895992218
 21
3.714862636884926
 31
0.0
  0
LINE
  5
40A07
330
2
100
AcDbEntity
  8
HATCH
 62
     1
100
AcDbLine
 10
5.975010084575918
 20
3.820563825468627
 30
0.0
 11
6.013767516174977
 21
3.859321257067684
 31
0.0
  0
LINE
  5
40A08
330
2
100
AcDbEntity
  8
HATCH
 62
     1
100
AcDbLine
 10
5.791299396215844
 20
3.548464789460238
 30
0.0
 11
5.866329513487217
 21
3.623494906731609
 31
0.0
  0
LINE
  5
40A09
330
2
100
AcDbEntity
  8
HATCH
 62
     1
100
AcDbLine
 10
6.251299396215844
 20
4.008464789460236
 30
0.0
 11
6.291299396215846
 21
4.048464789460238
 31
0.0
  0
LINE
  5
40A0A
330
2
100
AcDbEntity
  8
HATCH
 62
     1
100
AcDbLine
 10
5.977801295554287
 20
3.73496668879868
 30
0.0
 11
6.016558727153342
 21
3.773724120397734
 31
0.0
  0
LINE
  5
40A0B
330
2
100
AcDbEntity
  8
HATCH
 62
     1
100
AcDbLine
 10
6.135071580881488
 20
3.892236974125881
 30
0.0
 11
6.176441873037776
 21
3.933607266282169
 31
0.0
  0
LINE
  5
40A0C
330
2
100
AcDbEntity
  8
HATCH
 62
     1
100
AcDbLine
 10
5.980592506532659
 20
3.649369552128732
 30
0.0
 11
6.019349938131711
 21
3.688126983727785
 31
0.0
  0
LINE
  5
40A0D
330
2
100
AcDbEntity
  8
HATCH
 62
     1
100
AcDbLine
 10
6.271118822322129
 20
3.939895867918203
 30
0.0
 11
6.309876253921181
 21
3.978653299517254
 31
0.0
  0
LINE
  5
40A0E
330
2
100
AcDbEntity
  8
HATCH
 62
     1
100
AcDbLine
 10
6.132092198376488
 20
3.800869243972563
 30
0.0
 11
6.173462490532778
 21
3.842239536128851
 31
0.0
  0
LINE
  5
40A0F
330
2
100
AcDbEntity
  8
HATCH
 62
     1
100
AcDbLine
 10
5.98338371751103
 20
3.563772415458785
 30
0.0
 11
6.02214114911008
 21
3.602529847057835
 31
0.0
  0
LINE
  5
40A10
330
2
100
AcDbEntity
  8
HATCH
 62
     1
100
AcDbLine
 10
6.439225175422048
 20
4.019613873369803
 30
0.0
 11
6.468076091512481
 21
4.048464789460236
 31
0.0
  0
LINE
  5
40A11
330
2
100
AcDbEntity
  8
HATCH
 62
     1
100
AcDbLine
 10
6.12911281587149
 20
3.709501513819245
 30
0.0
 11
6.170483108027781
 21
3.750871805975536
 31
0.0
  0
LINE
  5
40A12
330
2
100
AcDbEntity
  8
HATCH
 62
     1
100
AcDbLine
 10
6.273910033300496
 20
3.854298731248251
 30
0.0
 11
6.312667464899548
 21
3.893056162847303
 31
0.0
  0
LINE
  5
40A13
330
2
100
AcDbEntity
  8
HATCH
 62
     1
100
AcDbLine
 10
6.056464439160801
 20
3.548464789460234
 30
0.0
 11
6.096464439160801
 21
3.588464789460236
 31
0.0
  0
LINE
  5
40A14
330
2
100
AcDbEntity
  8
HATCH
 62
     1
100
AcDbLine
 10
6.516464439160801
 20
4.008464789460236
 30
0.0
 11
6.5564644391608
 21
4.048464789460235
 31
0.0
  0
LINE
  5
40A15
330
2
100
AcDbEntity
  8
HATCH
 62
     1
100
AcDbLine
 10
6.126133433366491
 20
3.618133783665927
 30
0.0
 11
6.167503725522777
 21
3.659504075822215
 31
0.0
  0
LINE
  5
40A16
330
2
100
AcDbEntity
  8
HATCH
 62
     1
100
AcDbLine
 10
6.436245792917049
 20
3.928246143216484
 30
0.0
 11
6.477616085073338
 21
3.969616435372774
 31
0.0
  0
LINE
  5
40A17
330
2
100
AcDbEntity
  8
HATCH
 62
     1
100
AcDbLine
 10
6.276701244278862
 20
3.768701594578298
 30
0.0
 11
6.315458675877917
 21
3.807459026177353
 31
0.0
  0
LINE
  5
40A18
330
2
100
AcDbEntity
  8
HATCH
 62
     1
100
AcDbLine
 10
6.144852786809119
 20
3.548464789460234
 30
0.0
 11
6.164524343017782
 21
3.568136345668898
 31
0.0
  0
LINE
  5
40A19
330
2
100
AcDbEntity
  8
HATCH
 62
     1
100
AcDbLine
 10
6.570018771046706
 20
3.973630773697824
 30
0.0
 11
6.608776202645758
 21
4.012388205296872
 31
0.0
  0
LINE
  5
40A1A
330
2
100
AcDbEntity
  8
HATCH
 62
     1
100
AcDbLine
 10
6.279492455257227
 20
3.683104457908345
 30
0.0
 11
6.318249886856286
 21
3.721861889507401
 31
0.0
  0
LINE
  5
40A1B
330
2
100
AcDbEntity
  8
HATCH
 62
     1
100
AcDbLine
 10
6.43326641041205
 20
3.836878413063168
 30
0.0
 11
6.47463670256834
 21
3.878248705219457
 31
0.0
  0
LINE
  5
40A1C
330
2
100
AcDbEntity
  8
HATCH
 62
     1
100
AcDbLine
 10
6.282283666235592
 20
3.597507321238392
 30
0.0
 11
6.321041097834654
 21
3.636264752837453
 31
0.0
  0
LINE
  5
40A1D
330
2
100
AcDbEntity
  8
HATCH
 62
     1
100
AcDbLine
 10
6.572809982025074
 20
3.888033637027874
 30
0.0
 11
6.611567413624124
 21
3.926791068626924
 31
0.0
  0
LINE
  5
40A1E
330
2
100
AcDbEntity
  8
HATCH
 62
     1
100
AcDbLine
 10
6.430287027907049
 20
3.745510682909851
 30
0.0
 11
6.471657320063339
 21
3.78688097506614
 31
0.0
  0
LINE
  5
40A1F
330
2
100
AcDbEntity
  8
HATCH
 62
     1
100
AcDbLine
 10
6.321629482105755
 20
3.548464789460236
 30
0.0
 11
6.361629482105753
 21
3.588464789460234
 31
0.0
  0
LINE
  5
40A20
330
2
100
AcDbEntity
  8
HATCH
 62
     1
100
AcDbLine
 10
6.575601193003442
 20
3.802436500357924
 30
0.0
 11
6.61435862460249
 21
3.841193931956971
 31
0.0
  0
LINE
  5
40A21
330
2
100
AcDbEntity
  8
HATCH
 62
     1
100
AcDbLine
 10
6.42730764540205
 20
3.654142952756533
 30
0.0
 11
6.46867793755834
 21
3.695513244912821
 31
0.0
  0
LINE
  5
40A22
330
2
100
AcDbEntity
  8
HATCH
 62
     1
100
AcDbLine
 10
6.410017829754072
 20
3.548464789460234
 30
0.0
 11
6.465698555053339
 21
3.604145514759502
 31
0.0
  0
LINE
  5
40A23
330
2
100
AcDbEntity
  8
HATCH
 62
     1
100
AcDbLine
 10
6.578392403981811
 20
3.716839363687974
 30
0.0
 11
6.61714983558086
 21
3.755596795287022
 31
0.0
  0
LINE
  5
40A24
330
2
100
AcDbEntity
  8
HATCH
 62
     1
100
AcDbLine
 10
6.581183614960179
 20
3.631242227018023
 30
0.0
 11
6.61994104655923
 21
3.669999658617071
 31
0.0
  0
LINE
  5
40A25
330
2
100
AcDbEntity
  8
HATCH
 62
     1
100
AcDbLine
 10
6.586794525050712
 20
3.548464789460236
 30
0.0
 11
6.62679452505071
 21
3.588464789460234
 31
0.0
  0
LINE
  5
40A26
330
2
100
AcDbEntity
  8
HATCH
 62
     1
100
AcDbLine
 10
6.673882879228371
 20
3.635553143637896
 30
0.0
 11
6.719294525050712
 21
3.680964789460237
 31
0.0
  0
LINE
  5
40A27
330
2
100
AcDbEntity
  8
HATCH
 62
     1
100
AcDbLine
 10
6.675182872699027
 20
3.548464789460237
 30
0.0
 11
6.713882879228362
 21
3.587164795989571
 31
0.0
  0
LINE
  5
40A28
330
2
100
AcDbEntity
  8
HATCH
 62
     1
100
AcDbLine
 10
6.767682872699031
 20
3.640964789460237
 30
0.0
 11
6.833464692661573
 21
3.706746609422781
 31
0.0
  0
LINE
  5
40A29
330
2
100
AcDbEntity
  8
HATCH
 62
     1
100
AcDbLine
 10
6.828384225018734
 20
3.613277794131625
 30
0.0
 11
6.88888287922836
 21
3.673776448341249
 31
0.0
  0
VIEWPORT
  5
5D
102
{ACAD_XDICTIONARY
360
40AA0
102
}
330
D
100
AcDbEntity
 67
     1
  8
0
100
AcDbViewport
 10
5.102836672053318
 20
3.882552595148703
 30
0.0
 40
18.6064344288412
 41
7.825707361089838
 68
     1
 69
     1
 12
5.102836672053318
 22
3.882552595148703
 13
0.0
 23
0.0
 14
0.5
 24
0.5
 15
0.5
 25
0.5
 16
0.0
 26
0.0
 36
1.0
 17
0.0
 27
0.0
 37
0.0
 42
50.0
 43
0.0
 44
0.0
 45
7.825707361089838
 50
0.0
 51
0.0
 72
   100
 90
    32800
  1

281
     0
 71
     1
 74
     0
110
0.0
120
0.0
130
0.0
111
1.0
121
0.0
131
0.0
112
0.0
122
1.0
132
0.0
 79
     0
146
0.0
  0
ENDSEC
  0
SECTION
  2
OBJECTS
  0
DICTIONARY
  5
7
330
0
100
AcDbDictionary
281
     1
  3
ACAD_2007HEADERVARS_RT
350
40A9B
  3
ACAD_COLOR
350
885
  3
ACAD_FIELDLIST
350
1393
  3
ACAD_GROUP
350
24
  3
ACAD_LAYOUT
350
C
  3
ACAD_MATERIAL
350
884
  3
ACAD_MLEADERSTYLE
350
3F165
  3
ACAD_MLINESTYLE
350
25
  3
ACAD_PLOTSETTINGS
350
26
  3
ACAD_PLOTSTYLENAME
350
6
  3
ACAD_SCALELIST
350
3F153
  3
ACAD_TABLESTYLE
350
886
  3
ACAD_VISUALSTYLE
350
10B2
  3
AcadDim
350
3D116
  3
ACDB_RECOMPOSE_DATA
350
40A99
  3
AcDbVariableDictionary
350
3AC
  3
AEC_CLASSIFICATION_SYSTEM_DEFS
350
A2E
  3
AEC_PROPERTY_SET_DEFS
350
318D1
  3
ASE_INDEX_DICTIONARY
350
3D160
  3
DWGPROPS
350
40A9A
  0
DICTIONARY
  5
139C
330
1A
100
AcDbDictionary
280
     1
281
     1
  0
DICTIONARY
  5
899
330
11
100
AcDbDictionary
280
     1
281
     1
  3
ACAD_LAYERFILTERS
360
1092
  3
ACAD_LAYERSTATES
360
89A
  3
ACLYDICTIONARY
360
1091
  0
DICTIONARY
  5
3F16F
330
4
100
AcDbDictionary
280
     1
281
     1
  3
ADSK_XREC_LAYER_RECONCILED
360
3F170
  0
DICTIONARY
  5
1A62
330
1A61
100
AcDbDictionary
280
     1
281
     1
  3
ADSK_XREC_LAYER_RECONCILED
360
1A63
  0
DICTIONARY
  5
1A6E
330
1A6D
100
AcDbDictionary
280
     1
281
     1
  3
ADSK_XREC_LAYER_RECONCILED
360
1A6F
  0
DICTIONARY
  5
1A71
330
1A70
100
AcDbDictionary
280
     1
281
     1
  3
ADSK_XREC_LAYER_RECONCILED
360
1A72
  0
DICTIONARY
  5
1A7A
330
1A79
100
AcDbDictionary
280
     1
281
     1
  3
ADSK_XREC_LAYER_RECONCILED
360
1A7B
  0
DICTIONARY
  5
1A80
330
1A7F
100
AcDbDictionary
280
     1
281
     1
  3
ADSK_XREC_LAYER_RECONCILED
360
1A81
  0
DICTIONARY
  5
2FE15
330
2
100
AcDbDictionary
280
     1
281
     1
  3
ACAD_SORTENTS
360
2FE16
  0
DICTIONARY
  5
1D72
330
D
100
AcDbDictionary
280
     1
281
     1
  3
ACAD_SORTENTS
360
1D73
  0
DICTIONARY
  5
40AA0
330
5D
100
AcDbDictionary
280
     1
281
     1
  3
ACAD_XREC_ROUNDTRIP
360
40AA1
  0
DICTIONARY
  5
40A9B
102
{ACAD_REACTORS
330
7
102
}
330
7
100
AcDbDictionary
281
     1
  3
DIMARCSYM
350
40A9C
  3
INTERFEREVPVS
350
40A9D
  0
DICTIONARY
  5
885
102
{ACAD_REACTORS
330
7
102
}
330
7
100
AcDbDictionary
281
     1
  3
RAL CLASSIC$RAL 7035
350
358FF
  0
FIELDLIST
  5
1393
102
{ACAD_REACTORS
330
7
102
}
330
7
100
AcDbIdSet
 90
        0
100
AcDbFieldList
  0
DICTIONARY
  5
24
102
{ACAD_REACTORS
330
7
102
}
330
7
100
AcDbDictionary
281
     1
  3
*A1
350
27C
  3
*A2
350
27D
  3
*A3
350
398
  3
*A4
350
399
  0
DICTIONARY
  5
C
102
{ACAD_REACTORS
330
7
102
}
330
7
100
AcDbDictionary
281
     1
  3
Layout1
350
10
  3
Model
350
B
  0
DICTIONARY
  5
884
102
{ACAD_REACTORS
330
7
102
}
330
7
100
AcDbDictionary
281
     1
  3
ByBlock
350
10B0
  3
ByLayer
350
10AF
  3
Global
350
10B1
  0
DICTIONARY
  5
3F165
102
{ACAD_REACTORS
330
7
102
}
330
7
100
AcDbDictionary
281
     1
  3
Standard
350
3F166
  0
DICTIONARY
  5
25
102
{ACAD_REACTORS
330
7
102
}
330
7
100
AcDbDictionary
281
     1
  3
STANDARD
350
28
  0
DICTIONARY
  5
26
102
{ACAD_REACTORS
330
7
102
}
330
7
100
AcDbDictionary
281
     1
  3
5000N
350
1A1F
  3
Minolta
350
1A22
  3
MP80
350
294A3
  3
PDF
350
1A20
  0
ACDBDICTIONARYWDFLT
  5
6
102
{ACAD_REACTORS
330
7
102
}
330
7
100
AcDbDictionary
281
     1
  3
Normal
350
5
100
AcDbDictionaryWithDefault
340
5
  0
DICTIONARY
  5
3F153
102
{ACAD_REACTORS
330
7
102
}
330
7
100
AcDbDictionary
281
     1
  3
A0
350
3F154
  3
A1
350
3F155
  3
A2
350
3F156
  3
A3
350
3F157
  3
A4
350
3F158
  3
A5
350
3F159
  3
A6
350
3F15A
  3
A7
350
3F15B
  3
A8
350
3F15C
  3
A9
350
3F15D
  3
B0
350
3F15E
  3
B1
350
3F15F
  3
B2
350
3F160
  3
B3
350
3F161
  3
B4
350
3F162
  3
B5
350
3F163
  3
B6
350
3F164
  0
DICTIONARY
  5
886
102
{ACAD_REACTORS
330
7
102
}
330
7
100
AcDbDictionary
281
     1
  3
Standard
350
887
  0
DICTIONARY
  5
10B2
102
{ACAD_REACTORS
330
7
102
}
330
7
100
AcDbDictionary
281
     1
  3
2dWireframe
350
10B8
  3
3D Hidden
350
3F1AF
  3
3dWireframe
350
1D50
  3
Basic
350
10B7
  3
Brighten
350
10BE
  3
ColorChange
350
10C2
  3
Conceptual
350
3F14A
  3
Dim
350
10BD
  3
EdgeColorOff
350
3F152
  3
Facepattern
350
10C1
  3
Flat
350
10B3
  3
FlatWithEdges
350
10B4
  3
Gouraud
350
10B5
  3
GouraudWithEdges
350
10B6
  3
Hidden
350
3F149
  3
JitterOff
350
3F150
  3
Linepattern
350
10C0
  3
OverhangOff
350
3F151
  3
Realistic
350
1D52
  3
Shaded
350
3F14F
  3
Shaded with edges
350
3F14E
  3
Shades of Gray
350
3F14B
  3
Sketchy
350
3F14C
  3
Thicken
350
10BF
  3
Wireframe
350
3F148
  3
X-Ray
350
3F14D
  0
XRECORD
  5
3D116
102
{ACAD_REACTORS
330
7
102
}
330
7
100
AcDbXrecord
280
     1
 90
   990106
  3

 60
     0
 61
     0
 62
     1
 63
     1
 64
     0
 65
     0
 66
     1
 67
     3
 68
     0
 69
     0
 70
     0
 71
     0
 72
     0
 40
0.0
170
     1
340
0
  0
XRECORD
  5
40A99
102
{ACAD_REACTORS
330
7
102
}
330
7
100
AcDbXrecord
280
     1
 90
        1
330
887
  0
DICTIONARY
  5
3AC
102
{ACAD_REACTORS
330
7
102
}
330
7
100
AcDbDictionary
281
     1
  3
CANNOSCALE
350
3F193
  3
CMLEADERSTYLE
350
3F191
  3
CTABLESTYLE
350
89F
  3
DIMASSOC
350
3AD
  3
DRAWORDERCTL
350
40A96
  3
INDEXCTL
350
40A3E
  3
LAYEREVAL
350
3F195
  3
LAYERNOTIFY
350
3F196
  3
LIGHTINGUNITS
350
3F194
  3
MSLTSCALE
350
3F192
  3
SORTENTS
350
40A3D
  3
XCLIPFRAME
350
40A97
  0
DICTIONARY
  5
A2E
102
{ACAD_REACTORS
330
7
102
}
330
7
100
AcDbDictionary
281
     1
  0
DICTIONARY
  5
318D1
102
{ACAD_REACTORS
330
7
102
}
330
7
100
AcDbDictionary
281
     1
  0
DICTIONARY
  5
3D160
102
{ACAD_REACTORS
330
7
102
}
330
7
100
AcDbDictionary
281
     1
  3
ASEBlockHierarchyIndexRecord
350
3D161
1001
DCO15
1040
1639394857.202
  0
XRECORD
  5
40A9A
102
{ACAD_REACTORS
330
7
102
}
330
7
100
AcDbXrecord
280
     1
  1
DWGPROPS COOKIE
  2

  3

  4

  6

  7

  8
afrazier
  9

300
=
301
=
302
=
303
=
304
=
305
=
306
=
307
=
308
=
309
=
 40
1.650895914351851
 41
2451225.345284028
 42
2456317.603474155
  1

 90
        0
  0
DICTIONARY
  5
1092
102
{ACAD_REACTORS
330
899
102
}
330
899
100
AcDbDictionary
281
     1
  0
DICTIONARY
  5
89A
102
{ACAD_REACTORS
330
899
102
}
330
899
100
AcDbDictionary
281
     1
  0
DICTIONARY
  5
1091
102
{ACAD_REACTORS
330
899
102
}
330
899
100
AcDbDictionary
281
     1
1001
ACAD
1000
<All
  0
XRECORD
  5
3F170
102
{ACAD_REACTORS
330
3F16F
102
}
330
3F16F
100
AcDbXrecord
280
     1
290
     1
  0
XRECORD
  5
1A63
102
{ACAD_REACTORS
330
1A62
102
}
330
1A62
100
AcDbXrecord
280
     1
290
     1
  0
XRECORD
  5
1A6F
102
{ACAD_REACTORS
330
1A6E
102
}
330
1A6E
100
AcDbXrecord
280
     1
290
     1
  0
XRECORD
  5
1A72
102
{ACAD_REACTORS
330
1A71
102
}
330
1A71
100
AcDbXrecord
280
     1
290
     1
  0
XRECORD
  5
1A7B
102
{ACAD_REACTORS
330
1A7A
102
}
330
1A7A
100
AcDbXrecord
280
     1
290
     1
  0
XRECORD
  5
1A81
102
{ACAD_REACTORS
330
1A80
102
}
330
1A80
100
AcDbXrecord
280
     1
290
     1
  0
SORTENTSTABLE
  5
2FE16
102
{ACAD_REACTORS
330
2FE15
102
}
330
2FE15
100
AcDbSortentsTable
330
2
331
3F136
  5
408E9
331
3F132
  5
408E5
331
4088C
  5
40873
331
408C7
  5
407E7
331
3F12E
  5
408E1
331
4079D
  5
409D2
331
40888
  5
4086F
331
408C3
  5
407E3
331
3F12A
  5
408DD
331
40799
  5
409CE
331
40884
  5
4086B
331
40880
  5
40867
331
3F09C
  5
409EC
331
3F0F7
  5
40A19
331
407D4
  5
409B4
331
3F01C
  5
40992
331
4080F
  5
40911
331
3F0F3
  5
40A15
331
407D0
  5
409B0
331
407CC
  5
409AC
331
4080B
  5
4090D
331
407C8
  5
409A8
331
409C7
  5
3F0B7
331
4094D
  5
40892
331
40949
  5
4088E
331
409C3
  5
3F0B3
331
409FE
  5
3F11B
331
40945
  5
4088A
331
40984
  5
407A2
331
409BF
  5
3F0AF
331
409FA
  5
3F117
331
40941
  5
40886
331
40980
  5
4079E
331
409BB
  5
3F0AB
331
40795
  5
409CA
331
408BF
  5
407DF
331
3F126
  5
408D9
331
3F122
  5
408D5
331
40791
  5
409C6
331
4087C
  5
40863
331
408BB
  5
407DB
331
3F11E
  5
408D1
331
4078D
  5
409C2
331
40878
  5
4085F
331
408B7
  5
407D7
331
408B3
  5
407D3
331
3F11A
  5
408CD
331
3F0EF
  5
40A11
331
40789
  5
409BE
331
40807
  5
40909
331
3F0EB
  5
40A0D
331
407C4
  5
409A4
331
40803
  5
40905
331
3E1A4
  5
4085D
331
407FF
  5
40901
331
3F0E3
  5
40A0A
331
407C0
  5
409A0
331
407BC
  5
4099C
331
407FB
  5
408FD
331
407B8
  5
40998
331
40A29
  5
4078B
331
40A25
  5
40786
331
40A21
  5
40782
331
4097C
  5
4079A
331
409B7
  5
3F0A7
331
409F6
  5
3F113
331
4093D
  5
40882
331
40939
  5
4085A
331
40978
  5
40796
331
409B3
  5
3F0A3
331
409F2
  5
3F0F2
331
40935
  5
40856
331
40974
  5
40792
331
409AF
  5
3F09F
331
409EE
  5
3F0EE
331
409EA
  5
3F0EA
331
40931
  5
40852
331
40970
  5
4078E
331
409AB
  5
3F09B
331
40785
  5
409BA
331
408AF
  5
407CF
331
3F116
  5
408C9
331
40781
  5
409B6
331
408AB
  5
407CB
331
3F112
  5
408C5
331
3F10E
  5
408C1
331
4077D
  5
40A27
331
40828
  5
4092A
331
408A7
  5
407C7
331
408A3
  5
407C2
331
3F10A
  5
408BD
331
3F0DF
  5
40A06
331
40824
  5
40926
331
40820
  5
40922
331
407F7
  5
408F9
331
3F0DB
  5
40A02
331
407B4
  5
40994
331
407F3
  5
408F5
331
407EF
  5
408F1
331
3F0BB
  5
409FF
331
407B0
  5
409E5
331
407AC
  5
409E1
331
407EB
  5
40990
331
407A8
  5
409DD
331
40A1D
  5
4077E
331
40A19
  5
4077A
331
40A15
  5
3F137
331
40A11
  5
3F133
331
4096C
  5
408B1
331
409A7
  5
3F01F
331
409E6
  5
3F0E6
331
4092D
  5
4084E
331
40968
  5
408AD
331
409A3
  5
3F01B
331
409E2
  5
3F0D6
331
40929
  5
4084A
331
40925
  5
40846
331
40964
  5
408A9
331
4099F
  5
3E2AF
331
409DE
  5
3F0D2
331
409DA
  5
3F0CB
331
40960
  5
408A5
331
4099B
  5
3E212
331
4089F
  5
407BE
331
3F106
  5
408B9
331
4081C
  5
4091E
331
4089B
  5
407BA
331
3F102
  5
408B5
331
3F0FE
  5
40A20
331
40818
  5
4091A
331
40897
  5
4087E
331
40893
  5
4087A
331
3F0FA
  5
40A1C
331
3F139
  5
408EC
331
3F0B7
  5
409FB
331
40814
  5
40916
331
40810
  5
40912
331
407E7
  5
4098C
331
3F0B3
  5
409F7
331
3F0AF
  5
409F3
331
407A4
  5
409D9
331
407E3
  5
40988
331
407DF
  5
40984
331
3F0AB
  5
409EF
331
407A0
  5
409D5
331
407DB
  5
40980
331
40A0D
  5
3F12F
331
40A09
  5
3F12B
331
40A05
  5
3F127
331
40A01
  5
3F123
331
40997
  5
407B5
331
409D6
  5
3F0C6
331
408D5
  5
407F5
331
4095C
  5
408A1
331
40958
  5
4089D
331
40993
  5
407B1
331
409D2
  5
3F0C2
331
408D1
  5
407F1
331
408CD
  5
407ED
331
40954
  5
40899
331
4098F
  5
407AD
331
409CE
  5
3F0BE
331
409CA
  5
3F0BA
331
408C9
  5
407E9
331
40950
  5
40895
331
4098B
  5
407A9
331
4088F
  5
40876
331
3F135
  5
408E8
331
3F131
  5
408E4
331
4088B
  5
40872
331
408C6
  5
407E6
331
3F12D
  5
408E0
331
4079C
  5
409D1
331
40887
  5
4086E
331
40883
  5
4086A
331
408C2
  5
407E2
331
3F129
  5
408DC
331
40798
  5
409CD
331
407D7
  5
4097C
331
3F09B
  5
409EB
331
3F0F6
  5
40A18
331
407D3
  5
409B3
331
3F01F
  5
409E8
331
3F01B
  5
40991
331
407CF
  5
409AF
331
4080E
  5
40910
331
3F0F2
  5
40A14
331
407CB
  5
409AB
331
4080A
  5
4090C
331
409C6
  5
3F0B6
331
4094C
  5
40891
331
40948
  5
4088D
331
40987
  5
407A5
331
409C2
  5
3F0B2
331
409FD
  5
3F11A
331
40944
  5
40889
331
40983
  5
407A1
331
409BE
  5
3F0AE
331
409BA
  5
3F0AA
331
409F9
  5
3F116
331
40940
  5
40885
331
40794
  5
409C9
331
4087F
  5
40866
331
408BE
  5
407DE
331
3F125
  5
408D8
331
3F121
  5
408D4
331
40790
  5
409C5
331
4087B
  5
40862
331
408BA
  5
407DA
331
408B6
  5
407D6
331
3F11D
  5
408D0
331
4078C
  5
409C1
331
40877
  5
4085E
331
408B2
  5
407D2
331
3F119
  5
408CC
331
3F0EE
  5
40A10
331
40788
  5
409BD
331
407C7
  5
409A7
331
40806
  5
40908
331
3F0EA
  5
40A0C
331
40802
  5
40904
331
407C3
  5
409A3
331
3E1A3
  5
4085C
331
407FE
  5
40900
331
3F0E2
  5
40A09
331
407BF
  5
4099F
331
407BB
  5
4099B
331
407FA
  5
408FC
331
40A28
  5
4078A
331
40A24
  5
40785
331
40A20
  5
40781
331
4097F
  5
4079D
331
4097B
  5
40799
331
409B6
  5
3F0A6
331
409F5
  5
3F112
331
4093C
  5
40881
331
40938
  5
40859
331
40977
  5
40795
331
409B2
  5
3F0A2
331
409F1
  5
3F0F1
331
409ED
  5
3F0ED
331
40934
  5
40855
331
40973
  5
40791
331
409AE
  5
3F09E
331
409E9
  5
3F0E9
331
40930
  5
40851
331
409AA
  5
3F09A
331
40784
  5
409B9
331
408AE
  5
407CE
331
3F115
  5
408C8
331
3F111
  5
408C4
331
40780
  5
409B5
331
408AA
  5
407CA
331
3F10D
  5
408C0
331
4077C
  5
40A26
331
40827
  5
40929
331
408A6
  5
407C6
331
408A2
  5
407C1
331
3F109
  5
408BC
331
3F0DE
  5
40A05
331
40823
  5
40925
331
407B7
  5
40997
331
407F6
  5
408F8
331
3F0DA
  5
40A01
331
407B3
  5
40993
331
407F2
  5
408F4
331
407EE
  5
408F0
331
3F0BA
  5
409FE
331
407AF
  5
409E4
331
407AB
  5
409E0
331
407EA
  5
4098F
331
40A1C
  5
4077D
331
40A18
  5
40777
331
40A14
  5
3F136
331
40A10
  5
3F132
331
4096F
  5
4078D
331
4096B
  5
408B0
331
409A6
  5
3F01E
331
409E5
  5
3F0E5
331
4092C
  5
4084D
331
40928
  5
40849
331
40967
  5
408AC
331
409A2
  5
3F01A
331
409E1
  5
3F0D5
331
40924
  5
40845
331
40963
  5
408A8
331
4099E
  5
3E29E
331
409DD
  5
3F0D1
331
409D9
  5
3F0C9
331
4099A
  5
3E20E
331
4081F
  5
40921
331
4089E
  5
407BD
331
3F105
  5
408B8
331
4081B
  5
4091D
331
4089A
  5
407B9
331
3F101
  5
408B4
331
3F0FD
  5
40A1F
331
40817
  5
40919
331
40896
  5
4087D
331
40892
  5
40879
331
3F0F9
  5
40A1B
331
3F138
  5
408EB
331
3F0B6
  5
409FA
331
40813
  5
40915
331
407A7
  5
409DC
331
407E6
  5
4098B
331
3F0B2
  5
409F6
331
3F0AE
  5
409F2
331
407A3
  5
409D8
331
407E2
  5
40987
331
407DE
  5
40983
331
407DA
  5
4097F
331
40A0C
  5
3F12E
331
40A08
  5
3F12A
331
40A04
  5
3F126
331
40A00
  5
3F122
331
4095F
  5
408A4
331
4095B
  5
408A0
331
40996
  5
407B4
331
409D5
  5
3F0C5
331
408D4
  5
407F4
331
40957
  5
4089C
331
40992
  5
407B0
331
409D1
  5
3F0C1
331
408D0
  5
407F0
331
408CC
  5
407EC
331
40953
  5
40898
331
4098E
  5
407AC
331
409CD
  5
3F0BD
331
409C9
  5
3F0B9
331
408C8
  5
407E8
331
4098A
  5
407A8
331
4088E
  5
40875
331
3F134
  5
408E7
331
3F130
  5
408E3
331
4079F
  5
409D4
331
4088A
  5
40871
331
408C5
  5
407E5
331
3F12C
  5
408DF
331
4079B
  5
409D0
331
40886
  5
4086D
331
40882
  5
40869
331
408C1
  5
407E1
331
3F09E
  5
409EE
331
3F128
  5
408DB
331
407D6
  5
4097B
331
3F09A
  5
409EA
331
3F0F5
  5
40A17
331
407D2
  5
409B2
331
407CE
  5
409AE
331
4080D
  5
4090F
331
3F0F1
  5
40A13
331
407CA
  5
409AA
331
40809
  5
4090B
331
4094F
  5
40894
331
409C5
  5
3F0B5
331
4094B
  5
40890
331
40947
  5
4088C
331
40986
  5
407A4
331
409C1
  5
3F0B1
331
409FC
  5
3F119
331
40943
  5
40888
331
40982
  5
407A0
331
409BD
  5
3F0AD
331
409B9
  5
3F0A9
331
409F8
  5
3F115
331
40797
  5
409CC
331
40793
  5
409C8
331
4087E
  5
40865
331
408BD
  5
407DD
331
3F124
  5
408D7
331
3F120
  5
408D3
331
4078F
  5
409C4
331
4087A
  5
40861
331
408B9
  5
407D9
331
408B5
  5
407D5
331
3F11C
  5
408CF
331
4078B
  5
409C0
331
408B1
  5
407D1
331
3F118
  5
408CB
331
3E20E
  5
408B3
331
3F0ED
  5
40A0F
331
3F0E9
  5
40A0B
331
407C6
  5
409A6
331
40805
  5
40907
331
40801
  5
40903
331
407C2
  5
409A2
331
3E1A2
  5
40844
331
407BE
  5
4099E
331
407FD
  5
408FF
331
3F0E1
  5
40A08
331
407BA
  5
4099A
331
407F9
  5
408FB
331
40A27
  5
40789
331
40A23
  5
40784
331
4093F
  5
40884
331
4097E
  5
4079C
331
4097A
  5
40798
331
409B5
  5
3F0A5
331
409F4
  5
3F0F4
331
4093B
  5
40880
331
40937
  5
40858
331
40976
  5
40794
331
409B1
  5
3F0A1
331
409F0
  5
3F0F0
331
409EC
  5
3F0EC
331
40933
  5
40854
331
40972
  5
40790
331
409AD
  5
3F09D
331
409A9
  5
3F099
331
409E8
  5
3F0E8
331
40787
  5
409BC
331
40783
  5
409B8
331
408AD
  5
407CD
331
3F114
  5
408C7
331
3F110
  5
408C3
331
4077F
  5
40A29
331
408A9
  5
407C9
331
408A5
  5
407C5
331
3F10C
  5
408BF
331
4077B
  5
40A25
331
40826
  5
40928
331
408A1
  5
407C0
331
3F108
  5
408BB
331
3F0DD
  5
40A04
331
40822
  5
40924
331
407B6
  5
40996
331
407F5
  5
408F7
331
3F0D9
  5
40A00
331
407F1
  5
408F3
331
407B2
  5
409E7
331
407ED
  5
408EF
331
3F0B9
  5
409FD
331
407AE
  5
409E3
331
407AA
  5
409DF
331
407E9
  5
4098E
331
40A1F
  5
40780
331
40A1B
  5
4077C
331
40A17
  5
3F139
331
40A13
  5
3F135
331
4092F
  5
40850
331
4096E
  5
4078C
331
4096A
  5
408AF
331
409A5
  5
3F01D
331
409E4
  5
3F0E4
331
4092B
  5
4084C
331
40927
  5
40848
331
40966
  5
408AB
331
409A1
  5
3F019
331
409E0
  5
3F0D4
331
409DC
  5
3F0CE
331
40962
  5
408A7
331
4099D
  5
3E214
331
409D8
  5
3F0C8
331
40999
  5
407B7
331
40777
  5
40A23
331
4081E
  5
40920
331
4089D
  5
407BC
331
3F104
  5
408B7
331
3F100
  5
40A22
331
4081A
  5
4091C
331
40899
  5
407B8
331
3F0FC
  5
40A1E
331
40816
  5
40918
331
40895
  5
4087C
331
40891
  5
40878
331
3F0F8
  5
40A1A
331
3F0B5
  5
409F9
331
40812
  5
40914
331
407A6
  5
409DB
331
407E5
  5
4098A
331
3F0B1
  5
409F5
331
3F0AD
  5
409F1
331
407A2
  5
409D7
331
407E1
  5
40986
331
407DD
  5
40982
331
407D9
  5
4097E
331
40A0F
  5
3F131
331
40A0B
  5
3F12D
331
40A07
  5
3F129
331
40A03
  5
3F125
331
4095E
  5
408A3
331
4095A
  5
4089F
331
40995
  5
407B3
331
409D4
  5
3F0C4
331
408D3
  5
407F3
331
408CF
  5
407EF
331
40956
  5
4089B
331
40991
  5
407AF
331
409D0
  5
3F0C0
331
408CB
  5
407EB
331
40952
  5
40897
331
4098D
  5
407AB
331
409CC
  5
3F0BC
331
409C8
  5
3F0B8
331
40989
  5
407A7
331
3F137
  5
408EA
331
3F133
  5
408E6
331
4088D
  5
40874
331
3F12F
  5
408E2
331
4079E
  5
409D3
331
40889
  5
40870
331
408C4
  5
407E4
331
3F12B
  5
408DE
331
4079A
  5
409CF
331
40885
  5
4086C
331
40881
  5
40868
331
408C0
  5
407E0
331
3F09D
  5
409ED
331
407D5
  5
4097A
331
3F099
  5
409E9
331
3F0F4
  5
40A16
331
407D1
  5
409B1
331
3F019
  5
40979
331
407CD
  5
409AD
331
4080C
  5
4090E
331
3F0F0
  5
40A12
331
407C9
  5
409A9
331
40808
  5
4090A
331
4094E
  5
40893
331
4094A
  5
4088F
331
409C4
  5
3F0B4
331
40946
  5
4088B
331
40985
  5
407A3
331
409C0
  5
3F0B0
331
409FF
  5
3F11C
331
409FB
  5
3F118
331
40942
  5
40887
331
40981
  5
4079F
331
409BC
  5
3F0AC
331
409B8
  5
3F0A8
331
40796
  5
409CB
331
3F127
  5
408DA
331
40792
  5
409C7
331
4087D
  5
40864
331
408BC
  5
407DC
331
3F123
  5
408D6
331
3F11F
  5
408D2
331
4078E
  5
409C3
331
40879
  5
40860
331
408B8
  5
407D8
331
408B4
  5
407D4
331
3F11B
  5
408CE
331
4078A
  5
409BF
331
408B0
  5
407D0
331
3F0EC
  5
40A0E
331
407C5
  5
409A5
331
40804
  5
40906
331
40800
  5
40902
331
407C1
  5
409A1
331
407BD
  5
4099D
331
407FC
  5
408FE
331
3F0E0
  5
40A07
331
407B9
  5
40999
331
407F8
  5
408FA
331
40A26
  5
40788
331
40A22
  5
40783
331
4097D
  5
4079B
331
409F7
  5
3F114
331
4093E
  5
40883
331
40979
  5
40797
331
409B4
  5
3F0A4
331
409F3
  5
3F0F3
331
4093A
  5
4085B
331
40936
  5
40857
331
40975
  5
40793
331
409B0
  5
3F0A0
331
409EF
  5
3F0EF
331
409EB
  5
3F0EB
331
40932
  5
40853
331
40971
  5
4078F
331
409AC
  5
3F09C
331
409A8
  5
3F065
331
3F117
  5
408CA
331
40786
  5
409BB
331
40782
  5
409B7
331
408AC
  5
407CC
331
3F113
  5
408C6
331
3F10F
  5
408C2
331
4077E
  5
40A28
331
40829
  5
4092B
331
408A8
  5
407C8
331
408A4
  5
407C4
331
3F10B
  5
408BE
331
4077A
  5
40A24
331
40825
  5
40927
331
40821
  5
40923
331
408A0
  5
407BF
331
3F0DC
  5
40A03
331
407B5
  5
40995
331
407F4
  5
408F6
331
407F0
  5
408F2
331
407B1
  5
409E6
331
407AD
  5
409E2
331
407EC
  5
408EE
331
3F0B8
  5
409FC
331
407A9
  5
409DE
331
407E8
  5
4098D
331
40A1E
  5
4077F
331
40A1A
  5
4077B
331
40A16
  5
3F138
331
40A12
  5
3F134
331
409E7
  5
3F0E7
331
4092E
  5
4084F
331
4096D
  5
408B2
331
40969
  5
408AE
331
409A4
  5
3F01C
331
409E3
  5
3F0D7
331
4092A
  5
4084B
331
40926
  5
40847
331
40965
  5
408AA
331
409A0
  5
3F018
331
409DF
  5
3F0D3
331
409DB
  5
3F0CD
331
40961
  5
408A6
331
4099C
  5
3E213
331
40998
  5
407B6
331
3F107
  5
408BA
331
4081D
  5
4091F
331
4089C
  5
407BB
331
3F103
  5
408B6
331
3F0FF
  5
40A21
331
40819
  5
4091B
331
40898
  5
4087F
331
40894
  5
4087B
331
3F0FB
  5
40A1D
331
3F13A
  5
408ED
331
40815
  5
40917
331
40890
  5
40877
331
3F0B4
  5
409F8
331
40811
  5
40913
331
407A5
  5
409DA
331
407E4
  5
40989
331
3F0B0
  5
409F4
331
407E0
  5
40985
331
3F0AC
  5
409F0
331
407A1
  5
409D6
331
407DC
  5
40981
331
407D8
  5
4097D
331
40A0E
  5
3F130
331
40A0A
  5
3F12C
331
40A06
  5
3F128
331
40A02
  5
3F124
331
409D7
  5
3F0C7
331
408D6
  5
407F6
331
4095D
  5
408A2
331
40959
  5
4089E
331
40994
  5
407B2
331
409D3
  5
3F0C3
331
408D2
  5
407F2
331
408CE
  5
407EE
331
40955
  5
4089A
331
40990
  5
407AE
331
409CF
  5
3F0BF
331
409CB
  5
3F0BB
331
408CA
  5
407EA
331
40951
  5
40896
331
4098C
  5
407AA
331
40988
  5
407A6
  0
SORTENTSTABLE
  5
1D73
102
{ACAD_REACTORS
330
1D72
102
}
330
1D72
100
AcDbSortentsTable
330
D
331
5D
  5
5D
  0
XRECORD
  5
40AA1
102
{ACAD_REACTORS
330
40AA0
102
}
330
40AA0
100
AcDbXrecord
280
     1
102
SHADEPLOT
 70
     0
  0
XRECORD
  5
40A9C
102
{ACAD_REACTORS
330
40A9B
102
}
330
40A9B
100
AcDbXrecord
280
     1
 70
     1
  0
XRECORD
  5
40A9D
102
{ACAD_REACTORS
330
40A9B
102
}
330
40A9B
100
AcDbXrecord
280
     1
340
1D50
  0
DBCOLOR
  5
358FF
102
{ACAD_REACTORS
330
885
102
}
330
885
100
AcDbColor
  0
GROUP
  5
27C
102
{ACAD_REACTORS
330
24
102
}
330
24
100
AcDbGroup
300

 70
     3
 71
     1
  0
GROUP
  5
27D
102
{ACAD_REACTORS
330
24
102
}
330
24
100
AcDbGroup
300

 70
     3
 71
     1
  0
GROUP
  5
398
102
{ACAD_REACTORS
330
24
102
}
330
24
100
AcDbGroup
300

 70
     3
 71
     1
  0
GROUP
  5
399
102
{ACAD_REACTORS
330
24
102
}
330
24
100
AcDbGroup
300

 70
     3
 71
     1
  0
LAYOUT
  5
10
102
{ACAD_XDICTIONARY
360
89C
102
}
102
{ACAD_REACTORS
330
C
102
}
330
C
100
AcDbPlotSettings
  1
5000N
  2
HP 5000 N
  4
Letter
  6

 40
4.233333110809326
 41
4.233341693878172
 42
4.233322143554686
 43
4.23333740234375
 44
215.8999938964844
 45
279.3999938964844
 46
5.103963199587251
 47
5.863157400131249
 48
0.0
 49
0.0
140
10.205
141
7.764780009564798
142
1.0
143
1.0
 70
   692
 72
     0
 73
     1
 74
     4
  7
GORDON-BLK.ctb
 75
    16
147
1.0
148
0.0
149
0.0
100
AcDbLayout
  1
Layout1
 70
     1
 71
     1
 10
-0.2079161059762549
 20
-0.2079166691697489
 11
10.79208365372785
 21
8.29208309053436
 12
0.0
 22
0.0
 32
0.0
 14
0.0
 24
0.0
 34
0.0
 15
10.205
 25
7.764780009564798
 35
0.0
146
0.0
 13
0.0
 23
0.0
 33
0.0
 16
1.0
 26
0.0
 36
0.0
 17
0.0
 27
1.0
 37
0.0
 76
     0
330
D
331
5D
1001
ACAD_PSEXT
1000
HP 5000 N
1000
HP LaserJet 5100 PCL 6
1000
IP_192.168.100.208
1000

1070
     0
  0
LAYOUT
  5
B
102
{ACAD_XDICTIONARY
360
40A31
102
}
102
{ACAD_REACTORS
330
C
102
}
330
C
100
AcDbPlotSettings
  1

  2
HP 5000 N
  4
Letter
  6

 40
4.233333110809326
 41
4.233341693878172
 42
4.233322143554686
 43
4.23333740234375
 44
215.8999938964844
 45
279.3999938964844
 46
0.0
 47
0.0
 48
84.98235853963416
 49
22.7152768375583
140
100.3250891901834
141
34.6700903705237
142
1.0
143
1.463854680858243
 70
 11952
 72
     0
 73
     1
 74
     4
  7
5000N-BLACK.ctb
 75
     0
147
0.6831279177340947
148
-2158.551906906708
149
-576.9680316739806
100
AcDbLayout
  1
Model
 70
     1
 71
     0
 10
0.0
 20
0.0
 11
12.0
 21
9.0
 12
0.0
 22
0.0
 32
0.0
 14
0.0
 24
0.0
 34
0.0
 15
0.0
 25
0.0
 35
0.0
146
0.0
 13
0.0
 23
0.0
 33
0.0
 16
1.0
 26
0.0
 36
0.0
 17
0.0
 27
1.0
 37
0.0
 76
     0
330
2
331
882
1001
ACAD_PSEXT
1000
HP 5000 N
1000
HP LaserJet 5100 PCL 6
1000
IP_192.168.100.208
1000

1070
     0
  0
MATERIAL
  5
10B0
102
{ACAD_XDICTIONARY
360
40A4E
102
}
102
{ACAD_REACTORS
330
884
102
}
330
884
100
AcDbMaterial
  1
ByBlock
 73
     1
 78
     1
172
     1
176
     1
270
     1
274
     1
  0
MATERIAL
  5
10AF
102
{ACAD_XDICTIONARY
360
40A4C
102
}
102
{ACAD_REACTORS
330
884
102
}
330
884
100
AcDbMaterial
  1
ByLayer
 73
     1
 78
     1
172
     1
176
     1
270
     1
274
     1
  0
MATERIAL
  5
10B1
102
{ACAD_XDICTIONARY
360
40A50
102
}
102
{ACAD_REACTORS
330
884
102
}
330
884
100
AcDbMaterial
  1
Global
 73
     1
 78
     1
172
     1
176
     1
270
     1
274
     1
  0
MLEADERSTYLE
  5
3F166
102
{ACAD_REACTORS
330
3F165
102
}
330
3F165
100
AcDbMLeaderStyle
170
     2
171
     1
172
     0
 90
        2
 40
0.0
 41
0.0
173
     1
 91
-1056964608
340
16
 92
       -2
290
     1
 42
0.09
291
     1
 43
0.36
  3
Standard
 44
0.18
300

342
13
174
     1
178
     6
175
     1
176
     0
 93
-1056964608
 45
0.18
292
     0
297
     0
 46
0.18
 94
-1056964608
 47
1.0
 49
1.0
140
1.0
293
     1
141
0.0
294
     1
177
     0
142
1.0
295
     0
296
     0
143
0.125
1001
ACAD_MLEADERVER
1070
     2
  0
MLINESTYLE
  5
28
102
{ACAD_REACTORS
330
25
102
}
330
25
100
AcDbMlineStyle
  2
STANDARD
 70
     0
  3

 62
   256
 51
90.0
 52
90.0
 71
     2
 49
0.5
 62
   256
  6
BYLAYER
 49
-0.5
 62
   256
  6
BYLAYER
  0
PLOTSETTINGS
  5
1A1F
102
{ACAD_XDICTIONARY
360
40ABB
102
}
102
{ACAD_REACTORS
330
26
102
}
330
26
100
AcDbPlotSettings
  1
5000N
  2
HP 5000 N
  4
Letter
  6

 40
4.233333110809326
 41
4.233341693878172
 42
4.233322143554686
 43
4.23333740234375
 44
215.8999938964844
 45
279.3999938964844
 46
5.103963199587251
 47
5.863157400131249
 48
0.0
 49
0.0
140
10.205
141
7.764780009564798
142
1.0
143
1.0
 70
  2740
 72
     0
 73
     1
 74
     4
  7
GORDON-BLK.ctb
 75
    16
147
1.0
148
0.0
149
0.0
1001
ACAD_PSEXT
1000
HP 5000 N
1000
HP LaserJet 5100 PCL 6
1000
IP_192.168.100.208
1000

1070
     0
  0
PLOTSETTINGS
  5
1A22
102
{ACAD_XDICTIONARY
360
40ABF
102
}
102
{ACAD_REACTORS
330
26
102
}
330
26
100
AcDbPlotSettings
  1
Minolta
  2
\\User-server\Minolta
  4
Letter
  6

 40
6.085416316986081
 41
6.085421085357666
 42
6.085403442382812
 43
6.085418701171875
 44
215.8999938964844
 45
279.3999938964844
 46
3.251880947084776
 47
4.011077054977445
 48
0.0
 49
0.0
140
10.205
141
7.764780009564798
142
1.0
143
1.0
 70
  2740
 72
     0
 73
     1
 74
     4
  7
GORDON-BLK.ctb
 75
    16
147
1.0
148
0.0
149
0.0
1001
ACAD_PSEXT
1000
\\User-server\Minolta
1000
CopierBW Ver 1.1
1000
\\User-server
1000

1070
     0
  0
PLOTSETTINGS
  5
294A3
102
{ACAD_XDICTIONARY
360
40AC5
102
}
102
{ACAD_REACTORS
330
26
102
}
330
26
100
AcDbPlotSettings
  1
MP80
  2
\\exchange-server\MP80
  4
Letter
  6

 40
5.027082920074462
 41
5.027085781097412
 42
5.027069091796875
 43
5.027069091796875
 44
215.8999938964844
 45
279.3999938964844
 46
4.310214820833584
 47
5.069419511795068
 48
0.0
 49
0.0
140
10.205
141
7.764780009564798
142
1.0
143
1.0
 70
  2740
 72
     0
 73
     1
 74
     4
  7
GORDON-BLK.ctb
 75
    16
147
1.0
148
0.0
149
0.0
1001
ACAD_PSEXT
1000
\\exchange-server\MP80
1000
LANIER MP 8000/LD280 PCL 6
1000
\\exchange-server
1000

1070
     0
  0
PLOTSETTINGS
  5
1A20
102
{ACAD_XDICTIONARY
360
40ABD
102
}
102
{ACAD_REACTORS
330
26
102
}
330
26
100
AcDbPlotSettings
  1
PDF
  2
Acrobat PDFWriter
  4
Letter
  6

 40
3.174999952316283
 41
3.174999952316283
 42
3.175003051757812
 43
3.17498779296875
 44
215.8999938964844
 45
279.3999938964844
 46
6.162289324732188
 47
6.921503075599713
 48
0.0
 49
0.0
140
10.205
141
7.764780009564798
142
1.0
143
1.0
 70
  2740
 72
     0
 73
     1
 74
     4
  7
GORDON-BLK.ctb
 75
    16
147
1.0
148
0.0
149
0.0
1001
ACAD_PSEXT
1000
Acrobat PDFWriter
1000
Adobe PDF Converter
1000
My Documents
1000
Creates Adobe PDF
1070
     0
  0
ACDBPLACEHOLDER
  5
5
102
{ACAD_REACTORS
330
6
102
}
330
6
  0
SCALE
  5
3F154
102
{ACAD_REACTORS
330
3F153
102
}
330
3F153
100
AcDbScale
 70
     0
300
1:1
140
1.0
141
1.0
290
     1
  0
SCALE
  5
3F155
102
{ACAD_REACTORS
330
3F153
102
}
330
3F153
100
AcDbScale
 70
     0
300
1/128" = 1'-0"
140
0.0078125
141
12.0
290
     0
  0
SCALE
  5
3F156
102
{ACAD_REACTORS
330
3F153
102
}
330
3F153
100
AcDbScale
 70
     0
300
1/64" = 1'-0"
140
0.015625
141
12.0
290
     0
  0
SCALE
  5
3F157
102
{ACAD_REACTORS
330
3F153
102
}
330
3F153
100
AcDbScale
 70
     0
300
1/32" = 1'-0"
140
0.03125
141
12.0
290
     0
  0
SCALE
  5
3F158
102
{ACAD_REACTORS
330
3F153
102
}
330
3F153
100
AcDbScale
 70
     0
300
1/16" = 1'-0"
140
0.0625
141
12.0
290
     0
  0
SCALE
  5
3F159
102
{ACAD_REACTORS
330
3F153
102
}
330
3F153
100
AcDbScale
 70
     0
300
3/32" = 1'-0"
140
0.09375
141
12.0
290
     0
  0
SCALE
  5
3F15A
102
{ACAD_REACTORS
330
3F153
102
}
330
3F153
100
AcDbScale
 70
     0
300
1/8" = 1'-0"
140
0.125
141
12.0
290
     0
  0
SCALE
  5
3F15B
102
{ACAD_REACTORS
330
3F153
102
}
330
3F153
100
AcDbScale
 70
     0
300
3/16" = 1'-0"
140
0.1875
141
12.0
290
     0
  0
SCALE
  5
3F15C
102
{ACAD_REACTORS
330
3F153
102
}
330
3F153
100
AcDbScale
 70
     0
300
1/4" = 1'-0"
140
0.25
141
12.0
290
     0
  0
SCALE
  5
3F15D
102
{ACAD_REACTORS
330
3F153
102
}
330
3F153
100
AcDbScale
 70
     0
300
3/8" = 1'-0"
140
0.375
141
12.0
290
     0
  0
SCALE
  5
3F15E
102
{ACAD_REACTORS
330
3F153
102
}
330
3F153
100
AcDbScale
 70
     0
300
1/2" = 1'-0"
140
0.5
141
12.0
290
     0
  0
SCALE
  5
3F15F
102
{ACAD_REACTORS
330
3F153
102
}
330
3F153
100
AcDbScale
 70
     0
300
3/4" = 1'-0"
140
0.75
141
12.0
290
     0
  0
SCALE
  5
3F160
102
{ACAD_REACTORS
330
3F153
102
}
330
3F153
100
AcDbScale
 70
     0
300
1" = 1'-0"
140
1.0
141
12.0
290
     0
  0
SCALE
  5
3F161
102
{ACAD_REACTORS
330
3F153
102
}
330
3F153
100
AcDbScale
 70
     0
300
1-1/2" = 1'-0"
140
1.5
141
12.0
290
     0
  0
SCALE
  5
3F162
102
{ACAD_REACTORS
330
3F153
102
}
330
3F153
100
AcDbScale
 70
     0
300
3" = 1'-0"
140
3.0
141
12.0
290
     0
  0
SCALE
  5
3F163
102
{ACAD_REACTORS
330
3F153
102
}
330
3F153
100
AcDbScale
 70
     0
300
6" = 1'-0"
140
6.0
141
12.0
290
     0
  0
SCALE
  5
3F164
102
{ACAD_REACTORS
330
3F153
102
}
330
3F153
100
AcDbScale
 70
     0
300
1'-0" = 1'-0"
140
12.0
141
12.0
290
     0
  0
TABLESTYLE
  5
887
102
{ACAD_XDICTIONARY
360
40A40
102
}
102
{ACAD_REACTORS
330
886
102
}
330
886
100
AcDbTableStyle
  3
Standard
 70
     0
 71
     0
 40
0.06
 41
0.06
280
     0
281
     0
  7
STANDARD
140
0.18
170
     2
 62
     0
 63
     7
283
     0
274
    -2
284
     1
 64
     0
275
    -2
285
     1
 65
     0
276
    -2
286
     1
 66
     0
277
    -2
287
     1
 67
     0
278
    -2
288
     1
 68
     0
279
    -2
289
     1
 69
     0
  7
STANDARD
140
0.25
170
     5
 62
     0
 63
     7
283
     0
274
    -2
284
     1
 64
     0
275
    -2
285
     1
 65
     0
276
    -2
286
     1
 66
     0
277
    -2
287
     1
 67
     0
278
    -2
288
     1
 68
     0
279
    -2
289
     1
 69
     0
  7
STANDARD
140
0.18
170
     5
 62
     0
 63
     7
283
     0
274
    -2
284
     1
 64
     0
275
    -2
285
     1
 65
     0
276
    -2
286
     1
 66
     0
277
    -2
287
     1
 67
     0
278
    -2
288
     1
 68
     0
279
    -2
289
     1
 69
     0
  0
VISUALSTYLE
  5
10B8
102
{ACAD_XDICTIONARY
360
40AAD
102
}
102
{ACAD_REACTORS
330
10B2
102
}
330
10B2
100
AcDbVisualStyle
  2

 70
     4
 71
     0
 72
     2
 73
     0
 90
        0
 40
-0.6
 41
-30.0
 62
     5
 63
     7
 74
     1
 91
        4
 64
     7
 65
   257
 75
     1
175
     1
 42
1.0
 92
        0
 66
   257
 43
1.0
 76
     1
 77
     6
 78
     2
 67
     7
 79
     5
170
     0
171
     0
290
     0
174
     0
 93
        1
 44
0.0
173
     0
291
     0
 45
0.0
1001
ACAD
1000
AcDbSavedByObjectVersion
1070
     0
  0
VISUALSTYLE
  5
3F1AF
102
{ACAD_XDICTIONARY
360
40ADD
102
}
102
{ACAD_REACTORS
330
10B2
102
}
330
10B2
100
AcDbVisualStyle
  2

 70
     6
 71
     1
 72
     2
 73
     2
 90
        0
 40
-0.6
 41
-30.0
 62
     5
 63
     7
 74
     2
 91
        2
 64
     7
 65
   257
 75
     2
175
     1
 42
40.0
 92
        0
 66
   257
 43
1.0
 76
     1
 77
     6
 78
     2
 67
     7
 79
     3
170
     0
171
     0
290
     0
174
     0
 93
        1
 44
0.0
173
     0
291
     0
 45
0.0
1001
ACAD
1000
AcDbSavedByObjectVersion
1070
     0
  0
VISUALSTYLE
  5
1D50
102
{ACAD_XDICTIONARY
360
40AC1
102
}
102
{ACAD_REACTORS
330
10B2
102
}
330
10B2
100
AcDbVisualStyle
  2

 70
     5
 71
     0
 72
     2
 73
     0
 90
        0
 40
-0.6
 41
-30.0
 62
     5
 63
     7
 74
     1
 91
        4
 64
     7
 65
   257
 75
     1
175
     1
 42
1.0
 92
        0
 66
   257
 43
1.0
 76
     1
 77
     6
 78
     2
 67
     7
 79
     5
170
     0
171
     0
290
     0
174
     0
 93
        1
 44
0.0
173
     0
291
     0
 45
0.0
1001
ACAD
1000
AcDbSavedByObjectVersion
1070
     0
  0
VISUALSTYLE
  5
10B7
102
{ACAD_XDICTIONARY
360
40AAB
102
}
102
{ACAD_REACTORS
330
10B2
102
}
330
10B2
100
AcDbVisualStyle
  2

 70
     7
 71
     1
 72
     0
 73
     1
 90
        0
 40
-0.6
 41
-30.0
 62
     5
 63
     7
 74
     0
 91
        4
 64
     7
 65
   257
 75
     1
175
     1
 42
1.0
 92
        8
 66
     7
 43
1.0
 76
     1
 77
     6
 78
     2
 67
     7
 79
     5
170
     0
171
     0
290
     0
174
     0
 93
        1
 44
0.0
173
     0
291
     1
 45
0.0
1001
ACAD
1000
AcDbSavedByObjectVersion
1070
     0
  0
VISUALSTYLE
  5
10BE
102
{ACAD_XDICTIONARY
360
40AB1
102
}
102
{ACAD_REACTORS
330
10B2
102
}
330
10B2
100
AcDbVisualStyle
  2

 70
    12
 71
     2
 72
     2
 73
     0
 90
        0
 40
-0.6
 41
-30.0
 62
     5
 63
     7
 74
     1
 91
        4
 64
     7
 65
   257
 75
     1
175
     1
 42
1.0
 92
        8
 66
     7
 43
1.0
 76
     1
 77
     6
 78
     2
 67
     7
 79
     5
170
     0
171
     0
290
     0
174
     0
 93
        1
 44
50.0
173
     0
291
     1
 45
0.0
1001
ACAD
1000
AcDbSavedByObjectVersion
1070
     0
  0
VISUALSTYLE
  5
10C2
102
{ACAD_XDICTIONARY
360
40AB9
102
}
102
{ACAD_REACTORS
330
10B2
102
}
330
10B2
100
AcDbVisualStyle
  2

 70
    16
 71
     2
 72
     2
 73
     3
 90
        0
 40
-0.6
 41
-30.0
 62
     5
 63
     8
 74
     1
 91
        4
 64
     7
 65
   257
 75
     1
175
     1
 42
1.0
 92
        8
 66
     8
 43
1.0
 76
     1
 77
     6
 78
     2
 67
     7
 79
     5
170
     0
171
     0
290
     0
174
     0
 93
        1
 44
0.0
173
     0
291
     1
 45
0.0
1001
ACAD
1000
AcDbSavedByObjectVersion
1070
     0
  0
VISUALSTYLE
  5
3F14A
102
{ACAD_XDICTIONARY
360
40ACB
102
}
102
{ACAD_REACTORS
330
10B2
102
}
330
10B2
100
AcDbVisualStyle
  2

 70
     9
 71
     3
 72
     2
 73
     0
 90
        0
 40
-0.6
 41
-30.0
 62
     5
 63
     7
 74
     2
 91
        2
 64
     7
 65
   257
 75
     1
175
     1
 42
179.0
 92
        8
 66
     7
 43
1.0
 76
     1
 77
     6
 78
     2
 67
     7
 79
     3
170
     0
171
     0
290
     0
174
     0
 93
        1
 44
0.0
173
     0
291
     0
 45
0.0
1001
ACAD
1000
AcDbSavedByObjectVersion
1070
     0
  0
VISUALSTYLE
  5
10BD
102
{ACAD_XDICTIONARY
360
40AAF
102
}
102
{ACAD_REACTORS
330
10B2
102
}
330
10B2
100
AcDbVisualStyle
  2

 70
    11
 71
     2
 72
     2
 73
     0
 90
        0
 40
-0.6
 41
-30.0
 62
     5
 63
     7
 74
     1
 91
        4
 64
     7
 65
   257
 75
     1
175
     1
 42
1.0
 92
        8
 66
     7
 43
1.0
 76
     1
 77
     6
 78
     2
 67
     7
 79
     5
170
     0
171
     0
290
     0
174
     0
 93
        1
 44
-50.0
173
     0
291
     1
 45
0.0
1001
ACAD
1000
AcDbSavedByObjectVersion
1070
     0
  0
VISUALSTYLE
  5
3F152
102
{ACAD_XDICTIONARY
360
40ADB
102
}
102
{ACAD_REACTORS
330
10B2
102
}
330
10B2
100
AcDbVisualStyle
  2

 70
    22
 71
     2
 72
     2
 73
     0
 90
        0
 40
-0.6
 41
-30.0
 62
     5
 63
     7
 74
     1
 91
        4
 64
     7
 65
   257
 75
     1
175
     1
 42
1.0
 92
        8
 66
     7
 43
1.0
 76
     1
 77
     6
 78
     2
 67
     7
 79
     5
170
     0
171
     0
290
     0
174
     0
 93
        1
 44
0.0
173
     0
291
     1
 45
0.0
1001
ACAD
1000
AcDbSavedByObjectVersion
1070
     0
  0
VISUALSTYLE
  5
10C1
102
{ACAD_XDICTIONARY
360
40AB7
102
}
102
{ACAD_REACTORS
330
10B2
102
}
330
10B2
100
AcDbVisualStyle
  2

 70
    15
 71
     2
 72
     2
 73
     0
 90
        0
 40
-0.6
 41
-30.0
 62
     5
 63
     7
 74
     1
 91
        4
 64
     7
 65
   257
 75
     1
175
     1
 42
1.0
 92
        8
 66
     7
 43
1.0
 76
     1
 77
     6
 78
     2
 67
     7
 79
     5
170
     0
171
     0
290
     0
174
     0
 93
        1
 44
0.0
173
     0
291
     1
 45
0.0
1001
ACAD
1000
AcDbSavedByObjectVersion
1070
     0
  0
VISUALSTYLE
  5
10B3
102
{ACAD_XDICTIONARY
360
40AA3
102
}
102
{ACAD_REACTORS
330
10B2
102
}
330
10B2
100
AcDbVisualStyle
  2

 70
     0
 71
     2
 72
     1
 73
     1
 90
        2
 40
-0.6
 41
30.0
 62
     5
 63
     7
 74
     0
 91
        4
 64
     7
 65
   257
 75
     1
175
     1
 42
1.0
 92
        8
 66
     7
 43
1.0
 76
     1
 77
     6
 78
     2
 67
     7
 79
     5
170
     0
171
     0
290
     0
174
     0
 93
       13
 44
0.0
173
     0
291
     1
 45
0.0
1001
ACAD
1000
AcDbSavedByObjectVersion
1070
     0
  0
VISUALSTYLE
  5
10B4
102
{ACAD_XDICTIONARY
360
40AA5
102
}
102
{ACAD_REACTORS
330
10B2
102
}
330
10B2
100
AcDbVisualStyle
  2

 70
     1
 71
     2
 72
     1
 73
     1
 90
        2
 40
-0.6
 41
30.0
 62
     5
 63
     7
 74
     1
 91
        4
 64
     7
 65
   257
 75
     1
175
     1
 42
1.0
 92
        0
 66
   257
 43
1.0
 76
     1
 77
     6
 78
     2
 67
     7
 79
     5
170
     0
171
     0
290
     0
174
     0
 93
       13
 44
0.0
173
     0
291
     1
 45
0.0
1001
ACAD
1000
AcDbSavedByObjectVersion
1070
     0
  0
VISUALSTYLE
  5
10B5
102
{ACAD_XDICTIONARY
360
40AA7
102
}
102
{ACAD_REACTORS
330
10B2
102
}
330
10B2
100
AcDbVisualStyle
  2

 70
     2
 71
     2
 72
     2
 73
     1
 90
        2
 40
-0.6
 41
30.0
 62
     5
 63
     7
 74
     0
 91
        4
 64
     7
 65
   257
 75
     1
175
     1
 42
1.0
 92
        0
 66
     7
 43
1.0
 76
     1
 77
     6
 78
     2
 67
     7
 79
     5
170
     0
171
     0
290
     0
174
     0
 93
       13
 44
0.0
173
     0
291
     1
 45
0.0
1001
ACAD
1000
AcDbSavedByObjectVersion
1070
     0
  0
VISUALSTYLE
  5
10B6
102
{ACAD_XDICTIONARY
360
40AA9
102
}
102
{ACAD_REACTORS
330
10B2
102
}
330
10B2
100
AcDbVisualStyle
  2

 70
     3
 71
     2
 72
     2
 73
     1
 90
        2
 40
-0.6
 41
30.0
 62
     5
 63
     7
 74
     1
 91
        4
 64
     7
 65
   257
 75
     1
175
     1
 42
1.0
 92
        0
 66
   257
 43
1.0
 76
     1
 77
     6
 78
     2
 67
     7
 79
     5
170
     0
171
     0
290
     0
174
     0
 93
       13
 44
0.0
173
     0
291
     1
 45
0.0
1001
ACAD
1000
AcDbSavedByObjectVersion
1070
     0
  0
VISUALSTYLE
  5
3F149
102
{ACAD_XDICTIONARY
360
40AC9
102
}
102
{ACAD_REACTORS
330
10B2
102
}
330
10B2
100
AcDbVisualStyle
  2

 70
     6
 71
     1
 72
     2
 73
     2
 90
        0
 40
-0.6
 41
-30.0
 62
     5
 63
     7
 74
     2
 91
        2
 64
     7
 65
   257
 75
     2
175
     1
 42
40.0
 92
        0
 66
   257
 43
1.0
 76
     1
 77
     6
 78
     2
 67
     7
 79
     3
170
     0
171
     0
290
     0
174
     0
 93
        1
 44
0.0
173
     0
291
     0
 45
0.0
1001
ACAD
1000
AcDbSavedByObjectVersion
1070
     0
  0
VISUALSTYLE
  5
3F150
102
{ACAD_XDICTIONARY
360
40AD7
102
}
102
{ACAD_REACTORS
330
10B2
102
}
330
10B2
100
AcDbVisualStyle
  2

 70
    20
 71
     2
 72
     2
 73
     0
 90
        0
 40
-0.6
 41
-30.0
 62
     5
 63
     7
 74
     1
 91
        4
 64
     7
 65
   257
 75
     1
175
     1
 42
1.0
 92
       10
 66
     7
 43
1.0
 76
     1
 77
     6
 78
     2
 67
     7
 79
     5
170
     0
171
     0
290
     0
174
     0
 93
        1
 44
0.0
173
     0
291
     1
 45
0.0
1001
ACAD
1000
AcDbSavedByObjectVersion
1070
     0
  0
VISUALSTYLE
  5
10C0
102
{ACAD_XDICTIONARY
360
40AB5
102
}
102
{ACAD_REACTORS
330
10B2
102
}
330
10B2
100
AcDbVisualStyle
  2

 70
    14
 71
     2
 72
     2
 73
     0
 90
        0
 40
-0.6
 41
-30.0
 62
     5
 63
     7
 74
     1
 91
        4
 64
     7
 65
   257
 75
     7
175
     7
 42
1.0
 92
        8
 66
     7
 43
1.0
 76
     1
 77
     6
 78
     2
 67
     7
 79
     5
170
     0
171
     0
290
     0
174
     0
 93
        1
 44
0.0
173
     0
291
     1
 45
0.0
1001
ACAD
1000
AcDbSavedByObjectVersion
1070
     0
  0
VISUALSTYLE
  5
3F151
102
{ACAD_XDICTIONARY
360
40AD9
102
}
102
{ACAD_REACTORS
330
10B2
102
}
330
10B2
100
AcDbVisualStyle
  2

 70
    21
 71
     2
 72
     2
 73
     0
 90
        0
 40
-0.6
 41
-30.0
 62
     5
 63
     7
 74
     1
 91
        4
 64
     7
 65
   257
 75
     1
175
     1
 42
1.0
 92
        9
 66
     7
 43
1.0
 76
     1
 77
     6
 78
     2
 67
     7
 79
     5
170
     0
171
     0
290
     0
174
     0
 93
        1
 44
0.0
173
     0
291
     1
 45
0.0
1001
ACAD
1000
AcDbSavedByObjectVersion
1070
     0
  0
VISUALSTYLE
  5
1D52
102
{ACAD_XDICTIONARY
360
40AC3
102
}
102
{ACAD_REACTORS
330
10B2
102
}
330
10B2
100
AcDbVisualStyle
  2

 70
     8
 71
     2
 72
     2
 73
     0
 90
        0
 40
-0.6
 41
-30.0
 62
     5
 63
     7
 74
     1
 91
        0
 64
     7
 65
   257
 75
     1
175
     1
 42
1.0
 92
        8
 66
     8
 43
1.0
 76
     1
 77
     6
 78
     2
 67
     7
 79
     5
170
     0
171
     0
290
     0
174
     0
 93
       13
 44
0.0
173
     0
291
     0
 45
0.0
1001
ACAD
1000
AcDbSavedByObjectVersion
1070
     0
  0
VISUALSTYLE
  5
3F14F
102
{ACAD_XDICTIONARY
360
40AD5
102
}
102
{ACAD_REACTORS
330
10B2
102
}
330
10B2
100
AcDbVisualStyle
  2

 70
    27
 71
     2
 72
     2
 73
     1
 90
        2
 40
-0.6
 41
30.0
 62
     5
 63
     7
 74
     0
 91
        4
 64
     7
 65
   257
 75
     1
175
     1
 42
1.0
 92
        8
 66
   257
 43
1.0
 76
     1
 77
     6
 78
     2
 67
     8
 79
     3
170
     0
171
     0
290
     0
174
     0
 93
        5
 44
0.0
173
     0
291
     0
 45
0.0
1001
ACAD
1000
AcDbSavedByObjectVersion
1070
     0
  0
VISUALSTYLE
  5
3F14E
102
{ACAD_XDICTIONARY
360
40AD3
102
}
102
{ACAD_REACTORS
330
10B2
102
}
330
10B2
100
AcDbVisualStyle
  2

 70
    26
 71
     2
 72
     2
 73
     1
 90
        2
 40
-0.6
 41
30.0
 62
     5
 63
     7
 74
     1
 91
       10
 64
     7
 65
   257
 75
     2
175
     1
 42
1.0
 92
        8
 66
   257
 43
1.0
 76
     1
 77
     6
 78
     2
 67
     7
 79
     3
170
     0
171
     0
290
     0
174
     0
 93
        5
 44
0.0
173
     0
291
     0
 45
0.0
1001
ACAD
1000
AcDbSavedByObjectVersion
1070
     0
  0
VISUALSTYLE
  5
3F14B
102
{ACAD_XDICTIONARY
360
40ACD
102
}
102
{ACAD_REACTORS
330
10B2
102
}
330
10B2
100
AcDbVisualStyle
  2

 70
    23
 71
     2
 72
     2
 73
     3
 90
        0
 40
-0.6
 41
-30.0
 62
     5
 63
     7
 74
     2
 91
        2
 64
     7
 65
     7
 75
     1
175
     1
 42
40.0
 92
        8
 66
     7
 43
1.0
 76
     1
 77
     6
 78
     2
 67
     7
 79
     3
170
     0
171
     0
290
     0
174
     0
 93
        1
 44
0.0
173
     0
291
     0
 45
0.0
1001
ACAD
1000
AcDbSavedByObjectVersion
1070
     0
  0
VISUALSTYLE
  5
3F14C
102
{ACAD_XDICTIONARY
360
40ACF
102
}
102
{ACAD_REACTORS
330
10B2
102
}
330
10B2
100
AcDbVisualStyle
  2

 70
    24
 71
     1
 72
     2
 73
     2
 90
        0
 40
-0.6
 41
-30.0
 62
     5
 63
     7
 74
     2
 91
        2
 64
     7
 65
     7
 75
     1
175
     1
 42
40.0
 92
       11
 66
     7
 43
1.0
 76
     1
 77
     6
 78
     2
 67
     7
 79
     6
170
     0
171
     0
290
     0
174
     0
 93
        1
 44
0.0
173
     0
291
     0
 45
0.0
1001
ACAD
1000
AcDbSavedByObjectVersion
1070
     0
  0
VISUALSTYLE
  5
10BF
102
{ACAD_XDICTIONARY
360
40AB3
102
}
102
{ACAD_REACTORS
330
10B2
102
}
330
10B2
100
AcDbVisualStyle
  2

 70
    13
 71
     2
 72
     2
 73
     0
 90
        0
 40
-0.6
 41
-30.0
 62
     5
 63
     7
 74
     1
 91
        4
 64
     7
 65
   257
 75
     1
175
     1
 42
1.0
 92
       12
 66
     7
 43
1.0
 76
     1
 77
     6
 78
     2
 67
     7
 79
     5
170
     0
171
     0
290
     0
174
     0
 93
        1
 44
0.0
173
     0
291
     1
 45
0.0
1001
ACAD
1000
AcDbSavedByObjectVersion
1070
     0
  0
VISUALSTYLE
  5
3F148
102
{ACAD_XDICTIONARY
360
40AC7
102
}
102
{ACAD_REACTORS
330
10B2
102
}
330
10B2
100
AcDbVisualStyle
  2

 70
     5
 71
     0
 72
     2
 73
     0
 90
        0
 40
-0.6
 41
-30.0
 62
     5
 63
     7
 74
     1
 91
        4
 64
     7
 65
   257
 75
     1
175
     1
 42
1.0
 92
        0
 66
   257
 43
1.0
 76
     1
 77
     6
 78
     2
 67
     7
 79
     3
170
     0
171
     0
290
     0
174
     0
 93
        1
 44
0.0
173
     0
291
     0
 45
0.0
1001
ACAD
1000
AcDbSavedByObjectVersion
1070
     0
  0
VISUALSTYLE
  5
3F14D
102
{ACAD_XDICTIONARY
360
40AD1
102
}
102
{ACAD_REACTORS
330
10B2
102
}
330
10B2
100
AcDbVisualStyle
  2

 70
    25
 71
     2
 72
     2
 73
     1
 90
        1
 40
0.5
 41
-30.0
 62
     5
 63
     7
 74
     1
 91
        0
 64
     7
 65
   257
 75
     1
175
     1
 42
1.0
 92
        8
 66
     7
 43
1.0
 76
     1
 77
     6
 78
     2
 67
     7
 79
     3
170
     0
171
     0
290
     0
174
     0
 93
       13
 44
0.0
173
     0
291
     0
 45
0.0
1001
ACAD
1000
AcDbSavedByObjectVersion
1070
     0
  0
DICTIONARYVAR
  5
3F193
102
{ACAD_REACTORS
330
3AC
102
}
330
3AC
100
DictionaryVariables
280
     0
  1
1:1
  0
DICTIONARYVAR
  5
3F191
102
{ACAD_REACTORS
330
3AC
102
}
330
3AC
100
DictionaryVariables
280
     0
  1
STANDARD
  0
DICTIONARYVAR
  5
89F
102
{ACAD_REACTORS
330
3AC
102
}
330
3AC
100
DictionaryVariables
280
     0
  1
STANDARD
  0
DICTIONARYVAR
  5
3AD
102
{ACAD_REACTORS
330
3AC
102
}
330
3AC
100
DictionaryVariables
280
     0
  1
1
  0
DICTIONARYVAR
  5
40A96
102
{ACAD_REACTORS
330
3AC
102
}
330
3AC
100
DictionaryVariables
280
     0
  1
0
  0
DICTIONARYVAR
  5
40A3E
102
{ACAD_REACTORS
330
3AC
102
}
330
3AC
100
DictionaryVariables
280
     0
  1
0
  0
DICTIONARYVAR
  5
3F195
102
{ACAD_REACTORS
330
3AC
102
}
330
3AC
100
DictionaryVariables
280
     0
  1
1
  0
DICTIONARYVAR
  5
3F196
102
{ACAD_REACTORS
330
3AC
102
}
330
3AC
100
DictionaryVariables
280
     0
  1
15
  0
DICTIONARYVAR
  5
3F194
102
{ACAD_REACTORS
330
3AC
102
}
330
3AC
100
DictionaryVariables
280
     0
  1
0
  0
DICTIONARYVAR
  5
3F192
102
{ACAD_REACTORS
330
3AC
102
}
330
3AC
100
DictionaryVariables
280
     0
  1
0
  0
DICTIONARYVAR
  5
40A3D
102
{ACAD_REACTORS
330
3AC
102
}
330
3AC
100
DictionaryVariables
280
     0
  1
127
  0
DICTIONARYVAR
  5
40A97
102
{ACAD_REACTORS
330
3AC
102
}
330
3AC
100
DictionaryVariables
280
     0
  1
2
  0
XRECORD
  5
3D161
102
{ACAD_REACTORS
330
3D160
102
}
330
3D160
100
AcDbXrecord
280
     1
330
0
330
0
330
290FE
330
0
330
0
330
0
330
0
330
0
330
0
  0
DICTIONARY
  5
89C
330
10
100
AcDbDictionary
280
     1
281
     1
  3
ACAD_XREC_ROUNDTRIP
360
40A9F
  3
ADSK_XREC_LAYOUTTHUMBNAIL
360
89D
  0
DICTIONARY
  5
40A31
330
B
100
AcDbDictionary
280
     1
281
     1
  3
ACAD_XREC_ROUNDTRIP
360
40A9E
  3
ADSK_XREC_LAYOUTTHUMBNAIL
360
40A32
  0
DICTIONARY
  5
40A4E
330
10B0
100
AcDbDictionary
280
     1
281
     1
  3
ACAD_XREC_ROUNDTRIP
360
40A4F
  0
DICTIONARY
  5
40A4C
330
10AF
100
AcDbDictionary
280
     1
281
     1
  3
ACAD_XREC_ROUNDTRIP
360
40A4D
  0
DICTIONARY
  5
40A50
330
10B1
100
AcDbDictionary
280
     1
281
     1
  3
ACAD_XREC_ROUNDTRIP
360
40A51
  0
DICTIONARY
  5
40ABB
330
1A1F
100
AcDbDictionary
280
     1
281
     1
  3
ACAD_XREC_ROUNDTRIP
360
40ABC
  0
DICTIONARY
  5
40ABF
330
1A22
100
AcDbDictionary
280
     1
281
     1
  3
ACAD_XREC_ROUNDTRIP
360
40AC0
  0
DICTIONARY
  5
40AC5
330
294A3
100
AcDbDictionary
280
     1
281
     1
  3
ACAD_XREC_ROUNDTRIP
360
40AC6
  0
DICTIONARY
  5
40ABD
330
1A20
100
AcDbDictionary
280
     1
281
     1
  3
ACAD_XREC_ROUNDTRIP
360
40ABE
  0
DICTIONARY
  5
40A40
330
887
100
AcDbDictionary
280
     1
281
     1
  3
ACAD_ROUNDTRIP_2008_TABLESTYLE_CELLSTYLEMAP
360
40A98
  3
ACAD_XREC_ROUNDTRIP
360
40AA2
  0
DICTIONARY
  5
40AAD
330
10B8
100
AcDbDictionary
280
     1
281
     1
  3
ACAD_XREC_ROUNDTRIP
360
40AAE
  0
DICTIONARY
  5
40ADD
330
3F1AF
100
AcDbDictionary
280
     1
281
     1
  3
ACAD_XREC_ROUNDTRIP
360
40ADE
  0
DICTIONARY
  5
40AC1
330
1D50
100
AcDbDictionary
280
     1
281
     1
  3
ACAD_XREC_ROUNDTRIP
360
40AC2
  0
DICTIONARY
  5
40AAB
330
10B7
100
AcDbDictionary
280
     1
281
     1
  3
ACAD_XREC_ROUNDTRIP
360
40AAC
  0
DICTIONARY
  5
40AB1
330
10BE
100
AcDbDictionary
280
     1
281
     1
  3
ACAD_XREC_ROUNDTRIP
360
40AB2
  0
DICTIONARY
  5
40AB9
330
10C2
100
AcDbDictionary
280
     1
281
     1
  3
ACAD_XREC_ROUNDTRIP
360
40ABA
  0
DICTIONARY
  5
40ACB
330
3F14A
100
AcDbDictionary
280
     1
281
     1
  3
ACAD_XREC_ROUNDTRIP
360
40ACC
  0
DICTIONARY
  5
40AAF
330
10BD
100
AcDbDictionary
280
     1
281
     1
  3
ACAD_XREC_ROUNDTRIP
360
40AB0
  0
DICTIONARY
  5
40ADB
330
3F152
100
AcDbDictionary
280
     1
281
     1
  3
ACAD_XREC_ROUNDTRIP
360
40ADC
  0
DICTIONARY
  5
40AB7
330
10C1
100
AcDbDictionary
280
     1
281
     1
  3
ACAD_XREC_ROUNDTRIP
360
40AB8
  0
DICTIONARY
  5
40AA3
330
10B3
100
AcDbDictionary
280
     1
281
     1
  3
ACAD_XREC_ROUNDTRIP
360
40AA4
  0
DICTIONARY
  5
40AA5
330
10B4
100
AcDbDictionary
280
     1
281
     1
  3
ACAD_XREC_ROUNDTRIP
360
40AA6
  0
DICTIONARY
  5
40AA7
330
10B5
100
AcDbDictionary
280
     1
281
     1
  3
ACAD_XREC_ROUNDTRIP
360
40AA8
  0
DICTIONARY
  5
40AA9
330
10B6
100
AcDbDictionary
280
     1
281
     1
  3
ACAD_XREC_ROUNDTRIP
360
40AAA
  0
DICTIONARY
  5
40AC9
330
3F149
100
AcDbDictionary
280
     1
281
     1
  3
ACAD_XREC_ROUNDTRIP
360
40ACA
  0
DICTIONARY
  5
40AD7
330
3F150
100
AcDbDictionary
280
     1
281
     1
  3
ACAD_XREC_ROUNDTRIP
360
40AD8
  0
DICTIONARY
  5
40AB5
330
10C0
100
AcDbDictionary
280
     1
281
     1
  3
ACAD_XREC_ROUNDTRIP
360
40AB6
  0
DICTIONARY
  5
40AD9
330
3F151
100
AcDbDictionary
280
     1
281
     1
  3
ACAD_XREC_ROUNDTRIP
360
40ADA
  0
DICTIONARY
  5
40AC3
330
1D52
100
AcDbDictionary
280
     1
281
     1
  3
ACAD_XREC_ROUNDTRIP
360
40AC4
  0
DICTIONARY
  5
40AD5
330
3F14F
100
AcDbDictionary
280
     1
281
     1
  3
ACAD_XREC_ROUNDTRIP
360
40AD6
  0
DICTIONARY
  5
40AD3
330
3F14E
100
AcDbDictionary
280
     1
281
     1
  3
ACAD_XREC_ROUNDTRIP
360
40AD4
  0
DICTIONARY
  5
40ACD
330
3F14B
100
AcDbDictionary
280
     1
281
     1
  3
ACAD_XREC_ROUNDTRIP
360
40ACE
  0
DICTIONARY
  5
40ACF
330
3F14C
100
AcDbDictionary
280
     1
281
     1
  3
ACAD_XREC_ROUNDTRIP
360
40AD0
  0
DICTIONARY
  5
40AB3
330
10BF
100
AcDbDictionary
280
     1
281
     1
  3
ACAD_XREC_ROUNDTRIP
360
40AB4
  0
DICTIONARY
  5
40AC7
330
3F148
100
AcDbDictionary
280
     1
281
     1
  3
ACAD_XREC_ROUNDTRIP
360
40AC8
  0
DICTIONARY
  5
40AD1
330
3F14D
100
AcDbDictionary
280
     1
281
     1
  3
ACAD_XREC_ROUNDTRIP
360
40AD2
  0
XRECORD
  5
40A9F
102
{ACAD_REACTORS
330
89C
102
}
330
89C
100
AcDbXrecord
280
     1
102
SHADEPLOT
 70
     0
102
SHADEPLOTRESLEVEL
 70
     2
102
SHADEPLOTCUSTOMDPI
 70
   300
  0
XRECORD
  5
89D
102
{ACAD_REACTORS
330
89C
102
}
330
89C
100
AcDbXrecord
280
     1
310
28000000B40000008B0000000100080000000000BC610000000000000000000000010000000000000000000000000000FFFFFF000000000000000000000000000000000000000000000000000000000000000000330000006600000099000000CC000000FF00000000330000333300006633000099330000CC330000FF3300
310
0000660000336600006666000099660000CC660000FF66000000990000339900006699000099990000CC990000FF99000000CC000033CC000066CC000099CC0000CCCC0000FFCC000000FF000033FF000066FF000099FF0000CCFF0000FFFF000000003300330033006600330099003300CC003300FF003300003333003333
310
33006633330099333300CC333300FF33330000663300336633006666330099663300CC663300FF66330000993300339933006699330099993300CC993300FF99330000CC330033CC330066CC330099CC3300CCCC3300FFCC330000FF330033FF330066FF330099FF3300CCFF3300FFFF330000006600330066006600660099
310
006600CC006600FF00660000336600333366006633660099336600CC336600FF33660000666600336666006666660099666600CC666600FF66660000996600339966006699660099996600CC996600FF99660000CC660033CC660066CC660099CC6600CCCC6600FFCC660000FF660033FF660066FF660099FF6600CCFF6600
310
FFFF660000009900330099006600990099009900CC009900FF00990000339900333399006633990099339900CC339900FF33990000669900336699006666990099669900CC669900FF66990000999900339999006699990099999900CC999900FF99990000CC990033CC990066CC990099CC9900CCCC9900FFCC990000FF99
310
0033FF990066FF990099FF9900CCFF9900FFFF99000000CC003300CC006600CC009900CC00CC00CC00FF00CC000033CC003333CC006633CC009933CC00CC33CC00FF33CC000066CC003366CC006666CC009966CC00CC66CC00FF66CC000099CC003399CC006699CC009999CC00CC99CC00FF99CC0000CCCC0033CCCC0066CC
310
CC0099CCCC00CCCCCC00FFCCCC0000FFCC0033FFCC0066FFCC0099FFCC00CCFFCC00FFFFCC000000FF003300FF006600FF009900FF00CC00FF00FF00FF000033FF003333FF006633FF009933FF00CC33FF00FF33FF000066FF003366FF006666FF009966FF00CC66FF00FF66FF000099FF003399FF006699FF009999FF00CC
310
99FF00FF99FF0000CCFF0033CCFF0066CCFF0099CCFF00CCCCFF00FFCCFF0000FFFF0033FFFF0066FFFF0099FFFF00CCFFFF00FFFFFF00000000000D0D0D001A1A1A00282828003535350043434300505050005D5D5D006B6B6B00787878008686860093939300A1A1A100AEAEAE00BBBBBB00C9C9C900D6D6D600E4E4E400
310
F1F1F100FFFFFF000000000000000000000000000000000000000000000000000000000000000000000000000000000000000000000000000000000000000000000000000000000000000000000000000000000000000000000000000000000000000000000000000000000000000000000000000000000000000000000000
310
00000000000000000000000000000000000000000000000000000000000000000000000000000000000000000000000000000000000000000000000000000000000000000000000000000000000000000000000000000000000000000000000000000000000000000000000000000000000000000000000000000000000000
310
00000000000000000000000000000000000000000000000000000000000000000000000000000000000000000000000000000000000000000000000000000000000000000000000000000000000000000000000000000000000000000000000000000000000000000000000000000000000000000000000000000000000000
310
00000000000000000000000000000000000000000000000000000000000000000000000000000000000000000000000000000000000000000000000000000000000000000000000000000000000000000000000000000000000000000000000000000000000000000000000000000000000000000000000000000000000000
310
00000000000000000000000000000000000000000000000000000000000000000000000000000000000000000000000000000000000000000000000000000000000000000000000000000000000000000000000000000000000000000000000000000000000000000000000000000000000000000000000000000000000000
310
00000000000000000000000000000000000000000000000000000000000000000000000000000000000000000000000000000000000000000000000000000000000000000000000000000000000000000000000000000000000000000000000000000000000000000000000000000000000000000000000000000000000000
310
00000000000000000000000000000000000000000000000000000000000000000000000000000000000000000000000000000000000000000000000000000000000000000000000000000000000000000000000000000000000000000000000000000000000000000000000000000000000000000000000000000000000000
310
00000000000000000000000000000000000000000000000000000000000000000000000000000000000000000000000000000000000000000000000000000000000000000000000000000000000000000000000000000000000000000000000000000000000000000000000000000000000000000000000000000000000000
310
00000000000000000000000000000000000000000000000000000000000000000000000000000000000000000000000000000000000000000000000000000000000000000000000000000000000000000000000000000000000000000000000000000000000000000000000000000000000000000000000000000000000000
310
00000000000000000000000000000000000000000000000000000000000000000000000000000000000000000000000000000000000000000000000000000000000000000000000000000000000000000000000000000000000000000000000000000000000000000000000000000000000000000000000000000000000000
310
00000000000000000000000000000000000000000000000000000000000000000000000000000000000000000000000000000000000000000000000000000000000000000000000000000000000000000000000000000000000000000000000000000000000000000000000000000000000000000000000000000000000000
310
00000000000000000000000000000000000000000000000000000000000000000000000000000000000000000000000000000000000000000000000000000000000000000000000000000000000000000000000000000000000000000000000000000000000000000000000000000000000000000000000000000000000000
310
00000000000000000000000000000000000000000000000000000000000000000000000000000000000000000000000000000000000000000000000000000000000000000000000000000000000000000000000000000000000000000000000000000000000000000000000000000000000000000000000000000000000000
310
00000000000000000000000000000000000000000000000000000000000000000000000000000000000000000000000000000000000000000000000000000000000000000000000000000000000000000000000000000000000000000000000000000000000000000000000000000000000000000000000000000000000000
310
00000000000000000000000000000000000000000000000000000000000000000000000000000000000000000000000000000000000000000000000000000000000000000000000000000000000000000000000000000000000000000000000000000000000000000000000000000000000000000000000000000000000000
310
00000000000000000000000000000000000000000000000000000000000000000000000000000000000000000000000000000000000000000000000000000000000000000000000000000000000000000000000000000000000000000000000000000000000000000000000000000000000000000000000000000000000000
310
00000000000000000000000000000000000000000000000000000000000000000000000000000000000000000000000000000000000000000000000000000000000000000000000000000000000000000000000000000000000000000000000000000000000000000000000000000000000000000000000000000000000000
310
00000000000000000000000000000000000000000000000000000000000000000000000000000000000000000000000000000000000000000000000000000000000000000000000000000000000000000000000000000000000000000000000000000000000000000000000000000000000000000000000000000000000000
310
00000000000000000000000000000000000000000000000000000000000000000000000000000000000000000000000000000000000000000000000000000000000000000000000000000000000000000000000000000000000000000000000000000000000000000000000000000000000000000000000000000000000000
310
00000000000000000000000000000000000000000000000000000000000000000000000000000000000000000000000000000000000000000000000000000000000000000000000000000000000000000000000000000000000000000000000000000000000000000000000000000000000000000000000000000000000000
310
00000000000000000000000000000000000000000000000000000000000000000000000000000000000000000000000000000000000000000000000000000000000000000000000000000000000000000000000000000000000000000000000000000000000000000000000000000000000000000000000000000000000000
310
00000000000000000000000000000000000000000000000000000000000000000000000000000000000000000000000000000000000000000000000000000000000000000000000000000000000000000000000000000000000000000000000000000000000000000000000000000000000000000000000000000000000000
310
00000000000000000000000000000000000000000000000000000000000000000000000000000000000000000000000000000000000000000000000000000000000000000000000000000000000000000000000000000000000000000000000000000000000000000000000000000000000000000000000000000000000000
310
00000000000000000000000000000000000000000000000000000000000000000000000000000000000000000000000000000000000000000000000000000000000000000000000000000000000000000000000000000000000000000000000000000000000000000000000000000000000000000000000000000000000000
310
00000000000000000000000000000000000000000000000000000000000000000000000000000000000000000000000000000000000000000000000000000000000000000000000000000000000000000000000000000000000000000000000000000000000000000000000000000000000000000000000000000000000000
310
00000000000000000000000000000000000000000000000000000000000000000000000000000000000000000000000000000000000000000000000000000000000000000000000000000000000000000000000000000000000000000000000000000000000000000000000000000000000000000000000000000000000000
310
00000000000000000000000000000000000000000000000000000000000000000000000000000000000000000000000000000000000000000000000000000000000000000000000000000000000000000000000000000000000000000000000000000000000000000000000000000000000000000000000000000000000000
310
00000000000000000000000000000000000000000000000000000000000000000000000000000000000000000000000000000000000000000000000000000000000000000000000000000000000000000000000000000000000000000000000000000000000000000000000000000000000000000000000000000000000000
310
00000000000000000000000000000000000000000000000000000000000000000000000000000000000000000000000000000000000000000000000000000000000000000000000000000000000000000000000000000000000000000000000000000000000000000000000000000000000000000000000000000000000000
310
00000000000000000000000000000000000000000000000000000000000000000000000000000000000000000000000000000000000000000000000000000000000000000000000000000000000000000000000000000000000000000000000000000000000000000000000000000000000000000000000000000000000000
310
00000000000000000000000000000000000000000000000000000000000000000000000000000000000000000000000000000000000000000000000000000000000000000000000000000000000000000000000000000000000000000000000000000000000000000000000000000000000000000000000000000000000000
310
00000000000000000000000000000000000000000000000000000000000000000000000000000000000000000000000000000000000000000000000000000000000000000000000000000000000000000000000000000000000000000000000000000000000000000000000000000000000000000000000000000000000000
310
00000000000000000000000000000000000000000000000000000000000000000000000000000000000000000000000000000000000000000000000000000000000000000000000000000000000000000000000000000000000000000000000000000000000000000000000000000000000000000000000000000000000000
310
00000000000000000000000000000000000000000000000000000000000000000000000000000000000000000000000000000000000000000000000000000000000000000000000000000000000000000000000000000000000000000000000000000000000000000000000000000000000000000000000000000000000000
310
00000000000000000000000000000000000000000000000000000000000000000000000000000000000000000000000000000000000000000000000000000000000000000000000000000000000000000000000000000000000000000000000000000000000000000000000000000000000000000000000000000000000000
310
00000000000000000000000000000000000000000000000000000000000000000000000000000000000000000000000000000000000000000000000000000000000000000000000000000000000000000000000000000000000000000000000000000000000000000000000000000000000000000000000000000000000000
310
00000000000000000000000000000000000000000000000000000000000000000000000000000000000000000000000000000000000000000000000000000000000000000000000000000000000000000000000000000000000000000000000000000000000000000000000000000000000000000000000000000000000000
310
00000000000000000000000000000000000000000000000000000000000000000000000000000000000000000000000000000000000000000000000000000000000000000000000000000000000000000000000000000000000000000000000000000000000000000000000000000000000000000000000000000000000000
310
00000000000000000000000000000000000000000000000000000000000000000000000000000000000000000000000000000000000000000000000000000000000000000000000000000000000000000000000000000000000000000000000000000000000000000000000000000000000000000000000000000000000000
310
00000000000000000000000000000000000000000000000000000000000000000000000000000000000000000000000000000000000000000000000000000000000000000000000000000000000000000000000000000000000000000000000000000000000000000000000000000000000000000000000000000000000000
310
00000000000000000000000000000000000000000000000000000000000000000000000000000000000000000000000000000000000000000000000000000000000000000000000000000000000000000000000000000000000000000000000000000000000000000000000000000000000000000000000000000000000000
310
00000000000000000000000000000000000000000000000000000000000000000000000000000000000000000000000000000000000000000000000000000000000000000000000000000000000000000000000000000000000000000000000000000000000000000000000000000000000000000000000000000000000000
310
00000000000000000000000000000000000000000000000000000000000000000000000000000000000000000000000000000000000000000000000000000000000000000000000000000000000000000000000000000000000000000000000000000000000000000000000000000000000000000000000000000000000000
310
00000000000000000000000000000000000000000000000000000000000000000000000000000000000000000000000000000000000000000000000000000000000000000000000000000000000000000000000000000000000000000000000000000000000000000000000000000000000000000000000000000000000000
310
00000000000000000000000000000000000000000000000000000000000000000000000000000000000000000000000000000000000000000000000000000000000000000000000000000000000000000000000000000000000000000000000000000000000000000000000000000000000000000000000000000000000000
310
00000000000000000000000000000000000000000000000000000000000000000000000000000000000000000000000000000000000000000000000000000000000000000000000000000000000000000000000000000000000000000000000000000000000000000000000000000000000000000000000000000000000000
310
00000000000000000000000000000000000000000000000000000000000000000000000000000000000000000000000000000000000000000000000000000000000000000000000000000000000000000000000000000000000000000000000000000000000000000000000000000000000000000000000000000000000000
310
00000000000000000000000000000000000000000000000000000000000000000000000000000000000000000000000000000000000000000000000000000000000000000000000000000000000000000000000000000000000000000000000000000000000000000000000000000000000000000000000000000000000000
310
00000000000000000000000000000000000000000000000000000000000000000000000000000000000000000000000000000000000000000000000000000000000000000000000000000000000000000000000000000000000000000000000000000000000000000000000000000000000000000000000000000000000000
310
00000000000000000000000000000000000000000000000000000000000000000000000000000000000000000000000000000000000000000000000000000000000000000000000000000000000000000000000000000000000000000000000000000000000000000000000000000000000000000000000000000000000000
310
00000000000000000000000000000000000000000000000000000000000000000000000000000000000000000000000000000000000000000000000000000000000000000000000000000000000000000000000000000000000000000000000000000000000000000000000000000000000000000000000000000000000000
310
00000000000000000000000000000000000000000000000000000000000000000000000000000000000000000000000000000000000000000000000000000000000000000000000000000000000000000000000000000000000000000000000000000000000000000000000000000000000000000000000000000000000000
310
00000000000000000000000000000000000000000000000000000000000000000000000000000000000000000000000000000000000000000000000000000000000000000000000000000000000000000000000000000000000000000000000000000000000000000000000000000000000000000000000000000000000000
310
00000000000000000000000000000000000000000000000000000000000000000000000000000000000000000000000000000000000000000000000000000000000000000000000000000000000000000000000000000000000000000000000000000000000000000000000000000000000000000000000000000000000000
310
00000000000000000000000000000000000000000000000000000000000000000000000000000000000000000000000000000000000000000000000000000000000000000000000000000000000000000000000000000000000000000000000000000000000000000000000000000000000000000000000000000000000000
310
00000000000000000000000000000000000000000000000000000000000000000000000000000000000000000000000000000000000000000000000000000000000000000000000000000000000000000000000000000000000000000000000000000000000000000000000000000000000000000000000000000000000000
310
00000000000000000000000000000000000000000000000000000000000000000000000000000000000000000000000000000000000000000000000000000000000000000000000000000000000000000000000000000000000000000000000000000000000000000000000000000000000000000000000000000000000000
310
00000000000000000000000000000000000000000000000000000000000000000000000000000000000000000000000000000000000000000000000000000000000000000000000000000000000000000000000000000000000000000000000000000000000000000000000000000000000000000000000000000000000000
310
00000000000000000000000000000000000000000000000000000000000000000000000000000000000000000000000000000000000000000000000000000000000000000000000000000000000000000000000000000000000000000000000000000000000000000000000000000000000000000000000000000000000000
310
00000000000000000000000000000000000000000000000000000000000000000000000000000000000000000000000000000000000000000000000000000000000000000000000000000000000000000000000000000000000000000000000000000000000000000000000000000000000000000000000000000000000000
310
00000000000000000000000000000000000000000000000000000000000000000000000000000000000000000000000000000000000000000000000000000000000000000000000000000000000000000000000000000000000000000000000000000000000000000000000000000000000000000000000000000000000000
310
00000000000000000000000000000000000000000000000000000000000000000000000000000000000000000000000000000000000000000000000000000000000000000000000000000000000000000000000000000000000000000000000000000000000000000000000000000000000000000000000000000000000000
310
00000000000000000000000000000000000000000000000000000000000000000000000000000000000000000000000000000000000000000000000000000000000000000000000000000000000000000000000000000000000000000000000000000000000000000000000000000000000000000000000000000000000000
310
00000000000000000000000000000000000000000000000000000000000000000000000000000000000000000000000000000000000000000000000000000000000000000000000000000000000000000000000000000000000000000000000000000000000000000000000000000000000000000000000000000000000000
310
00000000000000000000000000000000000000000000000000000000000000000000000000000000000000000000000000000000000000000000000000000000000000000000000000000000000000000000000000000000000000000000000000000000000000000000000000000000000000000000000000000000000000
310
00000000000000000000000000000000000000000000000000000000000000000000000000000000000000000000000000000000000000000000000000000000000000000000000000000000000000000000000000000000000000000000000000000000000000000000000000000000000000000000000000000000000000
310
00000000000000000000000000000000000000000000000000000000000000000000000000000000000000000000000000000000000000000000000000000000000000000000000000000000000000000000000000000000000000000000000000000000000000000000000000000000000000000000000000000000000000
310
00000000000000000000000000000000000000000000000000000000000000000000000000000000000000000000000000000000000000000000000000000000000000000000000000000000000000000000000000000000000000000000000000000000000000000000000000000000000000000000000000000000000000
310
00000000000000000000000000000000000000000000000000000000000000000000000000000000000000000000000000000000000000000000000000000000000000000000000000000000000000000000000000000000000000000000000000000000000000000000000000000000000000000000000000000000000000
310
00000000000000000000000000000000000000000000000000000000000000000000000000000000000000000000000000000000000000000000000000000000000000000000000000000000000000000000000000000000000000000000000000000000000000000000000000000000000000000000000000000000000000
310
00000000000000000000000000000000000000000000000000000000000000000000000000000000000000000000000000000000000000000000000000000000000000000000000000000000000000000000000000000000000000000000000000000000000000000000000000000000000000000000000000000000000000
310
00000000000000000000000000000000000000000000000000000000000000000000000000000000000000000000000000000000000000000000000000000000000000000000000000000000000000000000000000000000000000000000000000000000000000000000000000000000000000000000000000000000000000
310
00000000000000000000000000000000000000000000000000000000000000000000000000000000000000000000000000000000000000000000000000000000000000000000000000000000000000000000000000000000000000000000000000000000000000000000000000000000000000000000000000000000000000
310
00000000000000000000000000000000000000000000000000000000000000000000000000000000000000000000000000000000000000000000000000000000000000000000000000000000000000000000000000000000000000000000000000000000000000000000000000000000000000000000000000000000000000
310
00000000000000000000000000000000000000000000000000000000000000000000000000000000000000000000000000000000000000000000000000000000000000000000000000000000000000000000000000000000000000000000000000000000000000000000000000000000000000000000000000000000000000
310
00000000000000000000000000000000000000000000000000000000000000000000000000000000000000000000000000000000000000000000000000000000000000000000000000000000000000000000000000000000000000000000000000000000000000000000000000000000000000000000000000000000000000
310
00000000000000000000000000000000000000000000000000000000000000000000000000000000000000000000000000000000000000000000000000000000000000000000000000000000000000000000000000000000000000000000000000000000000000000000000000000000000000000000000000000000000000
310
00000000000000000000000000000000000000000000000000000000000000000000000000000000000000000000000000000000000000000000000000000000000000000000000000000000000000000000000000000000000000000000000000000000000000000000000000000000000000000000000000000000000000
310
00000000000000000000000000000000000000000000000000000000000000000000000000000000000000000000000000000000000000000000000000000000000000000000000000000000000000000000000000000000000000000000000000000000000000000000000000000000000000000000000000000000000000
310
00000000000000000000000000000000000000000000000000000000000000000000000000000000000000000000000000000000000000000000000000000000000000000000000000000000000000000000000000000000000000000000000000000000000000000000000000000000000000000000000000000000000000
310
00000000000000000000000000000000000000000000000000000000000000000000000000000000000000000000000000000000000000000000000000000000000000000000000000000000000000000000000000000000000000000000000000000000000000000000000000000000000000000000000000000000000000
310
00000000000000000000000000000000000000000000000000000000000000000000000000000000000000000000000000000000000000000000000000000000000000000000000000000000000000000000000000000000000000000000000000000000000000000000000000000000000000000000000000000000000000
310
00000000000000000000000000000000000000000000000000000000000000000000000000000000000000000000000000000000000000000000000000000000000000000000000000000000000000000000000000000000000000000000000000000000000000000000000000000000000000000000000000000000000000
310
00000000000000000000000000000000000000000000000000000000000000000000000000000000000000000000000000000000000000000000000000000000000000000000000000000000000000000000000000000000000000000000000000000000000000000000000000000000000000000000000000000000000000
310
00000000000000000000000000000000000000000000000000000000000000000000000000000000000000000000000000000000000000000000000000000000000000000000000000000000000000000000000000000000000000000000000000000000000000000000000000000000000000000000000000000000000000
310
00000000000000000000000000000000000000000000000000000000000000000000000000000000000000000000000000000000000000000000000000000000000000000000000000000000000000000000000000000000000000000000000000000000000000000000000000000000000000000000000000000000000000
310
00000000000000000000000000000000000000000000000000000000000000000000000000000000000000000000000000000000000000000000000000000000000000000000000000000000000000000000000000000000000000000000000000000000000000000000000000000000000000000000000000000000000000
310
00000000000000000000000000000000000000000000000000000000000000000000000000000000000000000000000000000000000000000000000000000000000000000000000000000000000000000000000000000000000000000000000000000000000000000000000000000000000000000000000000000000000000
310
00000000000000000000000000000000000000000000000000000000000000000000000000000000000000000000000000000000000000000000000000000000000000000000000000000000000000000000000000000000000000000000000000000000000000000000000000000000000000000000000000000000000000
310
00000000000000000000000000000000000000000000000000000000000000000000000000000000000000000000000000000000000000000000000000000000000000000000000000000000000000000000000000000000000000000000000000000000000000000000000000000000000000000000000000000000000000
310
00000000000000000000000000000000000000000000000000000000000000000000000000000000000000000000000000000000000000000000000000000000000000000000000000000000000000000000000000000000000000000000000000000000000000000000000000000000000000000000000000000000000000
310
00000000000000000000000000000000000000000000000000000000000000000000000000000000000000000000000000000000000000000000000000000000000000000000000000000000000000000000000000000000000000000000000000000000000000000000000000000000000000000000000000000000000000
310
00000000000000000000000000000000000000000000000000000000000000000000000000000000000000000000000000000000000000000000000000000000000000000000000000000000000000000000000000000000000000000000000000000000000000000000000000000000000000000000000000000000000000
310
00000000000000000000000000000000000000000000000000000000000000000000000000000000000000000000000000000000000000000000000000000000000000000000000000000000000000000000000000000000000000000000000000000000000000000000000000000000000000000000000000000000000000
310
00000000000000000000000000000000000000000000000000000000000000000000000000000000000000000000000000000000000000000000000000000000000000000000000000000000000000000000000000000000000000000000000000000000000000000000000000000000000000000000000000000000000000
310
00000000000000000000000000000000000000000000000000000000000000000000000000000000000000000000000000000000000000000000000000000000000000000000000000000000000000000000000000000000000000000000000000000000000000000000000000000000000000000000000000000000000000
310
00000000000000000000000000000000000000000000000000000000000000000000000000000000000000000000000000000000000000000000000000000000000000000000000000000000000000000000000000000000000000000000000000000000000000000000000000000000000000000000000000000000000000
310
00000000000000000000000000000000000000000000000000000000000000000000000000000000000000000000000000000000000000000000000000000000000000000000000000000000000000000000000000000000000000000000000000000000000000000000000000000000000000000000000000000000000000
310
00000000000000000000000000000000000000000000000000000000000000000000000000000000000000000000000000000000000000000000000000000000000000000000000000000000000000000000000000000000000000000000000000000000000000000000000000000000000000000000000000000000000000
310
00000000000000000000000000000000000000000000000000000000000000000000000000000000000000000000000000000000000000000000000000000000000000000000000000000000000000000000000000000000000000000000000000000000000000000000000000000000000000000000000000000000000000
310
00000000000000000000000000000000000000000000000000000000000000000000000000000000000000000000000000000000000000000000000000000000000000000000000000000000000000000000000000000000000000000000000000000000000000000000000000000000000000000000000000000000000000
310
00000000000000000000000000000000000000000000000000000000000000000000000000000000000000000000000000000000000000000000000000000000000000000000000000000000000000000000000000000000000000000000000000000000000000000000000000000000000000000000000000000000000000
310
00000000000000000000000000000000000000000000000000000000000000000000000000000000000000000000000000000000000000000000000000000000000000000000000000000000000000000000000000000000000000000000000000000000000000000000000000000000000000000000000000000000000000
310
00000000000000000000000000000000000000000000000000000000000000000000000000000000000000000000000000000000000000000000000000000000000000000000000000000000000000000000000000000000000000000000000000000000000000000000000000000000000000000000000000000000000000
310
00000000000000000000000000000000000000000000000000000000000000000000000000000000000000000000000000000000000000000000000000000000000000000000000000000000000000000000000000000000000000000000000000000000000000000000000000000000000000000000000000000000000000
310
00000000000000000000000000000000000000000000000000000000000000000000000000000000000000000000000000000000000000000000000000000000000000000000000000000000000000000000000000000000000000000000000000000000000000000000000000000000000000000000000000000000000000
310
00000000000000000000000000000000000000000000000000000000000000000000000000000000000000000000000000000000000000000000000000000000000000000000000000000000000000000000000000000000000000000000000000000000000000000000000000000000000000000000000000000000000000
310
00000000000000000000000000000000000000000000000000000000000000000000000000000000000000000000000000000000000000000000000000000000000000000000000000000000000000000000000000000000000000000000000000000000000000000000000000000000000000000000000000000000000000
310
00000000000000000000000000000000000000000000000000000000000000000000000000000000000000000000000000000000000000000000000000000000000000000000000000000000000000000000000000000000000000000000000000000000000000000000000000000000000000000000000000000000000000
310
00000000000000000000000000000000000000000000000000000000000000000000000000000000000000000000000000000000000000000000000000000000000000000000000000000000000000000000000000000000000000000000000000000000000000000000000000000000000000000000000000000000000000
310
00000000000000000000000000000000000000000000000000000000000000000000000000000000000000000000000000000000000000000000000000000000000000000000000000000000000000000000000000000000000000000000000000000000000000000000000000000000000000000000000000000000000000
310
00000000000000000000000000000000000000000000000000000000000000000000000000000000000000000000000000000000000000000000000000000000000000000000000000000000000000000000000000000000000000000000000000000000000000000000000000000000000000000000000000000000000000
310
00000000000000000000000000000000000000000000000000000000000000000000000000000000000000000000000000000000000000000000000000000000000000000000000000000000000000000000000000000000000000000000000000000000000000000000000000000000000000000000000000000000000000
310
00000000000000000000000000000000000000000000000000000000000000000000000000000000000000000000000000000000000000000000000000000000000000000000000000000000000000000000000000000000000000000000000000000000000000000000000000000000000000000000000000000000000000
310
00000000000000000000000000000000000000000000000000000000000000000000000000000000000000000000000000000000000000000000000000000000000000000000000000000000000000000000000000000000000000000000000000000000000000000000000000000000000000000000000000000000000000
310
00000000000000000000000000000000000000000000000000000000000000000000000000000000000000000000000000000000000000000000000000000000000000000000000000000000000000000000000000000000000000000000000000000000000000000000000000000000000000000000000000000000000000
310
00000000000000000000000000000000000000000000000000000000000000000000000000000000000000000000000000000000000000000000000000000000000000000000000000000000000000000000000000000000000000000000000000000000000000000000000000000000000000000000000000000000000000
310
00000000000000000000000000000000000000000000000000000000000000000000000000000000000000000000000000000000000000000000000000000000000000000000000000000000000000000000000000000000000000000000000000000000000000000000000000000000000000000000000000000000000000
310
00000000000000000000000000000000000000000000000000000000000000000000000000000000000000000000000000000000000000000000000000000000000000000000000000000000000000000000000000000000000000000000000000000000000000000000000000000000000000000000000000000000000000
310
00000000000000000000000000000000000000000000000000000000000000000000000000000000000000000000000000000000000000000000000000000000000000000000000000000000000000000000000000000000000000000000000000000000000000000000000000000000000000000000000000000000000000
310
00000000000000000000000000000000000000000000000000000000000000000000000000000000000000000000000000000000000000000000000000000000000000000000000000000000000000000000000000000000000000000000000000000000000000000000000000000000000000000000000000000000000000
310
00000000000000000000000000000000000000000000000000000000000000000000000000000000000000000000000000000000000000000000000000000000000000000000000000000000000000000000000000000000000000000000000000000000000000000000000000000000000000000000000000000000000000
310
00000000000000000000000000000000000000000000000000000000000000000000000000000000000000000000000000000000000000000000000000000000000000000000000000000000000000000000000000000000000000000000000000000000000000000000000000000000000000000000000000000000000000
310
00000000000000000000000000000000000000000000000000000000000000000000000000000000000000000000000000000000000000000000000000000000000000000000000000000000000000000000000000000000000000000000000000000000000000000000000000000000000000000000000000000000000000
310
00000000000000000000000000000000000000000000000000000000000000000000000000000000000000000000000000000000000000000000000000000000000000000000000000000000000000000000000000000000000000000000000000000000000000000000000000000000000000000000000000000000000000
310
00000000000000000000000000000000000000000000000000000000000000000000000000000000000000000000000000000000000000000000000000000000000000000000000000000000000000000000000000000000000000000000000000000000000000000000000000000000000000000000000000000000000000
310
00000000000000000000000000000000000000000000000000000000000000000000000000000000000000000000000000000000000000000000000000000000000000000000000000000000000000000000000000000000000000000000000000000000000000000000000000000000000000000000000000000000000000
310
00000000000000000000000000000000000000000000000000000000000000000000000000000000000000000000000000000000000000000000000000000000000000000000000000000000000000000000000000000000000000000000000000000000000000000000000000000000000000000000000000000000000000
310
00000000000000000000000000000000000000000000000000000000000000000000000000000000000000000000000000000000000000000000000000000000000000000000000000000000000000000000000000000000000000000000000000000000000000000000000000000000000000000000000000000000000000
310
00000000000000000000000000000000000000000000000000000000000000000000000000000000000000000000000000000000000000000000000000000000000000000000000000000000000000000000000000000000000000000000000000000000000000000000000000000000000000000000000000000000000000
310
00000000000000000000000000000000000000000000000000000000000000000000000000000000000000000000000000000000000000000000000000000000000000000000000000000000000000000000000000000000000000000000000000000000000000000000000000000000000000000000000000000000000000
310
00000000000000000000000000000000000000000000000000000000000000000000000000000000000000000000000000000000000000000000000000000000000000000000000000000000000000000000000000000000000000000000000000000000000000000000000000000000000000000000000000000000000000
310
00000000000000000000000000000000000000000000000000000000000000000000000000000000000000000000000000000000000000000000000000000000000000000000000000000000000000000000000000000000000000000000000000000000000000000000000000000000000000000000000000000000000000
310
00000000000000000000000000000000000000000000000000000000000000000000000000000000000000000000000000000000000000000000000000000000000000000000000000000000000000000000000000000000000000000000000000000000000000000000000000000000000000000000000000000000000000
310
00000000000000000000000000000000000000000000000000000000000000000000000000000000000000000000000000000000000000000000000000000000000000000000000000000000000000000000000000000000000000000000000000000000000000000000000000000000000000000000000000000000000000
310
00000000000000000000000000000000000000000000000000000000000000000000000000000000000000000000000000000000000000000000000000000000000000000000000000000000000000000000000000000000000000000000000000000000000000000000000000000000000000000000000000000000000000
310
00000000000000000000000000000000000000000000000000000000000000000000000000000000000000000000000000000000000000000000000000000000000000000000000000000000000000000000000000000000000000000000000000000000000000000000000000000000000000000000000000000000000000
310
00000000000000000000000000000000000000000000000000000000000000000000000000000000000000000000000000000000000000000000000000000000000000000000000000000000000000000000000000000000000000000000000000000000000000000000000000000000000000000000000000000000000000
310
00000000000000000000000000000000000000000000000000000000000000000000000000000000000000000000000000000000000000000000000000000000000000000000000000000000000000000000000000000000000000000000000000000000000000000000000000000000000000000000000000000000000000
310
00000000000000000000000000000000000000000000000000000000000000000000000000000000000000000000000000000000000000000000000000000000000000000000000000000000000000000000000000000000000000000000000000000000000000000000000000000000000000000000000000000000000000
310
00000000000000000000000000000000000000000000000000000000000000000000000000000000000000000000000000000000000000000000000000000000000000000000000000000000000000000000000000000000000000000000000000000000000000000000000000000000000000000000000000000000000000
310
00000000000000000000000000000000000000000000000000000000000000000000000000000000000000000000000000000000000000000000000000000000000000000000000000000000000000000000000000000000000000000000000000000000000000000000000000000000000000000000000000000000000000
310
00000000000000000000000000000000000000000000000000000000000000000000000000000000000000000000000000000000000000000000000000000000000000000000000000000000000000000000000000000000000000000000000000000000000000000000000000000000000000000000000000000000000000
310
00000000000000000000000000000000000000000000000000000000000000000000000000000000000000000000000000000000000000000000000000000000000000000000000000000000000000000000000000000000000000000000000000000000000000000000000000000000000000000000000000000000000000
310
00000000000000000000000000000000000000000000000000000000000000000000000000000000000000000000000000000000000000000000000000000000000000000000000000000000000000000000000000000000000000000000000000000000000000000000000000000000000000000000000000000000000000
310
00000000000000000000000000000000000000000000000000000000000000000000000000000000000000000000000000000000000000000000000000000000000000000000000000000000000000000000000000000000000000000000000000000000000000000000000000000000000000000000000000000000000000
310
00000000000000000000000000000000000000000000000000000000000000000000000000000000000000000000000000000000000000000000000000000000000000000000000000000000000000000000000000000000000000000000000000000000000000000000000000000000000000000000000000000000000000
310
00000000000000000000000000000000000000000000000000000000000000000000000000000000000000000000000000000000000000000000000000000000000000000000000000000000000000000000000000000000000000000000000000000000000000000000000000000000000000000000000000000000000000
310
00000000000000000000000000000000000000000000000000000000000000000000000000000000000000000000000000000000000000000000000000000000000000000000000000000000000000000000000000000000000000000000000000000000000000000000000000000000000000000000000000000000000000
310
00000000000000000000000000000000000000000000000000000000000000000000000000000000000000000000000000000000000000000000000000000000000000000000000000000000000000000000000000000000000000000000000000000000000000000000000000000000000000000000000000000000000000
310
00000000000000000000000000000000000000000000000000000000000000000000000000000000000000000000000000000000000000000000000000000000000000000000000000000000000000000000000000000000000000000000000000000000000000000000000000000000000000000000000000000000000000
310
00000000000000000000000000000000000000000000000000000000000000000000000000000000000000000000000000000000000000000000000000000000000000000000000000000000000000000000000000000000000000000000000000000000000000000000000000000000000000000000000000000000000000
310
00000000000000000000000000000000000000000000000000000000000000000000000000000000000000000000000000000000000000000000000000000000000000000000000000000000000000000000000000000000000000000000000000000000000000000000000000000000000000000000000000000000000000
310
00000000000000000000000000000000000000000000000000000000000000000000000000000000000000000000000000000000000000000000000000000000000000000000000000000000000000000000000000000000000000000000000000000000000000000000000000000000000000000000000000000000000000
310
00000000000000000000000000000000000000000000000000000000000000000000000000000000000000000000000000000000000000000000000000000000000000000000000000000000000000000000000000000000000000000000000000000000000000000000000000000000000000000000000000000000000000
310
00000000000000000000000000000000000000000000000000000000000000000000000000000000000000000000000000000000000000000000000000000000000000000000000000000000000000000000000000000000000000000000000000000000000000000000000000000000000000000000000000000000000000
310
00000000000000000000000000000000000000000000000000000000000000000000000000000000000000000000000000000000000000000000000000000000000000000000000000000000000000000000000000000000000000000000000000000000000000000000000000000000000000000000000000000000000000
310
00000000000000000000000000000000000000000000000000000000000000000000000000000000000000000000000000000000000000000000000000000000000000000000000000000000000000000000000000000000000000000000000000000000000000000000000000000000000000000000000000000000000000
310
00000000000000000000000000000000000000000000000000000000000000000000000000000000000000000000000000000000000000000000000000000000000000000000000000000000000000000000000000000000000000000000000000000000000000000000000000000000000000000000000000000000000000
310
00000000000000000000000000000000000000000000000000000000000000000000000000000000000000000000000000000000000000000000000000000000000000000000000000000000000000000000000000000000000000000000000000000000000000000000000000000000000000000000000000000000000000
310
00000000000000000000000000000000000000000000000000000000000000000000000000000000000000000000000000000000000000000000000000000000000000000000000000000000000000000000000000000000000000000000000000000000000000000000000000000000000000000000000000000000000000
310
00000000000000000000000000000000000000000000000000000000000000000000000000000000000000000000000000000000000000000000000000000000000000000000000000000000000000000000000000000000000000000000000000000000000000000000000000000000000000000000000000000000000000
310
00000000000000000000000000000000000000000000000000000000000000000000000000000000000000000000000000000000000000000000000000000000000000000000000000000000000000000000000000000000000000000000000000000000000000000000000000000000000000000000000000000000000000
310
00000000000000000000000000000000000000000000000000000000000000000000000000000000000000000000000000000000000000000000000000000000000000000000000000000000000000000000000000000000000000000000000000000000000000000000000000000000000000000000000000000000000000
310
00000000000000000000000000000000000000000000000000000000000000000000000000000000000000000000000000000000000000000000000000000000000000000000000000000000000000000000000000000000000000000000000000000000000000000000000000000000000000000000000000000000000000
310
00000000000000000000000000000000000000000000000000000000000000000000000000000000000000000000000000000000000000000000000000000000000000000000000000000000000000000000000000000000000000000000000000000000000000000000000000000000000000000000000000000000000000
310
00000000000000000000000000000000000000000000000000000000000000000000000000000000000000000000000000000000000000000000000000000000000000000000000000000000000000000000000000000000000000000000000000000000000000000000000000000000000000000000000000000000000000
310
00000000000000000000000000000000000000000000000000000000000000000000000000000000000000000000000000000000000000000000000000000000000000000000000000000000000000000000000000000000000000000000000000000000000000000000000000000000000000000000000000000000000000
310
00000000000000000000000000000000000000000000000000000000000000000000000000000000000000000000000000000000000000000000000000000000000000000000000000000000000000000000000000000000000000000000000000000000000000000000000000000000000000000000000000000000000000
310
00000000000000000000000000000000000000000000000000000000000000000000000000000000000000000000000000000000000000000000000000000000000000000000000000000000000000000000000000000000000000000000000000000000000000000000000000000000000000000000000000000000000000
310
00000000000000000000000000000000000000000000000000000000000000000000000000000000000000000000000000000000000000000000000000000000000000000000000000000000000000000000000000000000000000000000000000000000000000000000000000000000000000000000000000000000000000
310
00000000000000000000000000000000000000000000000000000000000000000000000000000000000000000000000000000000000000000000000000000000000000000000000000000000000000000000000000000000000000000000000000000000000000000000000000000000000000000000000000000000000000
310
00000000000000000000000000000000000000000000000000000000000000000000000000000000000000000000000000000000000000000000000000000000000000000000000000000000000000000000000000000000000000000000000000000000000000000000000000000000000000000000000000000000000000
310
00000000000000000000000000000000000000000000000000000000000000000000000000000000000000000000000000000000000000000000000000000000000000000000000000000000000000000000000000000000000000000000000000000000000000000000000000000000000000000000000000000000000000
310
00000000000000000000000000000000000000000000000000000000000000000000000000000000000000000000000000000000000000000000000000000000000000000000000000000000000000000000000000000000000000000000000000000000000000000000000000000000000000000000000000000000000000
310
00000000000000000000000000000000000000000000000000000000000000000000000000000000000000000000000000000000000000000000000000000000000000000000000000000000000000000000000000000000000000000000000000000000000000000000000000000000000000000000000000000000000000
310
00000000000000000000000000000000000000000000000000000000000000000000000000000000000000000000000000000000000000000000000000000000000000000000000000000000000000000000000000000000000000000000000000000000000000000000000000000000000000000000000000000000000000
310
00000000000000000000000000000000000000000000000000000000000000000000000000000000000000000000000000000000000000000000000000000000000000000000000000000000000000000000000000000000000000000000000000000000000000000000000000000000000000000000000000000000000000
310
00000000000000000000000000000000000000000000000000000000000000000000000000000000000000000000000000000000000000000000000000000000000000000000000000000000000000000000000000000000000000000000000000000000000000000000000000000000000000000000000000000000000000
310
00000000000000000000000000000000000000000000000000000000000000000000000000000000000000000000000000000000000000000000000000000000000000000000000000000000000000000000000000000000000000000000000000000000000000000000000000000000000000000000000000000000000000
310
00000000000000000000000000000000000000000000000000000000000000000000000000000000000000000000000000000000000000000000000000000000000000000000000000000000000000000000000000000000000000000000000000000000000000000000000000000000000000000000000000000000000000
310
00000000000000000000000000000000000000000000000000000000000000000000000000000000000000000000000000000000000000000000000000000000000000000000000000000000000000000000000000000000000000000000000000000000000000000000000000000000000000000000000000000000000000
310
00000000000000000000000000000000000000000000000000000000000000000000000000000000000000000000000000000000000000000000000000000000000000000000000000000000000000000000000000000000000000000000000000000000000000000000000000000000000000000000000000000000000000
310
00000000000000000000000000000000000000000000000000000000000000000000000000000000000000000000000000000000000000000000000000000000000000000000000000000000000000000000000000000000000000000000000000000000000000000000000000000000000000000000000000000000000000
310
00000000000000000000000000000000000000000000000000000000000000000000000000000000000000000000000000000000000000000000000000000000000000000000000000000000000000000000000000000000000000000000000000000000000000000000000000000000000000000000000000000000000000
310
00000000000000000000000000000000000000000000000000000000000000000000000000000000000000000000000000000000000000000000000000000000000000000000000000000000000000000000000000000000000000000000000000000000000000000000000000000000000000000000000000000000000000
310
00000000000000000000000000000000000000000000000000000000000000000000000000000000000000000000000000000000000000000000000000000000000000000000000000000000000000000000000000000000000000000000000000000000000000000000000000000000000000000000000000000000000000
310
00000000000000000000000000000000000000000000000000000000000000000000000000000000000000000000000000000000000000000000000000000000000000000000000000000000000000000000000000000000000000000000000000000000000000000000000000000000000000000000000000000000000000
310
00000000000000000000000000000000000000000000000000000000000000000000000000000000000000000000000000000000000000000000000000000000000000000000000000000000000000000000000000000000000000000000000000000000000000000000000000000000000000000000000000000000000000
310
00000000000000000000000000000000000000000000000000000000000000000000000000000000000000000000000000000000000000000000000000000000000000000000000000000000000000000000000000000000000000000000000000000000000000000000000000000000000000000000000000000000000000
310
00000000000000000000000000000000000000000000000000000000000000000000000000000000000000000000000000000000000000000000000000000000000000000000000000000000000000000000000000000000000000000000000000000000000000000000000000000000000000000000000000000000000000
310
00000000000000000000000000000000000000000000000000000000000000000000000000000000000000000000000000000000000000000000000000000000000000000000000000000000000000000000000000000000000000000000000000000000000000000000000000000000000000000000000000000000000000
310
00000000000000000000000000000000000000000000000000000000000000000000000000000000000000000000000000000000000000000000000000000000000000000000000000000000000000000000000000000000000000000000000000000000000000000000000000000000000000000000000000000000000000
310
00000000000000000000000000000000000000000000000000000000000000000000000000000000000000000000000000000000000000000000000000000000000000000000000000000000000000000000000000000000000000000000000000000000000000000000000000000000000000000000000000000000000000
310
00000000000000000000000000000000000000000000000000000000000000000000000000000000000000000000000000000000000000000000000000000000000000000000000000000000000000000000000000000000000000000000000000000000000000000000000000000000000000000000000000000000000000
310
00000000000000000000000000000000000000000000000000000000000000000000000000000000000000000000000000000000000000000000000000000000000000000000000000000000000000000000000000000000000000000000000000000000000000000000000000000000000000000000000000000000000000
310
00000000000000000000000000000000000000000000000000000000000000000000000000000000000000000000000000000000000000000000000000000000000000000000000000000000000000000000000000000000000000000000000000000000000000000000000000000000000000000000000000000000000000
310
00000000000000000000000000000000000000000000000000000000000000000000000000000000000000000000000000
  0
XRECORD
  5
40A9E
102
{ACAD_REACTORS
330
40A31
102
}
330
40A31
100
AcDbXrecord
280
     1
102
SHADEPLOT
 70
     0
102
SHADEPLOTRESLEVEL
 70
     2
102
SHADEPLOTCUSTOMDPI
 70
   300
  0
XRECORD
  5
40A32
102
{ACAD_REACTORS
330
40A31
102
}
330
40A31
100
AcDbXrecord
280
     1
310
28000000000100006B0000000100080000000000006B0000000000000000000000010000000000000000000000000000FFFFFF000000000000000000000000000000000000000000000000000000000000000000330000006600000099000000CC000000FF00000000330000333300006633000099330000CC330000FF3300
310
0000660000336600006666000099660000CC660000FF66000000990000339900006699000099990000CC990000FF99000000CC000033CC000066CC000099CC0000CCCC0000FFCC000000FF000033FF000066FF000099FF0000CCFF0000FFFF000000003300330033006600330099003300CC003300FF003300003333003333
310
33006633330099333300CC333300FF33330000663300336633006666330099663300CC663300FF66330000993300339933006699330099993300CC993300FF99330000CC330033CC330066CC330099CC3300CCCC3300FFCC330000FF330033FF330066FF330099FF3300CCFF3300FFFF330000006600330066006600660099
310
006600CC006600FF00660000336600333366006633660099336600CC336600FF33660000666600336666006666660099666600CC666600FF66660000996600339966006699660099996600CC996600FF99660000CC660033CC660066CC660099CC6600CCCC6600FFCC660000FF660033FF660066FF660099FF6600CCFF6600
310
FFFF660000009900330099006600990099009900CC009900FF00990000339900333399006633990099339900CC339900FF33990000669900336699006666990099669900CC669900FF66990000999900339999006699990099999900CC999900FF99990000CC990033CC990066CC990099CC9900CCCC9900FFCC990000FF99
310
0033FF990066FF990099FF9900CCFF9900FFFF99000000CC003300CC006600CC009900CC00CC00CC00FF00CC000033CC003333CC006633CC009933CC00CC33CC00FF33CC000066CC003366CC006666CC009966CC00CC66CC00FF66CC000099CC003399CC006699CC009999CC00CC99CC00FF99CC0000CCCC0033CCCC0066CC
310
CC0099CCCC00CCCCCC00FFCCCC0000FFCC0033FFCC0066FFCC0099FFCC00CCFFCC00FFFFCC000000FF003300FF006600FF009900FF00CC00FF00FF00FF000033FF003333FF006633FF009933FF00CC33FF00FF33FF000066FF003366FF006666FF009966FF00CC66FF00FF66FF000099FF003399FF006699FF009999FF00CC
310
99FF00FF99FF0000CCFF0033CCFF0066CCFF0099CCFF00CCCCFF00FFCCFF0000FFFF0033FFFF0066FFFF0099FFFF00CCFFFF00FFFFFF00000000000D0D0D001A1A1A00282828003535350043434300505050005D5D5D006B6B6B00787878008686860093939300A1A1A100AEAEAE00BBBBBB00C9C9C900D6D6D600E4E4E400
310
F1F1F100FFFFFF000000000000000000000000000000000000000000000000000000000000000000000000000000000000000000000000000000000000000000000000000000000000000000000000000000000000000000000000000000000000000000000000000000000000000000000000000000000000000000000000
310
00000000000000000000000000000000000000000000000000000000000000000000000000000000000000000000000000000000000000000000000000000000000000000000000000000000000000000000000000000000000000000000000000000000000000000000000000000000000000000000000000000000000000
310
00000000000000000000000000000000000000000000000000000000000000000000000000000000000000000000000000000000000000000000000000000000000000000000000000000000000000000000000000000000000000000000000000000000000000000000000000000000000000000000000000000000000000
310
00000000000000000000000000000000000000000000000000000000000000000000000000000000000000000000000000000000000000000000000000000000000000000000000000000000000000000000000000000000000000000000000000000000000000000000000000000000000000000000000000000000000000
310
00000000000000000000000000000000000000000000000000000000000000000000000000000000000000000000000000000000000000000000000000000000000000000000000000000000000000000000000000000000000000000000000000000000000000000000000000000000000000000000000000000000000000
310
00000000000000000000000000000000000000000000000000000000000000000000000000000000000000000000000000000000000000000000000000000000000000000000000000000000000000000000000000000000000000000000000000000000000000000000000000000000000000000000000000000000000000
310
00000000000000000000000000000000000000000000000000000000000000000000000000000000000000000000000000000000000000000000000000000000000000000000000000000000000000000000000000000000000000000000000000000000000000000000000000000000000000000000000000000000000000
310
00000000000000000000000000000000000000000000000000000000000000000000000000000000000000000000000000000000000000000000000000000000000000000000000000000000000000000000000000000000000000000000000000000000000000000000000000000000000000000000000000000000000000
310
00000000000000000000000000000000000000000000000000000000000000000000000000000000000000000000000000000000000000000000000000000000000000000000000000000000000000000000000000000000000000000000000000000000000000000000000000000000000000000000000000000000000000
310
00000000000000000000000000000000000000000000000000000000000000000000000000000000000000000000000000000000000000000000000000000000000000000000000000000000000000000000000000000000000000000000000000000000000000000000000000000000000000000000000000000000000000
310
00000000000000000000000000000000000000000000000000000000000000000000000000000000000000000000000000000000000000000000000000000000000000000000000000000000000000000000000000000000000000000000000000000000000000000000000000000000000000000000000000000000000000
310
00000000000000000000000000000000000000000000000000000000000000000000000000000000000000000000000000000000000000000000000000000000000000000000000000000000000000000000000000000000000000000000000000000000000000000000000000000000000000000000000000000000000000
310
00000000000000000000000000000000000000000000000000000000000000000000000000000000000000000000000000000000000000000000000000000000000000000000000000000000000000000000000000000000000000000000000000000000000000000000000000000000000000000000000000000000000000
310
00000000000000000000000000000000000000000000000000000000000000000000000000000000000000000000000000000000000000000000000000000000000000000000000000000000000000000000000000000000000000000000000000000000000000000000000000000000000000000000000000000000000000
310
00000000000000000000000000000000000000000000000000000000000000000000000000000000000000000000000000000000000000000000000000000000000000000000000000000000000000000000000000000000000000000000000000000000000000000000000000000000000000000000000000000000000000
310
00000000000000000000000000000000000000000000000000000000000000000000000000000000000000000000000000000000000000000000000000000000000000000000000000000000000000000000000000000000000000000000000000000000000000000000000000000000000000000000000000000000000000
310
00000000000000000000000000000000000000000000000000000000000000000000000000000000000000000000000000000000000000000000000000000000000000000000000000000000000000000000000000000000000000000000000000000000000000000000000000000000000000000000000000000000000000
310
00000000000000000000000000000000000000000000000000000000000000000000000000000000000000000000000000000000000000000000000000000000000000000000000000000000000000000000000000000000000000000000000000000000000000000000000000000000000000000000000000000000000000
310
00000000000000000000000000000000000000000000000000000000000000000000000000000000000000000000000000000000000000000000000000000000000000000000000000000000000000000000000000000000000000000000000000000000000000000000000000000000000000000000000000000000000000
310
00000000000000000000000000000000000000000000280000000000000000000000000000000000000000000000000000000000000000000000000000000028000000000000000000000000000000000000000000000000000000000000000000000000000000000000000000000000000000000000000000000000000000
310
00000000000000000000000000000000000000000000000000000000000000000000000000000000000000000000000000000000000000000000000000000000000000000000000000000000000000000000000000000000000000000000000000000000000000000000000000000000000000000000000000000000000000
310
00000000000000000000000000000000000000000000000028000000000000000000000000000000BEBEBEBEBEBEBEBEBE000000000000000000000000000000002800000000000000000000000000000000000000000000000000000000000000000000000000000000000000000000000000000000000000000000000000
310
00000000000000000000000000000000000000000000000000000000000000000000000000000000000000000000000000000000000000000000000000000000000000000000000000000000000000000000000000000000000000000000000000000000000000000000000000000000000000000000000000000000000000
310
00000000000000000000000000000000000000000000000000002800DCDC000000000000000000000000BEBEBEBEBEBEBEBEBE00000000000000000000000000DCDC00280000000000000000000000000000000000000000000000000000000000000000000000000000000000000000000000000000000000000000000000
310
00000000000000000000000000000000000000000000000000000000000000000000000000000000000000000000000000000000000000000000000000000000000000000000000000000000000000000000000000000000000000000000000000000000000000000000000000000000000000000000000000000000000000
310
00000000000000000000000000000000000000000000000000000000DCDCDCDCDCDCDCDCDCDCDCDCDCDCDC00BEBEBEBEBEBEBEBEBE0000DCDCDCDCDCDCDCDCDCDCDCDCDCDCDC000000000000000000000000000000000000000000000000000000000000000000000000000000000000000000000000000000000000000000
310
00000000000000000000000000000000000000000000000000000000000000000000000000000000000000000000000000000000000000000000000000000000000000000000000000000000000000000000000000000000000000000000000000000000000000000000000000000000000000000000000000000000000000
310
00000000000000000000000000000000000000000000000000000000000028000000000000000000000000000000BEBEBEBEBEBEBEBEBE000000000000000000000000000000002800000000000000000000000000000000000000000000000000000000000000000000000000000000000000000000000000000000000000
310
00000000000000000000000000000000000000000000000000000000000000000000000000000000000000000000000000000000000000000000000000000000000000000000000000000000000000000000000000000000000000000000000000000000000000000000000000000000000000000000000000000000000000
310
00000000000000000000000000000000000000000000000000000000000000002800000000000000000000000000000000000000000000000000000000000000000000000000000000280000000000000000000000000000000000000000000000000000000000000000000000000000000000000000000000000000000000
310
00000000000000000000000000000000000000000000000000000000000000000000000000000000000000000000000000000000000000000000000000000000000000000000000000000000000000000000000000000000000000000000000000000000000000000000000000000000000000000000000000000000000000
310
00000000000000000000000000000000000000000000000000000000000000000000280000000000000000000000000000000000000000000000000000000000000000000000000000000028000000000000000000000000000000000000000000000000000000000000000000000000000000000000000000000000000000
310
00000000000000000000000000000000000000000000000000000000000000000000000000000000000000000000000000000000000000000000000000000000000000000000000000000000000000000000000000000000000000000000000000000000000000000000000000000000000000000000000000000000000000
310
00000000000000000000000000000000000000000000000000000000000000000000000028000000000000000000000000000000000000000000000000000000000000000000000000000000002800000000000000000000000000000000000000000000000000000000000000000000000000000000000000000000000000
310
00000000000000000000000000000000000000000000000000000000000000000000000000000000000000000000000000000000000000000000000000000000000000000000000000000000000000000000000000000000000000000000000000000000000000000000000000000000000000000000000000000000000000
310
00000000000000000000000000000000000000000000000000000000000000000000000000002800000000000000000000000000000000000000000000000000000000000000000000000000000000280000000000000000000000000000000000000000000000000000000000000000000000000000000000000000000000
310
00000000000000000000000000000000000000000000000000000000000000000000000000000000000000000000000000000000000000000000000000000000000000000000000000000000000000000000000000000000000000000000000000000000000000000000000000000000000000000000000000000000000000
310
00000000000000000000000000000000000000000000000000000000000000000000000000000000280000000000000000000000000000000000000000000000000000000000000000000000000000000028000000000000000000000000000000000000000000000000000000000000000000000000000000000000000000
310
00000000000000000000000000000000000000000000000000000000000000000000000000000000000000000000000000000000000000000000000000000000000000000000000000000000000000000000000000000000000000000000000000000000000000000000000000000000000000000000000000000000000000
310
00000000000000000000000000000000000000000000000000000000000000000000000000000000000028000000000000000000000000000000000000000000000000000000000000000000000000000000002800000000000000000000000000000000000000000000000000000000000000000000000000000000000000
310
00000000000000000000000000000000000000000000000000000000000000000000000000000000000000000000000000000000000000000000000000000000000000000000000000000000000000000000000000000000000000000000000000000000000000000000000000000000000000000000000000000000000000
310
00000000000000000000000000000000000000000000000000000000000000000000000000000000000000002800000000000000000000000000000000000000000000000000000000000000000000000000000000280000000000000000000000000000000000000000000000000000000000000000000000000000000000
310
00000000000000000000000000000000000000000000000000000000000000000000000000000000000000000000000000000000000000000000000000000000000000000000000000000000000000000000000000000000000000000000000000000000000000000000000000000000000000000000000000000000000000
310
00000000000000000000000000000000000000000000000000000000000000000000000000000000000000000000280000000000000000000000000000000000000000000000000000000000000000000000000000000028000000000000000000000000000000000000000000000000000000000000000000000000000000
310
00000000000000000000000000000000000000000000000000000000000000000000000000000000000000000000000000000000000000000000000000000000000000000000000000000000000000000000000000000000000000000000000000000000000000000000000000000000000000000000000000000000000000
310
00000000000000000000000000000000000000000000000000000000000000000000000000000000000000000000000028000000000000000000000000000000000000000000000000000000000000000000000000000000002800000000000000000000000000000000000000000000000000000000000000000000000000
310
00000000000000000000000000000000000000000000000000000000000000000000000000000000000000000000000000000000000000000000000000000000000000000000000000000000000000000000000000000000000000000000000000000000000000000000000000000000000000000000000000000000000000
310
00000000000000000000000000000000000000000000000000000000000000000000000000000000000000000000000000DC280000000000000000000000000000000000000000000000000000000000000000000000000000000028DCDC000000000000000000000000000000000000000000000000000000000000000000
310
00000000000000000000000000000000000000000000000000000000000000000000000000000000000000000000000000000000000000000000000000000000000000000000000000000000000000000000000000000000000000000000000000000000000000000000000000000000000000000000000000000000000000
310
000000000000000000000000000000000000000000000000000000DCDCDCDCDCDCDCDCDCDCDCDCDCDCDCDCDCDCDCDCDCDCDCDC00DC0F0F0F0F0F0F000000000F0F0F0F0F0F0F0F000000000F0F0F0F0F0F0F0F000000000F0F0F0F0F0FDCDCDCDCDCDCDCDCDCDCDCDCDCDCDCDCDCDCDCDCDCDCDCDCDCDCDC00000000000000
310
00000000000000000000000000000000000000000000000000000000000000000000000000000000000000000000000000000000000000000000000000000000000000000000000000000000000000000000000000000000000000000000000000000000000000000000000000000000000000000000000000000000000000
310
000000000000000000DCDCDCDCDCDCDCDCDCDCDCDCDCBEBEBEBEBEBEBEBEBEBE00DC00DC00DCDCDCDCDC0000DCDCDCDCDCDC00DC00DCDCBE0000BEBE0F000000000FBE0000BEBE000F000000000F0000BEBE00BE0FBE0000000F00BE0000BEDCDC00DC00DCDCDC00DCDC0000DCDC00DC00DCDC00DC00BEBEBEBEBEBEBEBEBE
310
BEBEDCDCDCDCDCDCDCDCDCDCDCDCDC00000000000000000000000000000000000000000000000000000000000000000000000000000000000000000000000000000000000000000000000000000000000000000000000000000000000000000000000000000F0F0F0F0F0F0F0F0F0F0F0F0F0F0F0F0F0F0F0F0F0F0F0F0F0F
310
0F0F0F0F0F0F0F0F0F0F0F0FDC0FDC0FDCDCDCDCDCDC0FDC0FBEDCDCDCDCDC0FBE0FDC0FDC0FDC0FDCDC0FDCDCDC0FDC00DCDCDCDCDCDC00DCBE0F0F0FBE0F000000000F0F0F0F0F0F0F0F000000000FBE0F0F0F0F0F0FBE0000000F000F0F0F00DC00DCDCDCDCDCDCDC00DCDCDCDC0FDC0FDCDC0FDC0FDC0FBE0FDC0FDCDC
310
DCBEBEDC0FDC0FDCDCDCDCDCDC0FDC0F0F0F0F0F0F0F0F0F0F0F0F0F0F0F0F0F0F0F0F0F0F0F0F0F0F0F0F0F0F0F0F0F0F0F0F0F0F0F00000000000000000000000000000000000000000000000000000000000000000000000000000000000000000000000000000000000000000000000000000000000000000000000000
310
BE0000000000000000BE00000000000000BE00000000000000000000BE00000000BE000000000000000000BE000000000FDCDCDC000F0F0FDCDCDC000F000F000F000000000F0F000000000F0F000000000FBE0F0000000F0F000000000F000F000F00DCDCDC0F0F0FBE00DCDC0F00000000BE000000000000000000BE0000
310
0000BEBE000000000000000000BE00000000000000BE0000000000000000BE000000000000000000000000000000000000000000000000000000000000000000000000000000000000000000000000000000000000000000000000000000000000000000000000000000000000000000000000000000000000000000000000
310
0000000000000000000000000000000000000000000000000000000000BEBE00000000BE00000000000000BE00BE000000000FDC00DC0F00BE0F0F0F0F000F000F000F000000000F0F000000000F0F000000000F000F0000000F0F000000000FBE0F000FBE0F0F0F0F00BE0F0FDC00DC00000000BE00BE0000000000000000
310
BE000000BEBE00000000000000000000000000000000000000000000000000000000000000000000000000000000000000000000000000000000000000000000000000000000000000000000000000000000000000000000000000000000000000000000000000000000000000000000000000000000000000000000000000
310
0000000000000000000000000000000000BEBE000000000000BE000000000000BEBE0000BE00000000000000BEBE0000000000000FDCDCDCBE00000F0F0F0F0F0F000FBE0F000000000F0F000000000F0F000000000F000F0000000F0FBE0000000F000F000F0F0F0F0F0FBE00000FDCDCDC000000000000BEBE0000000000
310
0000BE000000BE000000000000BE000000000000BEBEBE000000000000000000000000000000000000000000000000000000000000000000000000000000000000000000000000000000000000000000000000000000000000000000000000000000000000000000000000000000BE0000000000000000BE00000000000000
310
00000000BEBEBE000000000000000000BEBE0000BE000000BE00000000000000000000BE0000BE0000000000BE0000000000000000000FDCDCDC0FBE000FDCDCDC0000000FBE0F000000000F0F000000000F0F000000000FBE0F0000000F0FBE0000000F000F000000DCDCDC0F00BE0F0FDCDC0F000000000000000000BE00
310
00000000BE0000BE00000000000000000000BE00000000BE00BEBE00000000000000000000BEBE000000000000000000000000BE00000000000000BE0000000000000000000000000000000000000000000000000000000000000000000000000000000000000000000000000000000000BE000000BEBEBE00000000BE0000
310
00000000BE0000BE0000000000000000000000BEBE00000000000000000000000000BE0000BE0000BEBE00000000000000000000000000000FDC00DCDCDCDCDCDC00DC0000000F000F000000BE0F0F000000000F0F000000000FBE0F0000000F0F000000000FBE0F000000DCDCDCDCDCDCDCDCDC00DC000000000000000000
310
0000000000BEBE0000BEBE00BE00000000000000000000000000BEBE0000000000000000000000BE0000BE00000000000000BE000000BEBEBE00000000BE00000000000000000000000000000000000000000000000000000000000000000000000000000000000000000000000000000000000000BEBEBE00BE0000000000
310
0000000000000000000000000000000000BE000000000000000000000000000000000000000000BEBE00BE000000000000BE0000BEBEBE0000000FDCDCDC00DC00DC00DCDC0000000F000F000000BE0F0F000000000F0F000000000F000F0000000F0F000000000FBE0F000000DCDC00DC00DC00DC00DC0F000000BEBEBE00
310
00BE000000000000BE0000BE00000000000000000000000000000000000000000000BE000000000000000000000000000000000000000000BEBEBEBEBE0000000000000000000000000000000000000000000000000000000000000000000000000000000000000000000000000000000000000000000000000000BE000000
310
00BE000000000000000000000000000000000000000000000000000000000000000000000000000000BE00BEBE00000000000000000000BEBE0000000FDCDCDCDCDCDCDCDCDCDC0000000FBE0F000000000F0F000000000F0F000000000FBE0F0000000F0FBE0000000F000F000000DCDCDCDCDCDCDCDCDCDCDC000000BEBE
310
00000000000000000000BE00BEBE000000000000000000000000000000000000000000000000000000000000000000000000000000BE00000000BE0000000000000000000000000000000000000000000000000000000000000000000000000000000000000000000000000000000000000000000000000000000000000000
310
00000000000000BE00000000BE000000000000000000000000000000000000BE0000000000000000000000BE00BEBE0000000000000000000000BEBE00000F000000000000000000000000000FBE0F0000000F000F000000000FBE0F00000F00BE0F0000000F000F0000000FBE0F000000000000000000000000000F0000BE
310
BE0000000000000000000000BEBE00BEBE00000000000000000000BE000000000000000000000000000000000000BE0000000000BE0000000000000000000000000000000000000000000000000000000000000000000000000000000000000000000000000000000000000000000000000000000000000000000000000000
310
0000000000000000000000000000000000BE00000000BE000000000000000000000000000000BE0000000000BEBEBE00BE0000000000000000000000000000000F000000000000000000000000000F000F0000000FBE0F000000000FBE0F00000F00BE0F0000000F000F0000000FBE0F000000000000000000000000000F00
310
0000000000000000000000000000BE00BEBE00BE00000000BE00000000000000000000000000000000BE000000BE000000000000000000000000000000000000000000000000000000000000000000000000000000000000000000000000000000000000000000000000000000000000000000000000000000000000000000
310
00000000BE000000000000000000000000000000000000000000000000000000000000000000BEBEBE000000000000BE00BEBE0000000000000000BE0000000000000F00000000000000000000000000000F0F0000000FBE0F000000000F000F00000FBE0F000000000FBE0F0000000F0FBE00000000000000000000000000
310
0F000000000000BE0000000000000000BEBEBEBEBE0000000000BEBEBE000000000000000000000000000000000000000000000000000000000000000000BE00000000000000000000000000000000000000000000000000000000000000000000000000000000000000000000000000000000000000000000000000000000
310
00000000BE00000000000000000000000000000000000000000000000000000000BE0000000000BE00BEBE0000000000BEBEBEBEBE0000000000BE0000000000000000000F00000000000000000000000000000F0F0000000F000F000000000F000F00000F000F000000000FBE0F0000000F0F000000000000000000000000
310
00000F000000000000000000BE0000000000BEBEBEBEBEBE00000000BEBE00BEBE00000000BE00000000000000000000000000000000000000000000000000000000BE000000000000000000000000000000000000000000000000000000000000000000000000000000000000000000000000000000000000000000000000
310
000000000000000000000000000000000000BEBEBEBE0000000000000000BE000000000000000000000000000000BE00000000BE00BEBE0000000000000000000000000000000F00000000000000000000000000000F0F0000000F000F000000000FBE0F00000F000F000000000F000F0000000F0F00000000000000000000
310
000000000F000000000000000000000000000000BE00BEBE00000000BE000000000000000000000000000000BE0000000000000000BEBEBEBE00000000000000000000000000000000000000000000000000000000000000000000000000000000000000000000000000000000000000000000000000000000000000000000
310
00BE0000000000000000BE000000000000000000BE00BEBEBE000000000000BE0000000000000000000000000000000000BE000000BE00BEBE00000000BE000000000000000000BE0F00000000000000000000000000000F0F0000000FBE0F000000000FBE0F00000FBE0F000000000F000F0000000F0FBE00000000000000
310
0000000000000FBE00000000000000000000BE000000BEBE00BEBE0000BE0000000000000000000000000000000000BE000000000000BEBEBE00BE000000000000000000BE0000000000000000BE00000000000000000000000000000000000000000000000000000000000000000000000000000000000000000000000000
310
0000000000000000000000BE00000000000000000000000000BEBE000000BE00000000000000000000BE00000000000000000000BE0000BEBE00BE0000000000000000000000BE0000000F00000000000000000000000000000F0F0000000FBE0F000000000F000F00000FBE0F000000000FBE0F0000000F0F000000000000
310
00000000000000000F000000BE0000000000000000000000BE00BEBE000000BE00000000000000000000BE00000000000000000000BE0000BEBE00000000000000000000000000BE00000000000000000000000000000000000000000000000000000000000000000000000000000000000000000000000000000000000000
310
00000000000000000000BE00000000000000000000BE000000000000BE00000000000000BE0000000000000000BE0000000000000000000000BE00BEBE00000000BE0000BE000000000000000F00000000000000000000000000000F0F0000000F000F000000000F000F00000F000F000000000F000F0000000F0F00000000
310
000000000000000000000F00000000000000BE0000BE00000000BEBEBEBEBE00000000000000000000BE0000000000000000BE00000000000000BE00000000000000BE00000000000000000000BE00000000000000000000000000000000000000000000000000000000000000000000000000000000000000000000000000
310
000000000000BEBEBE00000000000000000000000000000000000000BE00000000BE000000000000000000000000000000000000000000000000BEBEBEBEBE000000000000BEBE000000000000000F00000000000000000000000000000F0F0000000FBE0F000000000FBE0F00000F000F000000000F000F0000000F0F0000
310
0000000000000000000000000F00000000000000BEBE000000000000BEBE00BEBE000000000000000000000000000000000000000000000000BE00000000BE00000000000000000000000000000000000000BEBEBEBE0000000000000000000000000000000000000000000000000000000000000000000000000000000000
310
000000000000000000BEBE00000000000000BE000000000000000000000000000000000000000000000000BE0000000000000000BE000000BEBEBE0000BEBEBEBE0000000000BE00BE00000000BEBE000F00000000000000000000000000000F0F0F0F0F0FBE0F000000000FBE0F0F0F0F000F000000000FBE0F0F0F0F0F0F
310
00000000000000000000000000000F00BEBE00000000BE00BE0000000000BE00BEBE000000BEBE000000BE0000000000000000BE000000000000000000000000000000000000000000000000BE00000000000000BEBE0000000000000000000000000000000000000000000000000000000000000000000000000000000000
310
000000000000000000000000BE0000000000000000000000000000000000BE00000000000000000000000000BEBE00000000BE0000000000000000BE000000BE00BEBE00000000000000000000000000BE000F00000000000000000000000000000F0F0F0F0F0F0F0F000000000F0F0F0F0F0F0F0F000000000F0F0F0F0F0F
310
0F0F00000000000000000000000000000F00BE00000000000000000000000000BEBE00BEBE0000BE0000000000000000BE00000000BEBEBE000000000000000000000000BE0000000000000000000000000000000000BE00000000000000000000000000000000000000000000000000000000000000000000000000000000
310
00000000000000000000000000000000000000000000000000000000000000BEBE0000000000000000000000000000BE000000BE00BE000000000000BE00000000BEBE00BE0000000000000000000000000000000F000000000000000000000000000000000000000000000000000000000000000000000000000000000000
310
0000000000000000000000000000000000000F000000000000000000000000000000BE0000BE00000000BE00000000000000BEBE00000000BE00000000000000000000000000BEBE00000000000000000000000000000000000000000000000000000000000000000000000000000000000000000000000000000000000000
310
00000000000000000000000000000F0F0F0F0F0F0F0F0F0F0F0F0F0F0F0F0F0F0F0F0F0F0F0F0F0F0F0F0F0F0F0F0F0F0F0F0F0F0F0F0F0F0F0F0F0F0F0F0F0F0F0F0FBE0FBEBE0F0F0F0F0F0F0F0F0F0F0F0F0F0F0F0F00000000000000000000000000000000000000000000000000000000000000000000000000000000
310
00000000000000000000000000000000000000000F0F0F0F0F0F0F0F0F0F0F0F0F0F0F0FBE0FBEBEBE0F0F0F0F0F0F0F0F0F0F0F0F0F0F0F0F0F0F0F0F0F0F0F0F0F0F0F0F0F0F0F0F0F0F0F0F0F0F0F0F0F0F0F0F0F0F0F0F0F0F0F0F0F000000000000000000000000000000000000000000000000000000000000000000
310
00000000000000000000000000000000000000DC0000000000DC00000000DC0000000000DC0000000000DC0000000000DC0000000000DC0000000000DC00000000DC000000BEBEBEBE00000000DC0000000000DC000000000F0000000000000000000000000000000000000000000000000000000000000000000000000000
310
000000000000000000000000000000000000000000000F00000000DC0000000000DC00000000BEBE00BEBE0000DC0000000000DC00000000DC0000000000DC0000000000DC0000000000DC0000000000DC0000000000DC00000000DC0000000000000000000000000000000000000000000000000000000000000000000000
310
000000000000000000000000000000000000000000DC00000000DC00000000DC0000000000DC0000000000DC0000000000DC0000000000DC0000000000DC00000000DC00000000BEBEBEBE000000DC0000000000DC00000000000F000000000000000000000000000000000000000000000000000000000000000000000000
310
0000000000000000000000000000000000000000000000000F0000000000DC0000000000DC000000BE00BEBE00000000DC0000000000DC00000000DC0000000000DC0000000000DC0000000000DC0000000000DC0000000000DC00000000DC0000000000000000000000000000000000000000000000000000000000000000
310
00000000000000000000000000000000000000000000DC00000000DC00000000DC0000000000DC0000000000DC0000000000DC0000000000DC0000000000DC00000000DC0000000000BE00BEBE0000DC0000000000DC0000000000DC0F00000000000000000000000000000000000000000000000000000000000000000000
310
00000000000000000000000000000000000000000000000000000FDC0000000000DC0000000000DC0000BEBE00BEBE00000000DC0000000000DC00000000DC0000000000DC0000000000DC0000000000DC0000000000DC0000000000DC00000000DC0000000000000000000000000000000000000000000000000000000000
310
0000000000000000000000000000000000000000000000DC00000000DC00000000DC0000000000DC0000000000DC0000000000DC0000000000DC0000000000DC00000000DC000000000000BEBE00BE00DC0000000000DC0000000000DC000F0000000000000000000000000000000000000000000000000000000000000000
310
000000000000000000000000000000000000000000000000000000000F00DC0000000000DC0000000000DC00BE0000BE000000000000DC0000000000DC00000000DC0000000000DC0000000000DC0000000000DC0000000000DC0000000000DC00000000DC0000000000000000000000000000000000000000000000000000
310
0000000000000000000000000000000000000000000000000000000000DC00000000DC0000000000DC0000000000DC0000000000DC0000000000DC0000000000DC00000000DC000000000000DCBE00BEBEDC0000000000DC0000000000DC00000F000000000000000000000000000000000000000000000000000000000000
310
0000000000000000000000000000000000000000000000000000000000000F0000DC0000000000DC0000000000DCBE00BEBEBE000000000000DC0000000000DC00000000DC0000000000DC0000000000DC0000000000DC0000000000DC00000000DC0000000000000000000000000000000000000000000000000000000000
310
000000000000000000000000000000000000000000000000000000000000DC0000000000DC00000000DC0000000000DC0000000000DC0000000000DC0000000000DC00000000DC000000000000DC00BEBEBEBE0000000000DC0000000000DC0000000F00000000000000000000000000000000000000000000000000000000
310
00000000000000000000000000000000000000000000000000000000000000000F000000DC0000000000DC0000000000BEBE00BEBEDC000000000000DC0000000000DC00000000DC0000000000DC0000000000DC0000000000DC00000000DC0000000000DC0000000000000000000000000000000000000000000000000000
310
00000000000000000000000000000000000000000000000000000000000000DC0000000000DC00000000DC0000000000DC0000000000DC0000000000DC0000000000DC00000000DC000000000000DC0000BEBE00BE00000000DC0000000000DC000000000F0000000000000000000000000000000000000000000000000000
310
000000000000000000000000000000000000000000000000000000000000000000000F00000000DC0000000000DC00000000BEBEBEBE0000DC000000000000DC0000000000DC00000000DC0000000000DC0000000000DC0000000000DC00000000DC0000000000DC0000000000000000000000000000000000000000000000
310
0000000000000000000000000000000000000000000000000000000000000000DC0000000000DC0000000000DC00000000DC0000000000DC0000000000DC0000000000DC00000000DC000000000000DC00000000BEBE00000000DC0000000000DC00000000000F000000000000000000000000000000000000000000000000
310
0000000000000000000000000000000000000000000000000000000000000000000000000F0000000000DC0000000000DC00000000BEBE00000000DC000000000000DC0000000000DC00000000DC0000000000DC0000000000DC0000000000DC00000000DC0000000000DC0000000000000000000000000000000000000000
310
000000000000000000000000000000000000000000000000000000000000000000000000000000DC0000000000DC00000000DC0000000000DC0000000000DC0000000000DC00000000DC000000000000DC00000000DCBE00000000DC0000000000DC0000000000DC0F00000000000000000000000000000000000000000000
310
00000000000000000000000000000000000000000000000000000000000000000000000000000FDC0000000000DC0000000000DC00000000BEDC00000000DC000000000000DC0000000000DC00000000DC0000000000DC0000000000DC00000000DC0000000000DC0000000000000000000000000000000000000000000000
310
00000000000000000000000000000000000000000000000000000000000000000000000000000000DC0000000000DC00000000DC0000000000DC0000000000DC0000000000DC00000000DC000000000000DC00000000DC0000000000DC0000000000DC0000000000DC000F0000000000000000000000000000000000000000
310
000000000000000000000000000000000000000000000000000000000000000000000000000000000F00DC0000000000DC0000000000DC0000000000DC00000000DC000000000000DC0000000000DC00000000DC0000000000DC0000000000DC00000000DC0000000000DC0000000000000000000000000000000000000000
310
0000000000000000000000000000000000000000000000000000000000000000000000000000000000DC0000000000DC00000000DC0000000000DC0000000000DC00000000DCDC00000000DC000000000000DC00000000DC0000000000DC0000000000DC0000000000DC00000F000000000000000000000000000000000000
310
0000000000000000000000000000000000000000000000000000000000000000000000000000000000000F0000DC0000000000DC0000000000DC0000000000DC00000000DC000000000000DC0000000000DC00000000DC0000000000DC0000000000DC00000000DC0000000000DC0000000000000000000000000000000000
310
000000000000000000000000000000000000000000000000000000000000000000000000000000000000DC0000000000DC00000000DC0000000000DC0000000000DC00000000DC0000000000DC000000000000DC00000000DC0000000000DC0000000000DC0000000000DC0000000F00000000000000000000000000000000
310
00000000000000000000000000000000000000000000000000000000000000000000000000000000000000000F000000DC0000000000DC0000000000DC0000000000DC00000000DC000000000000DC0000000000DC00000000DC0000000000DC0000000000DC00000000DC0000000000DC0000000000000000000000000000
310
00000000000000000000000000000000000000000000000000000000000000000000000000000000000000000000000000DC00000000DC0000000000DC0000000000DC00000000DC0000000000DC000000000000DC00000000DC0000000000DC0000000000DC0000000000DC000000000F0000000000000000000000000000
310
000000000000000000000000000000000000000000000000000000000000000000000000000000000000000000000F00000000DC0000000000DC0000000000DC0000000000DC00000000DC000000000000DC0000000000DC00000000DC0000000000DC0000000000DC00000000DC0000000000000000000000000000000000
310
0000000000000000000000000000000000000000000000000000000000000000000000000000000000000000000000000000DC00000000DC0000000000DC0000000000DC00000000DC0000000000DC000000000000DC00000000DC0000000000DC0000000000DC0000000000DC00000000DC0F000000000000000000000000
310
0000000000000000000000000000000000000000000000000000000000000000000000000000000000000000000000000FDC00000000DC0000000000DC0000000000DC0000000000DC00000000DC000000000000DC0000000000DC00000000DC0000000000DC0000000000DC00000000DC0000000000000000000000000000
310
000000000000000000000000000000000000000000000000000000000000000000000000000000000000000000000000000000DC00000000DC0000000000DC0000000000DC00000000DC0000000000DC000000000000DC00000000DC0000000000DC0000000000DC0000000000DC00000000DC000F00000000000000000000
310
00000000000000000000000000000000000000000000000000000000000000000000000000000000000000000000000000000F00DC00000000DC0000000000DC0000000000DC0000000000DC00000000DCDC0000000000DC0000000000DC00000000DC0000000000DC0000000000DC00000000DC0000000000000000000000
310
00000000000000000000000000000000000000000000000000000000000000000000000000000000000000000000000000000000DC00000000DC0000000000DC0000000000DC00000000DC0000000000DC000000000000DC00000000DC0000000000DC0000000000DC0000000000DC00000000DC00000F0000000000000000
310
000000000000000000000000000000000000000000000000000000000000000000000000000000000000000000000000000000000F0000DC00000000DC0000000000DC0000000000DCDC00000000DC0000000000DC0000000000DC0000000000DC00000000DC0000000000DC0000000000DC00000000DC0000000000000000
310
00000000000000000000000000000000000000000000000000000000000000000000000000000000000000000000000000000000000000000000DC0000000000DC0000000000DC00000000DC0000000000DC000000000000DC00000000DC0000000000DC0000000000DC0000000000DC00000000DC0000000F000000000000
310
0000000000000000000000000000000000000000000000000000000000000000000000000000000000000000000000000000000000000F000000DC00000000DC0000000000DC000000000000DC00000000DC0000000000DC0000000000DC0000000000DC00000000DC0000000000DC0000000000DC00000000000000000000
310
0000000000000000000000000000000000000000000000000000000000000000000000000000000000000000000000000000000000000000000000DC0000000000DC0000000000DC00000000DC0000000000DC000000000000DC00000000DC0000000000DC0000000000DC0000000000DC00000000DC000000000F00000000
310
00000000000000000000000000000000000000000000000000000000000000000000000000000000000000000000000000000000000000000F00000000DC00000000DC0000000000DC000000000000DC00000000DC0000000000DC0000000000DC0000000000DC00000000DC0000000000DC0000000000DC00000000000000
310
000000000000000000000000000000000000000000000000000000000000000000000000000000000000000000000000000000000000000000000000DC0000000000DC0000000000DC00000000DC0000000000DC000000000000DC00000000DC0000000000DC00000000DCDC0000000000DC00000000DC00000000000F0000
310
000000000000000000000000000000000000000000000000000000000000000000000000000000000000000000000000000000000000000000000F0000000000DC00000000DC0000000000DCDC0000000000DC00000000DC0000000000DC0000000000DC0000000000DC00000000DC0000000000DC0000000000DC00000000
310
00000000000000000000000000000000000000000000000000000000000000000000000000000000000000000000000000000000000000000000000000000000000000DC0000000000DC00000000DC0000000000DC000000000000DC00000000DC0000000000DC00000000DC000000000000DC00000000DC0000000000DC0F
310
0000000000000000000000000000000000000000000000000000000000000000000000000000000000000000000000000000000000000000000000000FDC0000000000DC00000000DC000000000000DC0000000000DC00000000DC0000000000DC0000000000DC0000000000DC00000000DC0000000000DC00000000000000
310
0000000000000000000000000000000000000000000000000000000000000000000000000000000000000000000000000000000000000000000000000000000000000000DC0000000000DC00000000DC0000000000DC000000000000DC00000000DC0000000000DC00000000DC000000000000DC00000000DC0000000000DC
310
000F0000000000000000000000000000000000000000000000000000000000000000000000000000000000000000000000000000000000000000000000000F00DC0000000000DC00000000DC000000000000DC0000000000DC00000000DC0000000000DC0000000000DC0000000000DC00000000DC0000000000DC00000000
310
000000000000000000000000000000000000000000000000000000000000000000000000000000000000000000000000000000000000000000000000000000000000000000000000000000DC00000000000000000000DC000000000000DC00000000DC0000000000DC00000000DC000000000000DC00000000DC0000000000
310
DC00000F0000000000000000000000000000000000000000000000000000000000000000000000000000000000000000000000000000000000000000000000000F0000DC0000000000DC00000000DC000000000000DC0000000000DC00000000DC0000000000DC0000000000DC00000000000000000000DC00000000000000
310
00000000000000000000000000000000000000000000000000000000000000000000000000000000000000000000000000000000000000000000000000000000000000000000000000000000000000000000000000000000000000000000DC00000000DC0000000000DC00000000DC000000000000DC00000000DC00000000
310
00DC0000000F0000000000000000000000000000000000000000000000000000000000000000000000000000000000000000000000000000000000000000000000000F000000DC0000000000DC00000000DC000000000000DC0000000000DC00000000DC0000000000DC000000000000000000000000000000000000000000
310
0000000000000000000000000000000000000000000000000000000000000000000000000000000000000000000000000000000000000000000000000000000000000000000000000000000000000000000000000000000000000000000000DC00000000DC0000000000DC00000000DC000000000000DC00000000DC000000
310
0000DC000000000F0000000000000000000000000000000000000000000000000000000000000000000000000000000000000000000000000000000000000000000000000F00000000DC0000000000DC00000000DC000000000000DC0000000000DC00000000DC0000000000DC000000000000000000000000000000000000
310
000000000000000000000000000000000000000000000000000000000000000000000000000000000000000000000000000000000000000000000000000000000000000000000000000000000000000000000000000000000000000000000000DC00000000DC0000000000DC00000000DC000000000000DC00000000DC0000
310
000000DC00000000000F0000000000000000000000000000000000000000000000000000000000000000000000000000000000000000000000000000000000000000000000000F0000000000DC0000000000DC00000000DC000000000000DC0000000000DC00000000DC0000000000DC000000000000000000000000000000
310
000000000000000000000000000000000000000000000000000000000000000000000000000000000000000000000000000000000000000000000000000000000000000000000000000000000000000000000000000000000000000000000000000000000000DC0000000000DC00000000DC000000000000DC00000000DC00
310
00000000DC0000000000DC0F0000000000000000000000000000000000000000000000000000000000000000000000000000000000000000000000000000000000000000000000000FDC0000000000DC0000000000DC00000000DC000000000000DC0000000000DC00000000DC000000000000000000000000000000000000
310
00000000000000000000000000000000000000000000000000000000000000000000000000000000000000000000000000000000000000000000000000000000000000000000000000000000000000000000000000000000000000000000000000000000000000DC0000000000DC00000000DC000000000000DC00000000DC
310
0000000000DC0000000000DC000F0000000000000000000000000000000000000000000000000000000000000000000000000000000000000000000000000000000000000000000000000F00DC0000000000DC0000000000DC00000000DC000000000000DC0000000000DC00000000DC000000000000000000000000000000
310
0000000000000000000000000000000000000000000000000000000000000000000000000000000000000000000000000000000000000000000000000000000000000000000000000000000000000000000000000000000000000000000000000000000000000000DC0000000000DC00000000DC000000000000DC00000000
310
DC0000000000DC0000000000DC00000F0000000000000000000000000000000000000000000000000000000000000000000000000000000000000000000000000000000000000000000000000F0000DC0000000000DC0000000000DC00000000DC000000000000DC0000000000DC00000000DC000000000000000000000000
310
000000000000000000000000000000000000000000000000000000000000000000000000000000000000000000000000000000000000000000000000000000000000000000000000000000000000000000000000000000000000000000000000000000000000000000000000000000DC00000000DC000000000000DC000000
310
00DC0000000000DC0000000000DC0000000F0000000000000000000000000000000000000000000000000000000000000000000000000000000000000000000000000000000000000000000000000F000000DC0000000000DC0000000000DC00000000DC000000000000DC0000000000DC0000000000000000000000000000
310
00000000000000000000000000000000000000000000000000000000000000000000000000000000000000000000000000000000000000000000000000000000000000000000000000000000000000000000000000000000000000000000000000000000000000000000000000000000DC00000000DC000000000000DC0000
310
0000DC0000000000DC0000000000DC000000000F0000000000000000000000000000000000000000000000000000000000000000000000000000000000000000000000000000000000000000000000000F00000000DC0000000000DC0000000000DC00000000DC000000000000DC0000000000DC0000000000000000000000
310
0000000000000000000000000000000000000000000000000000000000000000000000000000000000000000000000000000000000000000000000000000000000000000000000000000000000000000000000000000000000000000000000000000000000000000000000000000000000DC00000000DC000000000000DC00
310
000000DC0000000000DC0000000000DC00000000000F0000000000000000000000000000000000000000000000000000000000000000000000000000000000000000000000000000000000000000000000000F0000000000DC0000000000DC0000000000DC00000000DC000000000000DC0000000000DC0000000000000000
310
000000000000000000000000000000000000000000000000000000000000000000000000000000000000000000000000000000000000000000000000000000000000000000000000000000000000000000000000000000000000000000000000000000000000000000000000000000000000DC00000000DC000000000000DC
310
00000000DC0000000000DC0000000000DC0000000000DC0F0000000000000000000000000000000000000000000000000000000000000000000000000000000000000000000000000000000000000000000000000FDC0000000000DC0000000000DC0000000000DC00000000DC000000000000DC0000000000DC0000000000
310
000000000000000000000000000000000000000000000000000000000000000000000000000000000000000000000000000000000000000000000000000000000000000000000000000000000000000000000000000000000000000000000000000000000000000000000000000000000000000000000000DC000000000000
310
DC00000000DC0000000000DC0000000000DC0000000000DC000F0000000000000000000000000000000000000000000000000000000000000000000000000000000000000000000000000000000000000000000000000F00DC0000000000DC0000000000DC0000000000DC00000000DC000000000000DC0000000000000000
310
00000000000000000000000000000000000000000000000000000000000000000000000000000000000000000000000000000000000000000000000000000000000000000000000000000000000000000000000000000000000000000000000000000000000000000000000000000000000000000000000000DC0000000000
310
00DC00000000DC0000000000DC0000000000DC0000000000DC00000F0000000000000000000000000000000000000000000000000000000000000000000000000000000000000000000000000000000000000000000000000F0000DC0000000000DC0000000000DC0000000000DC00000000DC000000000000DC0000000000
310
0000000000000000000000000000000000000000000000000000000000000000000000000000000000000000000000000000000000000000000000000000000000000000000000000000000000000000000000000000000000000000000000000000000000000000000000000000000000000000000000000000DC00000000
310
0000DC00000000DC0000000000DC0000000000DC0000000000DC0000000F0000000000000000000000000000000000000000000000000000000000000000000000000000000000000000000000000000000000000000000000000F000000DC0000000000DC0000000000DC0000000000DC00000000DC000000000000DC0000
310
000000000000000000000000000000000000000000000000000000000000000000000000000000000000000000000000000000000000000000000000000000000000000000000000000000000000000000000000000000000000000000000000000000000000000000000000000000000000000000000000000000DC000000
310
000000DC00000000DC0000000000DC0000000000DC0000000000DC000000000F0000000000000000000000000000000000000000000000000000000000000000000000000000000000000000000000000000000000000000000000000F00000000DC0000000000DC0000000000DC0000000000DC00000000DC000000000000
310
DC000000000000000000000000000000000000000000000000000000000000000000000000000000000000000000000000000000000000000000000000000000000000000000000000000000000000000000000000000000000000000000000000000000000000000000000000000000000000000000000000000000000000
310
00000000DC00000000DC0000000000DC0000000000DC0000000000DC00000000DC0F0000000000000000000000000000000000000000000000000000000000000000000000000000000000000000000000000000000000000000000000000FDC00000000DC0000000000DC0000000000DC0000000000DC00000000DC000000
310
00000000000000000000000000000000000000000000000000000000000000000000000000000000000000000000000000000000000000000000000000000000000000000000000000000000000000000000000000000000000000000000000000000000000000000000000000000000000000000000000000000000000000
310
0000000000DC00000000DC0000000000DC0000000000DC0000000000DC00000000DC000F0000000000000000000000000000000000000000000000000000000000000000000000000000000000000000000000000000000000000000000000000F00DC00000000DC0000000000DC0000000000DC0000000000DC00000000DC
310
00000000000000000000000000000000000000000000000000000000000000000000000000000000000000000000000000000000000000000000000000000000000000000000000000000000000000000000000000000000000000000000000000000000000000000000000000000000000000000000000000000000000000
310
000000000000DC00000000DC0000000000DC0000000000DC0000000000DC00000000DC00000F0000000000000000000000000000000000000000000000000000000000000000000000000000000000000000000000000000000000000000000000000F0000DC00000000DC0000000000DC0000000000DC0000000000DC0000
310
0000DC00000000000000000000000000000000000000000000000000000000000000000000000000000000000000000000000000000000000000000000000000000000000000000000000000000000000000000000000000000000000000000000000000000000000000000000000000000000000000000000000000000000
310
00000000000000DC00000000DC0000000000DC0000000000DC0000000000DC00000000DC0000000F0000000000000000000000000000000000000000000000000000000000000000000000000000000000000000000000000000000000000000000000000F000000DC00000000DC0000000000DC0000000000DC0000000000
310
DC00000000DC00000000000000000000000000000000000000000000000000000000000000000000000000000000000000000000000000000000000000000000000000000000000000000000000000000000000000000000000000000000000000000000000000000000000000000000000000000000000000000000000000
310
0000000000000000DC00000000DC0000000000DC0000000000DC00000000DCDC00000000DC000000000F0000000000000000000000000000000000000000000000000000000000000000000000000000000000000000000000000000000000000000000000000F00000000DC00000000DCDC00000000DC0000000000DC0000
310
000000DC00000000DC00000000000000000000000000000000000000000000000000000000000000000000000000000000000000000000000000000000000000000000000000000000000000000000000000000000000000000000000000000000000000000000000000000000000000000000000000000000000000000000
310
0000000000000000000000000000DC0000000000DC0000000000DC00000000DC0000000000DC00000000000F0000000000000000000000000000000000000000000000000000000000000000000000000000000000000000000000000000000000000000000000000F0000000000DC0000000000DC00000000DC0000000000
310
DC0000000000DC000000000000000000000000000000000000000000000000000000000000000000000000000000000000000000000000000000000000000000000000000000000000000000000000000000000000000000000000000000000000000000000000000000000000000000000000000000000000000000000000
310
000000000000000000000000000000DC0000000000DC0000000000DC00000000DC000000000000DC00000000DC0F0000000000000000000000000000000000000000000000000000000000000000000000000000000000000000000000000000000000000000000000000FDC0000000000DC0000000000DC00000000DC0000
310
000000DC0000000000DC000000000000000000000000000000000000000000000000000000000000000000000000000000000000000000000000000000000000000000000000000000000000000000000000000000000000000000000000000000000000000000000000000000000000000000000000000000000000000000
310
00000000000000000000000000000000DC0000000000DC0000000000DC00000000DC000000000000DC00000000DC000F0000000000000000000000000000000000000000000000000000000000000000000000000000000000000000000000000000000000000000000000000F00DC0000000000DC0000000000DC00000000
310
DC0000000000DC0000000000DC000000000000000000000000000000000000000000000000000000000000000000000000000000000000000000000000000000000000000000000000000000000000000000000000000000000000000000000000000000000000000000000000000000000000000000000000000000000000
310
0000000000000000000000000000000000DC0000000000DC0000000000DC00000000DC000000000000DC00000000DC000000000000000000000000000000000000000000000000000000000000000000000000000000000000000000000000000000000000000000000000000000000000DC0000000000DC0000000000DC00
310
000000DC0000000000DC0000000000DC000000000000000000000000000000000000000000000000000000000000000000000000000000000000000000000000000000000000000000000000000000000000000000000000000000000000000000000000000000000000000000000000000000000000000000000000000000
310
000000000000000000000000000000000000000000000000DC0000000000DC00000000DC000000000000DC00000000DC0000000000000000000000000000000000000000000000000000000000000000000000000000000000000000000000000000000000000000000000000000000000000000DC0000000000DC00000000
310
00DC00000000DC0000000000DC000000000000000000000000000000000000000000000000000000000000000000000000000000000000000000000000000000000000000000000000000000000000000000000000000000000000000000000000000000000000000000000000000000000000000000000000000000000000
310
00000000000000000000000000000000000000000000000000DC0000000000DC00000000DC000000000000DC000000000000000000000000000000000000000000000000000000000000000000000000000000000000000000000000000000000000000000000000000000000000000000000000000000000000000000DC00
310
00000000DC00000000DC0000000000DC000000000000000000000000000000000000000000000000000000000000000000000000000000000000000000000000000000000000000000000000000000000000000000000000000000000000000000000000000000000000000000000000000000000000000000000000000000
310
0000000000000000000000000000000000000000000000000000DC0000000000DC00000000DC000000000000DC00000000000000000000000000000000000000000000000000000000000000000000000000000000000000000000000000000000000000000000000000000000000000000000000000000000000000000000
310
00DC0000000000DC00000000DC0000000000DC000000000000000000000000000000000000000000000000000000000000000000000000000000000000000000000000000000000000000000000000000000000000000000000000000000000000000000000000000000000000000000000000000000000000000000000000
310
000000000000000000000000000000000000000000000000000000000000000000DC00000000DC000000000000DC000000000000000000000000000000000000000000000000000000000000000000000000000000000000000000000000000000000000000000000000000000000000000000000000000000000000000000
310
00000000DC0000000000DC00000000DC000000000000000000000000000000000000000000000000000000000000000000000000000000000000000000000000000000000000000000000000000000000000000000000000000000000000000000000000000000000000000000000000000000000000000000000000000000
310
00000000000000000000000000000000000000000000000000000000000000000000DC00000000DC000000000000DC0000000000000000000000000000000000000000000000000000000000000000000000000000000000000000000000000000000000000000000000000000000000000000000000000000000000000000
310
00000000000000DC0000000000DC00000000DC000000000000000000000000000000000000000000000000000000000000000000000000000000000000000000000000000000000000000000000000000000000000000000000000000000000000000000000000000000000000000000000000000000000000000000000000
310
0000000000000000000000000000000000000000000000000000000000000000000000DC00000000DC0000000000000000000000000000000000000000000000000000000000000000000000000000000000000000000000000000000000000000000000000000000000000000000000000000000000000000000000000000
310
00000000000000000000000000000000DC00000000DC000000000000000000000000000000000000000000000000000000000000000000000000000000000000000000000000000000000000000000000000000000000000000000000000000000000000000000000000000000000000000000000000000000000000000000
310
00000000000000000000000000000000000000000000000000000000000000000000000000000000000000000000000000000000000000000000000000000000000000000000000000000000000000000000000000000000000000000000000000000000000000000000000000000000000000000000000000000000000000
310
00000000000000000000000000000000000000000000000000000000000000000000000000000000000000000000000000000000000000000000000000000000000000000000000000000000000000000000000000000000000000000000000000000000000000000000000000000000000000000000000000000000000000
310
00000000000000000000000000000000000000000000000000000000000000000000000000000000000000000000000000000000000000000000000000000000000000000000000000000000000000000000000000000000000000000000000000000000000000000000000000000000000000000000000000000000000000
310
00000000000000000000000000000000000000000000000000000000000000000000000000000000000000000000000000000000000000000000000000000000000000000000000000000000000000000000000000000000000000000000000000000000000000000000000000000000000000000000000000000000000000
310
00000000000000000000000000000000000000000000000000000000000000000000000000000000000000000000000000000000000000000000000000000000000000000000000000000000000000000000000000000000000000000000000000000000000000000000000000000000000000000000000000000000000000
310
00000000000000000000000000000000000000000000000000000000000000000000000000000000000000000000000000000000000000000000000000000000000000000000000000000000000000000000000000000000000000000000000000000000000000000000000000000000000000000000000000000000000000
310
00000000000000000000000000000000000000000000000000000000000000000000000000000000000000000000000000000000000000000000000000000000000000000000000000000000000000000000000000000000000000000000000000000000000000000000000000000000000000000000000000000000000000
310
00000000000000000000000000000000000000000000000000000000000000000000000000000000000000000000000000000000000000000000000000000000000000000000000000000000000000000000000000000000000000000000000000000000000000000000000000000000000000000000000000000000000000
310
00000000000000000000000000000000000000000000000000000000000000000000000000000000000000000000000000000000000000000000000000000000000000000000000000000000000000000000000000000000000000000000000000000000000000000000000000000000000000000000000000000000000000
310
00000000000000000000000000000000000000000000000000000000000000000000000000000000000000000000000000000000000000000000000000000000000000000000000000000000000000000000000000000000000000000000000000000000000000000000000000000000000000000000000000000000000000
310
00000000000000000000000000000000000000000000000000000000000000000000000000000000000000000000000000000000000000000000000000000000000000000000000000000000000000000000000000000000000000000000000000000000000000000000000000000000000000000000000000000000000000
310
00000000000000000000000000000000000000000000000000000000000000000000000000000000000000000000000000000000000000000000000000000000000000000000000000000000000000000000000000000000000000000000000000000000000000000000000000000000000000000000000000000000000000
310
00000000000000000000000000000000000000000000000000000000000000000000000000000000000000000000000000000000000000000000000000000000000000000000000000000000000000000000000000000000000000000000000000000000000000000000000000000000000000000000000000000000000000
310
00000000000000000000000000000000000000000000000000000000000000000000000000000000000000000000000000000000000000000000000000000000000000000000000000000000000000000000000000000000000000000000000000000000000000000000000000000000000000000000000000000000000000
310
00000000000000000000000000000000000000000000000000000000000000000000000000000000000000000000000000000000000000000000000000000000000000000000000000000000000000000000000000000000000000000000000000000000000000000000000000000000000000000000000000000000000000
310
00000000000000000000000000000000000000000000000000000000000000000000000000000000000000000000000000000000000000000000000000000000000000000000000000000000000000000000000000000000000000000000000000000000000000000000000000000000000000000000000000000000000000
310
00000000000000000000000000000000000000000000000000000000000000000000000000000000000000000000000000000000000000000000000000000000000000000000000000000000000000000000000000000000000000000000000000000000000000000000000000000000000000000000000000000000000000
310
00000000000000000000000000000000000000000000000000000000000000000000000000000000000000000000000000000000000000000000000000000000000000000000000000000000000000000000000000000000000000000000000000000000000000000000000000000000000000000000000000000000000000
310
0000000000000000
  0
XRECORD
  5
40A4F
102
{ACAD_REACTORS
330
40A4E
102
}
330
40A4E
100
AcDbXrecord
280
     1
102
MATERIAL
148
0.0
149
0.0
149
0.0
 93
        0
 94
      127
282
     0
 72
     1
 77
     1
171
     1
175
     1
179
     1
273
     0
  0
XRECORD
  5
40A4D
102
{ACAD_REACTORS
330
40A4C
102
}
330
40A4C
100
AcDbXrecord
280
     1
102
MATERIAL
148
0.0
149
0.0
149
0.0
 93
        0
 94
      127
282
     0
 72
     1
 77
     1
171
     1
175
     1
179
     1
273
     0
  0
XRECORD
  5
40A51
102
{ACAD_REACTORS
330
40A50
102
}
330
40A50
100
AcDbXrecord
280
     1
102
MATERIAL
148
0.0
149
0.0
149
0.0
 93
        0
 94
      127
282
     0
 72
     1
 77
     1
171
     1
175
     1
179
     1
273
     0
  0
XRECORD
  5
40ABC
102
{ACAD_REACTORS
330
40ABB
102
}
330
40ABB
100
AcDbXrecord
280
     1
102
SHADEPLOT
 70
     0
102
SHADEPLOTRESLEVEL
 70
     2
102
SHADEPLOTCUSTOMDPI
 70
   300
  0
XRECORD
  5
40AC0
102
{ACAD_REACTORS
330
40ABF
102
}
330
40ABF
100
AcDbXrecord
280
     1
102
SHADEPLOT
 70
     0
102
SHADEPLOTRESLEVEL
 70
     2
102
SHADEPLOTCUSTOMDPI
 70
   300
  0
XRECORD
  5
40AC6
102
{ACAD_REACTORS
330
40AC5
102
}
330
40AC5
100
AcDbXrecord
280
     1
102
SHADEPLOT
 70
     0
102
SHADEPLOTRESLEVEL
 70
     2
102
SHADEPLOTCUSTOMDPI
 70
   300
  0
XRECORD
  5
40ABE
102
{ACAD_REACTORS
330
40ABD
102
}
330
40ABD
100
AcDbXrecord
280
     1
102
SHADEPLOT
 70
     0
102
SHADEPLOTRESLEVEL
 70
     2
102
SHADEPLOTCUSTOMDPI
 70
   300
  0
CELLSTYLEMAP
  5
40A98
102
{ACAD_REACTORS
330
40A40
102
}
330
40A40
100
AcDbCellStyleMap
 90
        3
300
CELLSTYLE
  1
TABLEFORMAT_BEGIN
 90
        5
170
     1
 91
        0
 92
    32768
 62
   257
 93
        1
300
CONTENTFORMAT
  1
CONTENTFORMAT_BEGIN
 90
        0
 91
        0
 92
        4
 93
        0
300

 40
0.0
140
1.0
 94
        5
 62
     0
340
13
144
0.25
309
CONTENTFORMAT_END
171
     1
301
MARGIN
  1
CELLMARGIN_BEGIN
 40
0.06
 40
0.06
 40
0.06
 40
0.06
 40
0.18
 40
0.18
309
CELLMARGIN_END
 94
        6
 95
        1
302
GRIDFORMAT
  1
GRIDFORMAT_BEGIN
 90
        0
 91
        1
 62
     0
 92
       -2
340
0
 93
        0
 40
0.045
309
GRIDFORMAT_END
 95
        2
302
GRIDFORMAT
  1
GRIDFORMAT_BEGIN
 90
        0
 91
        1
 62
     0
 92
       -2
340
0
 93
        0
 40
0.045
309
GRIDFORMAT_END
 95
        4
302
GRIDFORMAT
  1
GRIDFORMAT_BEGIN
 90
        0
 91
        1
 62
     0
 92
       -2
340
0
 93
        0
 40
0.045
309
GRIDFORMAT_END
 95
        8
302
GRIDFORMAT
  1
GRIDFORMAT_BEGIN
 90
        0
 91
        1
 62
     0
 92
       -2
340
0
 93
        0
 40
0.045
309
GRIDFORMAT_END
 95
       16
302
GRIDFORMAT
  1
GRIDFORMAT_BEGIN
 90
        0
 91
        1
 62
     0
 92
       -2
340
0
 93
        0
 40
0.045
309
GRIDFORMAT_END
 95
       32
302
GRIDFORMAT
  1
GRIDFORMAT_BEGIN
 90
        0
 91
        1
 62
     0
 92
       -2
340
0
 93
        0
 40
0.045
309
GRIDFORMAT_END
309
TABLEFORMAT_END
  1
CELLSTYLE_BEGIN
 90
        1
 91
        1
300
_TITLE
309
CELLSTYLE_END
300
CELLSTYLE
  1
TABLEFORMAT_BEGIN
 90
        5
170
     1
 91
        0
 92
        0
 62
   257
 93
        1
300
CONTENTFORMAT
  1
CONTENTFORMAT_BEGIN
 90
        0
 91
        0
 92
        4
 93
        0
300

 40
0.0
140
1.0
 94
        5
 62
     0
340
13
144
0.18
309
CONTENTFORMAT_END
171
     1
301
MARGIN
  1
CELLMARGIN_BEGIN
 40
0.06
 40
0.06
 40
0.06
 40
0.06
 40
0.18
 40
0.18
309
CELLMARGIN_END
 94
        6
 95
        1
302
GRIDFORMAT
  1
GRIDFORMAT_BEGIN
 90
        0
 91
        1
 62
     0
 92
       -2
340
0
 93
        0
 40
0.045
309
GRIDFORMAT_END
 95
        2
302
GRIDFORMAT
  1
GRIDFORMAT_BEGIN
 90
        0
 91
        1
 62
     0
 92
       -2
340
0
 93
        0
 40
0.045
309
GRIDFORMAT_END
 95
        4
302
GRIDFORMAT
  1
GRIDFORMAT_BEGIN
 90
        0
 91
        1
 62
     0
 92
       -2
340
0
 93
        0
 40
0.045
309
GRIDFORMAT_END
 95
        8
302
GRIDFORMAT
  1
GRIDFORMAT_BEGIN
 90
        0
 91
        1
 62
     0
 92
       -2
340
0
 93
        0
 40
0.045
309
GRIDFORMAT_END
 95
       16
302
GRIDFORMAT
  1
GRIDFORMAT_BEGIN
 90
        0
 91
        1
 62
     0
 92
       -2
340
0
 93
        0
 40
0.045
309
GRIDFORMAT_END
 95
       32
302
GRIDFORMAT
  1
GRIDFORMAT_BEGIN
 90
        0
 91
        1
 62
     0
 92
       -2
340
0
 93
        0
 40
0.045
309
GRIDFORMAT_END
309
TABLEFORMAT_END
  1
CELLSTYLE_BEGIN
 90
        2
 91
        1
300
_HEADER
309
CELLSTYLE_END
300
CELLSTYLE
  1
TABLEFORMAT_BEGIN
 90
        5
170
     1
 91
        0
 92
        0
 62
   257
 93
        1
300
CONTENTFORMAT
  1
CONTENTFORMAT_BEGIN
 90
        0
 91
        0
 92
        4
 93
        0
300

 40
0.0
140
1.0
 94
        2
 62
     0
340
13
144
0.18
309
CONTENTFORMAT_END
171
     1
301
MARGIN
  1
CELLMARGIN_BEGIN
 40
0.06
 40
0.06
 40
0.06
 40
0.06
 40
0.18
 40
0.18
309
CELLMARGIN_END
 94
        6
 95
        1
302
GRIDFORMAT
  1
GRIDFORMAT_BEGIN
 90
        0
 91
        1
 62
     0
 92
       -2
340
0
 93
        0
 40
0.045
309
GRIDFORMAT_END
 95
        2
302
GRIDFORMAT
  1
GRIDFORMAT_BEGIN
 90
        0
 91
        1
 62
     0
 92
       -2
340
0
 93
        0
 40
0.045
309
GRIDFORMAT_END
 95
        4
302
GRIDFORMAT
  1
GRIDFORMAT_BEGIN
 90
        0
 91
        1
 62
     0
 92
       -2
340
0
 93
        0
 40
0.045
309
GRIDFORMAT_END
 95
        8
302
GRIDFORMAT
  1
GRIDFORMAT_BEGIN
 90
        0
 91
        1
 62
     0
 92
       -2
340
0
 93
        0
 40
0.045
309
GRIDFORMAT_END
 95
       16
302
GRIDFORMAT
  1
GRIDFORMAT_BEGIN
 90
        0
 91
        1
 62
     0
 92
       -2
340
0
 93
        0
 40
0.045
309
GRIDFORMAT_END
 95
       32
302
GRIDFORMAT
  1
GRIDFORMAT_BEGIN
 90
        0
 91
        1
 62
     0
 92
       -2
340
0
 93
        0
 40
0.045
309
GRIDFORMAT_END
309
TABLEFORMAT_END
  1
CELLSTYLE_BEGIN
 90
        3
 91
        2
300
_DATA
309
CELLSTYLE_END
  0
XRECORD
  5
40AA2
102
{ACAD_REACTORS
330
40A40
102
}
330
40A40
100
AcDbXrecord
280
     1
102
ACAD_ROUNDTRIP_PRE2007_TABLESTYLE
 90
        4
 91
        0
  1

 92
        4
 93
        0
  2

 94
        4
 95
        0
  3

  0
XRECORD
  5
40AAE
102
{ACAD_REACTORS
330
40AAD
102
}
330
40AAD
100
AcDbXrecord
280
     1
102
RTVSPropertyOp0
 70
     1
102
RTVSPropertyOp1
 70
     1
102
RTVSPropertyOp2
 70
     1
102
RTVSPropertyOp3
 70
     1
102
RTVSPropertyOp4
 70
     1
102
RTVSPropertyOp5
 70
     1
102
RTVSPropertyOp6
 70
     1
102
RTVSPropertyOp7
 70
     1
102
RTVSPropertyOp8
 70
     1
102
RTVSPropertyOp9
 70
     1
102
RTVSPropertyOp10
 70
     1
102
RTVSPropertyOp11
 70
     1
102
RTVSPropertyOp12
 70
     1
102
RTVSPropertyOp13
 70
     1
102
RTVSPropertyOp14
 70
     1
102
RTVSPropertyOp15
 70
     1
102
RTVSPropertyOp16
 70
     1
102
RTVSPropertyOp17
 70
     1
102
RTVSPropertyOp18
 70
     1
102
RTVSPropertyOp19
 70
     1
102
RTVSPropertyOp20
 70
     1
102
RTVSPropertyOp21
 70
     1
102
RTVSPropertyOp22
 70
     1
102
RTVSPropertyOp23
 70
     1
102
RTVSPropertyOp24
 70
     1
102
RTVSPropertyOp25
 70
     1
102
RTVSPropertyOp26
 70
     1
102
RTVSPropertyOp27
 70
     1
102
RTVSPropertyOp28
 70
     1
102
RTVSPropertyOp29
 70
     1
102
RTVSPropertyOp30
 70
     1
102
RTVSPropertyOp31
 70
     1
102
RTVSPropertyOp32
 70
     1
  0
XRECORD
  5
40ADE
102
{ACAD_REACTORS
330
40ADD
102
}
330
40ADD
100
AcDbXrecord
280
     1
102
RTVSPropertyOp0
 70
     1
102
RTVSPropertyOp1
 70
     1
102
RTVSPropertyOp2
 70
     1
102
RTVSPropertyOp3
 70
     1
102
RTVSPropertyOp4
 70
     1
102
RTVSPropertyOp5
 70
     1
102
RTVSPropertyOp6
 70
     1
102
RTVSPropertyOp7
 70
     1
102
RTVSPropertyOp8
 70
     1
102
RTVSPropertyOp9
 70
     1
102
RTVSPropertyOp10
 70
     1
102
RTVSPropertyOp11
 70
     1
102
RTVSPropertyOp12
 70
     1
102
RTVSPropertyOp13
 70
     1
102
RTVSPropertyOp14
 70
     1
102
RTVSPropertyOp15
 70
     1
102
RTVSPropertyOp16
 70
     1
102
RTVSPropertyOp17
 70
     1
102
RTVSPropertyOp18
 70
     1
102
RTVSPropertyOp19
 70
     1
102
RTVSPropertyOp20
 70
     1
102
RTVSPropertyOp21
 70
     1
102
RTVSPropertyOp22
 70
     1
102
RTVSPropertyOp23
 70
     1
102
RTVSPropertyOp24
 70
     1
102
RTVSPropertyOp25
 70
     1
102
RTVSPropertyOp26
 70
     1
102
RTVSPropertyOp27
 70
     1
102
RTVSPropertyOp28
 70
     1
102
RTVSPropertyOp29
 70
     1
102
RTVSPropertyOp30
 70
     1
102
RTVSPropertyOp31
 70
     1
102
RTVSPropertyOp32
 70
     1
  0
XRECORD
  5
40AC2
102
{ACAD_REACTORS
330
40AC1
102
}
330
40AC1
100
AcDbXrecord
280
     1
102
RTVSPropertyOp0
 70
     1
102
RTVSPropertyOp1
 70
     1
102
RTVSPropertyOp2
 70
     1
102
RTVSPropertyOp3
 70
     1
102
RTVSPropertyOp4
 70
     1
102
RTVSPropertyOp5
 70
     1
102
RTVSPropertyOp6
 70
     1
102
RTVSPropertyOp7
 70
     1
102
RTVSPropertyOp8
 70
     1
102
RTVSPropertyOp9
 70
     1
102
RTVSPropertyOp10
 70
     1
102
RTVSPropertyOp11
 70
     1
102
RTVSPropertyOp12
 70
     1
102
RTVSPropertyOp13
 70
     1
102
RTVSPropertyOp14
 70
     1
102
RTVSPropertyOp15
 70
     1
102
RTVSPropertyOp16
 70
     1
102
RTVSPropertyOp17
 70
     1
102
RTVSPropertyOp18
 70
     1
102
RTVSPropertyOp19
 70
     1
102
RTVSPropertyOp20
 70
     1
102
RTVSPropertyOp21
 70
     1
102
RTVSPropertyOp22
 70
     1
102
RTVSPropertyOp23
 70
     1
102
RTVSPropertyOp24
 70
     1
102
RTVSPropertyOp25
 70
     1
102
RTVSPropertyOp26
 70
     1
102
RTVSPropertyOp27
 70
     1
102
RTVSPropertyOp28
 70
     1
102
RTVSPropertyOp29
 70
     1
102
RTVSPropertyOp30
 70
     1
102
RTVSPropertyOp31
 70
     1
102
RTVSPropertyOp32
 70
     1
  0
XRECORD
  5
40AAC
102
{ACAD_REACTORS
330
40AAB
102
}
330
40AAB
100
AcDbXrecord
280
     1
102
RTVSPropertyOp0
 70
     1
102
RTVSPropertyOp1
 70
     1
102
RTVSPropertyOp2
 70
     1
102
RTVSPropertyOp3
 70
     1
102
RTVSPropertyOp4
 70
     1
102
RTVSPropertyOp5
 70
     1
102
RTVSPropertyOp6
 70
     1
102
RTVSPropertyOp7
 70
     1
102
RTVSPropertyOp8
 70
     1
102
RTVSPropertyOp9
 70
     1
102
RTVSPropertyOp10
 70
     1
102
RTVSPropertyOp11
 70
     1
102
RTVSPropertyOp12
 70
     1
102
RTVSPropertyOp13
 70
     1
102
RTVSPropertyOp14
 70
     1
102
RTVSPropertyOp15
 70
     1
102
RTVSPropertyOp16
 70
     1
102
RTVSPropertyOp17
 70
     1
102
RTVSPropertyOp18
 70
     1
102
RTVSPropertyOp19
 70
     1
102
RTVSPropertyOp20
 70
     1
102
RTVSPropertyOp21
 70
     1
102
RTVSPropertyOp22
 70
     1
102
RTVSPropertyOp23
 70
     1
102
RTVSPropertyOp24
 70
     1
102
RTVSPropertyOp25
 70
     1
102
RTVSPropertyOp26
 70
     1
102
RTVSPropertyOp27
 70
     1
102
RTVSPropertyOp28
 70
     1
102
RTVSPropertyOp29
 70
     1
102
RTVSPropertyOp30
 70
     1
102
RTVSPropertyOp31
 70
     1
102
RTVSPropertyOp32
 70
     1
  0
XRECORD
  5
40AB2
102
{ACAD_REACTORS
330
40AB1
102
}
330
40AB1
100
AcDbXrecord
280
     1
102
RTVSPropertyOp0
 70
     1
102
RTVSPropertyOp1
 70
     1
102
RTVSPropertyOp2
 70
     1
102
RTVSPropertyOp3
 70
     1
102
RTVSPropertyOp4
 70
     1
102
RTVSPropertyOp5
 70
     1
102
RTVSPropertyOp6
 70
     1
102
RTVSPropertyOp7
 70
     1
102
RTVSPropertyOp8
 70
     1
102
RTVSPropertyOp9
 70
     1
102
RTVSPropertyOp10
 70
     1
102
RTVSPropertyOp11
 70
     1
102
RTVSPropertyOp12
 70
     1
102
RTVSPropertyOp13
 70
     1
102
RTVSPropertyOp14
 70
     1
102
RTVSPropertyOp15
 70
     1
102
RTVSPropertyOp16
 70
     1
102
RTVSPropertyOp17
 70
     1
102
RTVSPropertyOp18
 70
     1
102
RTVSPropertyOp19
 70
     1
102
RTVSPropertyOp20
 70
     1
102
RTVSPropertyOp21
 70
     1
102
RTVSPropertyOp22
 70
     1
102
RTVSPropertyOp23
 70
     1
102
RTVSPropertyOp24
 70
     1
102
RTVSPropertyOp25
 70
     1
102
RTVSPropertyOp26
 70
     1
102
RTVSPropertyOp27
 70
     1
102
RTVSPropertyOp28
 70
     1
102
RTVSPropertyOp29
 70
     1
102
RTVSPropertyOp30
 70
     1
102
RTVSPropertyOp31
 70
     1
102
RTVSPropertyOp32
 70
     1
  0
XRECORD
  5
40ABA
102
{ACAD_REACTORS
330
40AB9
102
}
330
40AB9
100
AcDbXrecord
280
     1
102
RTVSPropertyOp0
 70
     1
102
RTVSPropertyOp1
 70
     1
102
RTVSPropertyOp2
 70
     1
102
RTVSPropertyOp3
 70
     1
102
RTVSPropertyOp4
 70
     1
102
RTVSPropertyOp5
 70
     1
102
RTVSPropertyOp6
 70
     1
102
RTVSPropertyOp7
 70
     1
102
RTVSPropertyOp8
 70
     1
102
RTVSPropertyOp9
 70
     1
102
RTVSPropertyOp10
 70
     1
102
RTVSPropertyOp11
 70
     1
102
RTVSPropertyOp12
 70
     1
102
RTVSPropertyOp13
 70
     1
102
RTVSPropertyOp14
 70
     1
102
RTVSPropertyOp15
 70
     1
102
RTVSPropertyOp16
 70
     1
102
RTVSPropertyOp17
 70
     1
102
RTVSPropertyOp18
 70
     1
102
RTVSPropertyOp19
 70
     1
102
RTVSPropertyOp20
 70
     1
102
RTVSPropertyOp21
 70
     1
102
RTVSPropertyOp22
 70
     1
102
RTVSPropertyOp23
 70
     1
102
RTVSPropertyOp24
 70
     1
102
RTVSPropertyOp25
 70
     1
102
RTVSPropertyOp26
 70
     1
102
RTVSPropertyOp27
 70
     1
102
RTVSPropertyOp28
 70
     1
102
RTVSPropertyOp29
 70
     1
102
RTVSPropertyOp30
 70
     1
102
RTVSPropertyOp31
 70
     1
102
RTVSPropertyOp32
 70
     1
  0
XRECORD
  5
40ACC
102
{ACAD_REACTORS
330
40ACB
102
}
330
40ACB
100
AcDbXrecord
280
     1
102
RTVSPropertyOp0
 70
     1
102
RTVSPropertyOp1
 70
     1
102
RTVSPropertyOp2
 70
     1
102
RTVSPropertyOp3
 70
     1
102
RTVSPropertyOp4
 70
     1
102
RTVSPropertyOp5
 70
     1
102
RTVSPropertyOp6
 70
     1
102
RTVSPropertyOp7
 70
     1
102
RTVSPropertyOp8
 70
     1
102
RTVSPropertyOp9
 70
     1
102
RTVSPropertyOp10
 70
     1
102
RTVSPropertyOp11
 70
     1
102
RTVSPropertyOp12
 70
     1
102
RTVSPropertyOp13
 70
     1
102
RTVSPropertyOp14
 70
     1
102
RTVSPropertyOp15
 70
     1
102
RTVSPropertyOp16
 70
     1
102
RTVSPropertyOp17
 70
     1
102
RTVSPropertyOp18
 70
     1
102
RTVSPropertyOp19
 70
     1
102
RTVSPropertyOp20
 70
     1
102
RTVSPropertyOp21
 70
     1
102
RTVSPropertyOp22
 70
     1
102
RTVSPropertyOp23
 70
     1
102
RTVSPropertyOp24
 70
     1
102
RTVSPropertyOp25
 70
     1
102
RTVSPropertyOp26
 70
     1
102
RTVSPropertyOp27
 70
     1
102
RTVSPropertyOp28
 70
     1
102
RTVSPropertyOp29
 70
     1
102
RTVSPropertyOp30
 70
     1
102
RTVSPropertyOp31
 70
     1
102
RTVSPropertyOp32
 70
     1
  0
XRECORD
  5
40AB0
102
{ACAD_REACTORS
330
40AAF
102
}
330
40AAF
100
AcDbXrecord
280
     1
102
RTVSPropertyOp0
 70
     1
102
RTVSPropertyOp1
 70
     1
102
RTVSPropertyOp2
 70
     1
102
RTVSPropertyOp3
 70
     1
102
RTVSPropertyOp4
 70
     1
102
RTVSPropertyOp5
 70
     1
102
RTVSPropertyOp6
 70
     1
102
RTVSPropertyOp7
 70
     1
102
RTVSPropertyOp8
 70
     1
102
RTVSPropertyOp9
 70
     1
102
RTVSPropertyOp10
 70
     1
102
RTVSPropertyOp11
 70
     1
102
RTVSPropertyOp12
 70
     1
102
RTVSPropertyOp13
 70
     1
102
RTVSPropertyOp14
 70
     1
102
RTVSPropertyOp15
 70
     1
102
RTVSPropertyOp16
 70
     1
102
RTVSPropertyOp17
 70
     1
102
RTVSPropertyOp18
 70
     1
102
RTVSPropertyOp19
 70
     1
102
RTVSPropertyOp20
 70
     1
102
RTVSPropertyOp21
 70
     1
102
RTVSPropertyOp22
 70
     1
102
RTVSPropertyOp23
 70
     1
102
RTVSPropertyOp24
 70
     1
102
RTVSPropertyOp25
 70
     1
102
RTVSPropertyOp26
 70
     1
102
RTVSPropertyOp27
 70
     1
102
RTVSPropertyOp28
 70
     1
102
RTVSPropertyOp29
 70
     1
102
RTVSPropertyOp30
 70
     1
102
RTVSPropertyOp31
 70
     1
102
RTVSPropertyOp32
 70
     1
  0
XRECORD
  5
40ADC
102
{ACAD_REACTORS
330
40ADB
102
}
330
40ADB
100
AcDbXrecord
280
     1
102
RTVSPropertyOp0
 70
     0
102
RTVSPropertyOp1
 70
     0
102
RTVSPropertyOp2
 70
     0
102
RTVSPropertyOp3
 70
     0
102
RTVSPropertyOp4
 70
     0
102
RTVSPropertyOp5
 70
     0
102
RTVSPropertyOp6
 70
     0
102
RTVSPropertyOp7
 70
     0
102
RTVSPropertyOp8
 70
     0
102
RTVSPropertyOp9
 70
     0
102
RTVSPropertyOp10
 70
     0
102
RTVSPropertyOp11
 70
     0
102
RTVSPropertyOp12
 70
     0
102
RTVSPropertyOp13
 70
     0
102
RTVSPropertyOp14
 70
     2
102
RTVSPropertyOp15
 70
     0
102
RTVSPropertyOp16
 70
     0
102
RTVSPropertyOp17
 70
     0
102
RTVSPropertyOp18
 70
     0
102
RTVSPropertyOp19
 70
     0
102
RTVSPropertyOp20
 70
     0
102
RTVSPropertyOp21
 70
     0
102
RTVSPropertyOp22
 70
     0
102
RTVSPropertyOp23
 70
     0
102
RTVSPropertyOp24
 70
     0
102
RTVSPropertyOp25
 70
     0
102
RTVSPropertyOp26
 70
     0
102
RTVSPropertyOp27
 70
     0
102
RTVSPropertyOp28
 70
     1
102
RTVSPropertyOp29
 70
     1
102
RTVSPropertyOp30
 70
     1
102
RTVSPropertyOp31
 70
     1
102
RTVSPropertyOp32
 70
     1
  0
XRECORD
  5
40AB8
102
{ACAD_REACTORS
330
40AB7
102
}
330
40AB7
100
AcDbXrecord
280
     1
102
RTVSPropertyOp0
 70
     1
102
RTVSPropertyOp1
 70
     1
102
RTVSPropertyOp2
 70
     1
102
RTVSPropertyOp3
 70
     1
102
RTVSPropertyOp4
 70
     1
102
RTVSPropertyOp5
 70
     1
102
RTVSPropertyOp6
 70
     1
102
RTVSPropertyOp7
 70
     1
102
RTVSPropertyOp8
 70
     1
102
RTVSPropertyOp9
 70
     1
102
RTVSPropertyOp10
 70
     1
102
RTVSPropertyOp11
 70
     1
102
RTVSPropertyOp12
 70
     1
102
RTVSPropertyOp13
 70
     1
102
RTVSPropertyOp14
 70
     1
102
RTVSPropertyOp15
 70
     1
102
RTVSPropertyOp16
 70
     1
102
RTVSPropertyOp17
 70
     1
102
RTVSPropertyOp18
 70
     1
102
RTVSPropertyOp19
 70
     1
102
RTVSPropertyOp20
 70
     1
102
RTVSPropertyOp21
 70
     1
102
RTVSPropertyOp22
 70
     1
102
RTVSPropertyOp23
 70
     1
102
RTVSPropertyOp24
 70
     1
102
RTVSPropertyOp25
 70
     1
102
RTVSPropertyOp26
 70
     1
102
RTVSPropertyOp27
 70
     1
102
RTVSPropertyOp28
 70
     1
102
RTVSPropertyOp29
 70
     1
102
RTVSPropertyOp30
 70
     1
102
RTVSPropertyOp31
 70
     1
102
RTVSPropertyOp32
 70
     1
  0
XRECORD
  5
40AA4
102
{ACAD_REACTORS
330
40AA3
102
}
330
40AA3
100
AcDbXrecord
280
     1
102
RTVSPropertyOp0
 70
     1
102
RTVSPropertyOp1
 70
     1
102
RTVSPropertyOp2
 70
     1
102
RTVSPropertyOp3
 70
     1
102
RTVSPropertyOp4
 70
     1
102
RTVSPropertyOp5
 70
     1
102
RTVSPropertyOp6
 70
     1
102
RTVSPropertyOp7
 70
     1
102
RTVSPropertyOp8
 70
     1
102
RTVSPropertyOp9
 70
     1
102
RTVSPropertyOp10
 70
     1
102
RTVSPropertyOp11
 70
     1
102
RTVSPropertyOp12
 70
     1
102
RTVSPropertyOp13
 70
     1
102
RTVSPropertyOp14
 70
     1
102
RTVSPropertyOp15
 70
     1
102
RTVSPropertyOp16
 70
     1
102
RTVSPropertyOp17
 70
     1
102
RTVSPropertyOp18
 70
     1
102
RTVSPropertyOp19
 70
     1
102
RTVSPropertyOp20
 70
     1
102
RTVSPropertyOp21
 70
     1
102
RTVSPropertyOp22
 70
     1
102
RTVSPropertyOp23
 70
     1
102
RTVSPropertyOp24
 70
     1
102
RTVSPropertyOp25
 70
     1
102
RTVSPropertyOp26
 70
     1
102
RTVSPropertyOp27
 70
     1
102
RTVSPropertyOp28
 70
     1
102
RTVSPropertyOp29
 70
     1
102
RTVSPropertyOp30
 70
     1
102
RTVSPropertyOp31
 70
     1
102
RTVSPropertyOp32
 70
     1
  0
XRECORD
  5
40AA6
102
{ACAD_REACTORS
330
40AA5
102
}
330
40AA5
100
AcDbXrecord
280
     1
102
RTVSPropertyOp0
 70
     1
102
RTVSPropertyOp1
 70
     1
102
RTVSPropertyOp2
 70
     1
102
RTVSPropertyOp3
 70
     1
102
RTVSPropertyOp4
 70
     1
102
RTVSPropertyOp5
 70
     1
102
RTVSPropertyOp6
 70
     1
102
RTVSPropertyOp7
 70
     1
102
RTVSPropertyOp8
 70
     1
102
RTVSPropertyOp9
 70
     1
102
RTVSPropertyOp10
 70
     1
102
RTVSPropertyOp11
 70
     1
102
RTVSPropertyOp12
 70
     1
102
RTVSPropertyOp13
 70
     1
102
RTVSPropertyOp14
 70
     1
102
RTVSPropertyOp15
 70
     1
102
RTVSPropertyOp16
 70
     1
102
RTVSPropertyOp17
 70
     1
102
RTVSPropertyOp18
 70
     1
102
RTVSPropertyOp19
 70
     1
102
RTVSPropertyOp20
 70
     1
102
RTVSPropertyOp21
 70
     1
102
RTVSPropertyOp22
 70
     1
102
RTVSPropertyOp23
 70
     1
102
RTVSPropertyOp24
 70
     1
102
RTVSPropertyOp25
 70
     1
102
RTVSPropertyOp26
 70
     1
102
RTVSPropertyOp27
 70
     1
102
RTVSPropertyOp28
 70
     1
102
RTVSPropertyOp29
 70
     1
102
RTVSPropertyOp30
 70
     1
102
RTVSPropertyOp31
 70
     1
102
RTVSPropertyOp32
 70
     1
  0
XRECORD
  5
40AA8
102
{ACAD_REACTORS
330
40AA7
102
}
330
40AA7
100
AcDbXrecord
280
     1
102
RTVSPropertyOp0
 70
     1
102
RTVSPropertyOp1
 70
     1
102
RTVSPropertyOp2
 70
     1
102
RTVSPropertyOp3
 70
     1
102
RTVSPropertyOp4
 70
     1
102
RTVSPropertyOp5
 70
     1
102
RTVSPropertyOp6
 70
     1
102
RTVSPropertyOp7
 70
     1
102
RTVSPropertyOp8
 70
     1
102
RTVSPropertyOp9
 70
     1
102
RTVSPropertyOp10
 70
     1
102
RTVSPropertyOp11
 70
     1
102
RTVSPropertyOp12
 70
     1
102
RTVSPropertyOp13
 70
     1
102
RTVSPropertyOp14
 70
     1
102
RTVSPropertyOp15
 70
     1
102
RTVSPropertyOp16
 70
     1
102
RTVSPropertyOp17
 70
     1
102
RTVSPropertyOp18
 70
     1
102
RTVSPropertyOp19
 70
     1
102
RTVSPropertyOp20
 70
     1
102
RTVSPropertyOp21
 70
     1
102
RTVSPropertyOp22
 70
     1
102
RTVSPropertyOp23
 70
     1
102
RTVSPropertyOp24
 70
     1
102
RTVSPropertyOp25
 70
     1
102
RTVSPropertyOp26
 70
     1
102
RTVSPropertyOp27
 70
     1
102
RTVSPropertyOp28
 70
     1
102
RTVSPropertyOp29
 70
     1
102
RTVSPropertyOp30
 70
     1
102
RTVSPropertyOp31
 70
     1
102
RTVSPropertyOp32
 70
     1
  0
XRECORD
  5
40AAA
102
{ACAD_REACTORS
330
40AA9
102
}
330
40AA9
100
AcDbXrecord
280
     1
102
RTVSPropertyOp0
 70
     1
102
RTVSPropertyOp1
 70
     1
102
RTVSPropertyOp2
 70
     1
102
RTVSPropertyOp3
 70
     1
102
RTVSPropertyOp4
 70
     1
102
RTVSPropertyOp5
 70
     1
102
RTVSPropertyOp6
 70
     1
102
RTVSPropertyOp7
 70
     1
102
RTVSPropertyOp8
 70
     1
102
RTVSPropertyOp9
 70
     1
102
RTVSPropertyOp10
 70
     1
102
RTVSPropertyOp11
 70
     1
102
RTVSPropertyOp12
 70
     1
102
RTVSPropertyOp13
 70
     1
102
RTVSPropertyOp14
 70
     1
102
RTVSPropertyOp15
 70
     1
102
RTVSPropertyOp16
 70
     1
102
RTVSPropertyOp17
 70
     1
102
RTVSPropertyOp18
 70
     1
102
RTVSPropertyOp19
 70
     1
102
RTVSPropertyOp20
 70
     1
102
RTVSPropertyOp21
 70
     1
102
RTVSPropertyOp22
 70
     1
102
RTVSPropertyOp23
 70
     1
102
RTVSPropertyOp24
 70
     1
102
RTVSPropertyOp25
 70
     1
102
RTVSPropertyOp26
 70
     1
102
RTVSPropertyOp27
 70
     1
102
RTVSPropertyOp28
 70
     1
102
RTVSPropertyOp29
 70
     1
102
RTVSPropertyOp30
 70
     1
102
RTVSPropertyOp31
 70
     1
102
RTVSPropertyOp32
 70
     1
  0
XRECORD
  5
40ACA
102
{ACAD_REACTORS
330
40AC9
102
}
330
40AC9
100
AcDbXrecord
280
     1
102
RTVSPropertyOp0
 70
     1
102
RTVSPropertyOp1
 70
     1
102
RTVSPropertyOp2
 70
     1
102
RTVSPropertyOp3
 70
     1
102
RTVSPropertyOp4
 70
     1
102
RTVSPropertyOp5
 70
     1
102
RTVSPropertyOp6
 70
     1
102
RTVSPropertyOp7
 70
     1
102
RTVSPropertyOp8
 70
     1
102
RTVSPropertyOp9
 70
     1
102
RTVSPropertyOp10
 70
     1
102
RTVSPropertyOp11
 70
     1
102
RTVSPropertyOp12
 70
     1
102
RTVSPropertyOp13
 70
     1
102
RTVSPropertyOp14
 70
     1
102
RTVSPropertyOp15
 70
     1
102
RTVSPropertyOp16
 70
     1
102
RTVSPropertyOp17
 70
     1
102
RTVSPropertyOp18
 70
     1
102
RTVSPropertyOp19
 70
     1
102
RTVSPropertyOp20
 70
     1
102
RTVSPropertyOp21
 70
     1
102
RTVSPropertyOp22
 70
     1
102
RTVSPropertyOp23
 70
     1
102
RTVSPropertyOp24
 70
     1
102
RTVSPropertyOp25
 70
     1
102
RTVSPropertyOp26
 70
     1
102
RTVSPropertyOp27
 70
     1
102
RTVSPropertyOp28
 70
     1
102
RTVSPropertyOp29
 70
     1
102
RTVSPropertyOp30
 70
     1
102
RTVSPropertyOp31
 70
     1
102
RTVSPropertyOp32
 70
     1
  0
XRECORD
  5
40AD8
102
{ACAD_REACTORS
330
40AD7
102
}
330
40AD7
100
AcDbXrecord
280
     1
102
RTVSPropertyOp0
 70
     0
102
RTVSPropertyOp1
 70
     0
102
RTVSPropertyOp2
 70
     0
102
RTVSPropertyOp3
 70
     0
102
RTVSPropertyOp4
 70
     0
102
RTVSPropertyOp5
 70
     0
102
RTVSPropertyOp6
 70
     0
102
RTVSPropertyOp7
 70
     0
102
RTVSPropertyOp8
 70
     0
102
RTVSPropertyOp9
 70
     0
102
RTVSPropertyOp10
 70
     0
102
RTVSPropertyOp11
 70
     0
102
RTVSPropertyOp12
 70
     0
102
RTVSPropertyOp13
 70
     0
102
RTVSPropertyOp14
 70
     2
102
RTVSPropertyOp15
 70
     0
102
RTVSPropertyOp16
 70
     0
102
RTVSPropertyOp17
 70
     0
102
RTVSPropertyOp18
 70
     0
102
RTVSPropertyOp19
 70
     0
102
RTVSPropertyOp20
 70
     0
102
RTVSPropertyOp21
 70
     0
102
RTVSPropertyOp22
 70
     0
102
RTVSPropertyOp23
 70
     0
102
RTVSPropertyOp24
 70
     0
102
RTVSPropertyOp25
 70
     0
102
RTVSPropertyOp26
 70
     0
102
RTVSPropertyOp27
 70
     0
102
RTVSPropertyOp28
 70
     1
102
RTVSPropertyOp29
 70
     1
102
RTVSPropertyOp30
 70
     1
102
RTVSPropertyOp31
 70
     1
102
RTVSPropertyOp32
 70
     1
  0
XRECORD
  5
40AB6
102
{ACAD_REACTORS
330
40AB5
102
}
330
40AB5
100
AcDbXrecord
280
     1
102
RTVSPropertyOp0
 70
     1
102
RTVSPropertyOp1
 70
     1
102
RTVSPropertyOp2
 70
     1
102
RTVSPropertyOp3
 70
     1
102
RTVSPropertyOp4
 70
     1
102
RTVSPropertyOp5
 70
     1
102
RTVSPropertyOp6
 70
     1
102
RTVSPropertyOp7
 70
     1
102
RTVSPropertyOp8
 70
     1
102
RTVSPropertyOp9
 70
     1
102
RTVSPropertyOp10
 70
     1
102
RTVSPropertyOp11
 70
     1
102
RTVSPropertyOp12
 70
     1
102
RTVSPropertyOp13
 70
     1
102
RTVSPropertyOp14
 70
     1
102
RTVSPropertyOp15
 70
     1
102
RTVSPropertyOp16
 70
     1
102
RTVSPropertyOp17
 70
     1
102
RTVSPropertyOp18
 70
     1
102
RTVSPropertyOp19
 70
     1
102
RTVSPropertyOp20
 70
     1
102
RTVSPropertyOp21
 70
     1
102
RTVSPropertyOp22
 70
     1
102
RTVSPropertyOp23
 70
     1
102
RTVSPropertyOp24
 70
     1
102
RTVSPropertyOp25
 70
     1
102
RTVSPropertyOp26
 70
     1
102
RTVSPropertyOp27
 70
     1
102
RTVSPropertyOp28
 70
     1
102
RTVSPropertyOp29
 70
     1
102
RTVSPropertyOp30
 70
     1
102
RTVSPropertyOp31
 70
     1
102
RTVSPropertyOp32
 70
     1
  0
XRECORD
  5
40ADA
102
{ACAD_REACTORS
330
40AD9
102
}
330
40AD9
100
AcDbXrecord
280
     1
102
RTVSPropertyOp0
 70
     0
102
RTVSPropertyOp1
 70
     0
102
RTVSPropertyOp2
 70
     0
102
RTVSPropertyOp3
 70
     0
102
RTVSPropertyOp4
 70
     0
102
RTVSPropertyOp5
 70
     0
102
RTVSPropertyOp6
 70
     0
102
RTVSPropertyOp7
 70
     0
102
RTVSPropertyOp8
 70
     0
102
RTVSPropertyOp9
 70
     0
102
RTVSPropertyOp10
 70
     0
102
RTVSPropertyOp11
 70
     0
102
RTVSPropertyOp12
 70
     0
102
RTVSPropertyOp13
 70
     0
102
RTVSPropertyOp14
 70
     2
102
RTVSPropertyOp15
 70
     0
102
RTVSPropertyOp16
 70
     0
102
RTVSPropertyOp17
 70
     0
102
RTVSPropertyOp18
 70
     0
102
RTVSPropertyOp19
 70
     0
102
RTVSPropertyOp20
 70
     0
102
RTVSPropertyOp21
 70
     0
102
RTVSPropertyOp22
 70
     0
102
RTVSPropertyOp23
 70
     0
102
RTVSPropertyOp24
 70
     0
102
RTVSPropertyOp25
 70
     0
102
RTVSPropertyOp26
 70
     0
102
RTVSPropertyOp27
 70
     0
102
RTVSPropertyOp28
 70
     1
102
RTVSPropertyOp29
 70
     1
102
RTVSPropertyOp30
 70
     1
102
RTVSPropertyOp31
 70
     1
102
RTVSPropertyOp32
 70
     1
  0
XRECORD
  5
40AC4
102
{ACAD_REACTORS
330
40AC3
102
}
330
40AC3
100
AcDbXrecord
280
     1
102
RTVSPropertyOp0
 70
     1
102
RTVSPropertyOp1
 70
     1
102
RTVSPropertyOp2
 70
     1
102
RTVSPropertyOp3
 70
     1
102
RTVSPropertyOp4
 70
     1
102
RTVSPropertyOp5
 70
     1
102
RTVSPropertyOp6
 70
     1
102
RTVSPropertyOp7
 70
     1
102
RTVSPropertyOp8
 70
     1
102
RTVSPropertyOp9
 70
     1
102
RTVSPropertyOp10
 70
     1
102
RTVSPropertyOp11
 70
     1
102
RTVSPropertyOp12
 70
     1
102
RTVSPropertyOp13
 70
     1
102
RTVSPropertyOp14
 70
     1
102
RTVSPropertyOp15
 70
     1
102
RTVSPropertyOp16
 70
     1
102
RTVSPropertyOp17
 70
     1
102
RTVSPropertyOp18
 70
     1
102
RTVSPropertyOp19
 70
     1
102
RTVSPropertyOp20
 70
     1
102
RTVSPropertyOp21
 70
     1
102
RTVSPropertyOp22
 70
     1
102
RTVSPropertyOp23
 70
     1
102
RTVSPropertyOp24
 70
     1
102
RTVSPropertyOp25
 70
     1
102
RTVSPropertyOp26
 70
     1
102
RTVSPropertyOp27
 70
     1
102
RTVSPropertyOp28
 70
     1
102
RTVSPropertyOp29
 70
     1
102
RTVSPropertyOp30
 70
     1
102
RTVSPropertyOp31
 70
     1
102
RTVSPropertyOp32
 70
     1
  0
XRECORD
  5
40AD6
102
{ACAD_REACTORS
330
40AD5
102
}
330
40AD5
100
AcDbXrecord
280
     1
102
RTVSPropertyOp0
 70
     1
102
RTVSPropertyOp1
 70
     1
102
RTVSPropertyOp2
 70
     1
102
RTVSPropertyOp3
 70
     1
102
RTVSPropertyOp4
 70
     1
102
RTVSPropertyOp5
 70
     1
102
RTVSPropertyOp6
 70
     1
102
RTVSPropertyOp7
 70
     1
102
RTVSPropertyOp8
 70
     1
102
RTVSPropertyOp9
 70
     1
102
RTVSPropertyOp10
 70
     1
102
RTVSPropertyOp11
 70
     1
102
RTVSPropertyOp12
 70
     1
102
RTVSPropertyOp13
 70
     1
102
RTVSPropertyOp14
 70
     1
102
RTVSPropertyOp15
 70
     1
102
RTVSPropertyOp16
 70
     1
102
RTVSPropertyOp17
 70
     1
102
RTVSPropertyOp18
 70
     1
102
RTVSPropertyOp19
 70
     1
102
RTVSPropertyOp20
 70
     1
102
RTVSPropertyOp21
 70
     1
102
RTVSPropertyOp22
 70
     1
102
RTVSPropertyOp23
 70
     1
102
RTVSPropertyOp24
 70
     1
102
RTVSPropertyOp25
 70
     1
102
RTVSPropertyOp26
 70
     1
102
RTVSPropertyOp27
 70
     1
102
RTVSPropertyOp28
 70
     1
102
RTVSPropertyOp29
 70
     1
102
RTVSPropertyOp30
 70
     1
102
RTVSPropertyOp31
 70
     1
102
RTVSPropertyOp32
 70
     1
  0
XRECORD
  5
40AD4
102
{ACAD_REACTORS
330
40AD3
102
}
330
40AD3
100
AcDbXrecord
280
     1
102
RTVSPropertyOp0
 70
     1
102
RTVSPropertyOp1
 70
     1
102
RTVSPropertyOp2
 70
     1
102
RTVSPropertyOp3
 70
     1
102
RTVSPropertyOp4
 70
     1
102
RTVSPropertyOp5
 70
     1
102
RTVSPropertyOp6
 70
     1
102
RTVSPropertyOp7
 70
     1
102
RTVSPropertyOp8
 70
     1
102
RTVSPropertyOp9
 70
     1
102
RTVSPropertyOp10
 70
     1
102
RTVSPropertyOp11
 70
     1
102
RTVSPropertyOp12
 70
     1
102
RTVSPropertyOp13
 70
     1
102
RTVSPropertyOp14
 70
     1
102
RTVSPropertyOp15
 70
     1
102
RTVSPropertyOp16
 70
     1
102
RTVSPropertyOp17
 70
     1
102
RTVSPropertyOp18
 70
     1
102
RTVSPropertyOp19
 70
     1
102
RTVSPropertyOp20
 70
     1
102
RTVSPropertyOp21
 70
     1
102
RTVSPropertyOp22
 70
     1
102
RTVSPropertyOp23
 70
     1
102
RTVSPropertyOp24
 70
     1
102
RTVSPropertyOp25
 70
     1
102
RTVSPropertyOp26
 70
     1
102
RTVSPropertyOp27
 70
     1
102
RTVSPropertyOp28
 70
     1
102
RTVSPropertyOp29
 70
     1
102
RTVSPropertyOp30
 70
     1
102
RTVSPropertyOp31
 70
     1
102
RTVSPropertyOp32
 70
     1
  0
XRECORD
  5
40ACE
102
{ACAD_REACTORS
330
40ACD
102
}
330
40ACD
100
AcDbXrecord
280
     1
102
RTVSPropertyOp0
 70
     1
102
RTVSPropertyOp1
 70
     1
102
RTVSPropertyOp2
 70
     1
102
RTVSPropertyOp3
 70
     1
102
RTVSPropertyOp4
 70
     1
102
RTVSPropertyOp5
 70
     1
102
RTVSPropertyOp6
 70
     1
102
RTVSPropertyOp7
 70
     1
102
RTVSPropertyOp8
 70
     1
102
RTVSPropertyOp9
 70
     1
102
RTVSPropertyOp10
 70
     1
102
RTVSPropertyOp11
 70
     1
102
RTVSPropertyOp12
 70
     1
102
RTVSPropertyOp13
 70
     1
102
RTVSPropertyOp14
 70
     1
102
RTVSPropertyOp15
 70
     1
102
RTVSPropertyOp16
 70
     1
102
RTVSPropertyOp17
 70
     1
102
RTVSPropertyOp18
 70
     1
102
RTVSPropertyOp19
 70
     1
102
RTVSPropertyOp20
 70
     1
102
RTVSPropertyOp21
 70
     1
102
RTVSPropertyOp22
 70
     1
102
RTVSPropertyOp23
 70
     1
102
RTVSPropertyOp24
 70
     1
102
RTVSPropertyOp25
 70
     1
102
RTVSPropertyOp26
 70
     1
102
RTVSPropertyOp27
 70
     1
102
RTVSPropertyOp28
 70
     1
102
RTVSPropertyOp29
 70
     1
102
RTVSPropertyOp30
 70
     1
102
RTVSPropertyOp31
 70
     1
102
RTVSPropertyOp32
 70
     1
  0
XRECORD
  5
40AD0
102
{ACAD_REACTORS
330
40ACF
102
}
330
40ACF
100
AcDbXrecord
280
     1
102
RTVSPropertyOp0
 70
     1
102
RTVSPropertyOp1
 70
     1
102
RTVSPropertyOp2
 70
     1
102
RTVSPropertyOp3
 70
     1
102
RTVSPropertyOp4
 70
     1
102
RTVSPropertyOp5
 70
     1
102
RTVSPropertyOp6
 70
     1
102
RTVSPropertyOp7
 70
     1
102
RTVSPropertyOp8
 70
     1
102
RTVSPropertyOp9
 70
     1
102
RTVSPropertyOp10
 70
     1
102
RTVSPropertyOp11
 70
     1
102
RTVSPropertyOp12
 70
     1
102
RTVSPropertyOp13
 70
     1
102
RTVSPropertyOp14
 70
     1
102
RTVSPropertyOp15
 70
     1
102
RTVSPropertyOp16
 70
     1
102
RTVSPropertyOp17
 70
     1
102
RTVSPropertyOp18
 70
     1
102
RTVSPropertyOp19
 70
     1
102
RTVSPropertyOp20
 70
     1
102
RTVSPropertyOp21
 70
     1
102
RTVSPropertyOp22
 70
     1
102
RTVSPropertyOp23
 70
     1
102
RTVSPropertyOp24
 70
     1
102
RTVSPropertyOp25
 70
     1
102
RTVSPropertyOp26
 70
     1
102
RTVSPropertyOp27
 70
     1
102
RTVSPropertyOp28
 70
     1
102
RTVSPropertyOp29
 70
     1
102
RTVSPropertyOp30
 70
     1
102
RTVSPropertyOp31
 70
     1
102
RTVSPropertyOp32
 70
     1
  0
XRECORD
  5
40AB4
102
{ACAD_REACTORS
330
40AB3
102
}
330
40AB3
100
AcDbXrecord
280
     1
102
RTVSPropertyOp0
 70
     1
102
RTVSPropertyOp1
 70
     1
102
RTVSPropertyOp2
 70
     1
102
RTVSPropertyOp3
 70
     1
102
RTVSPropertyOp4
 70
     1
102
RTVSPropertyOp5
 70
     1
102
RTVSPropertyOp6
 70
     1
102
RTVSPropertyOp7
 70
     1
102
RTVSPropertyOp8
 70
     1
102
RTVSPropertyOp9
 70
     1
102
RTVSPropertyOp10
 70
     1
102
RTVSPropertyOp11
 70
     1
102
RTVSPropertyOp12
 70
     1
102
RTVSPropertyOp13
 70
     1
102
RTVSPropertyOp14
 70
     1
102
RTVSPropertyOp15
 70
     1
102
RTVSPropertyOp16
 70
     1
102
RTVSPropertyOp17
 70
     1
102
RTVSPropertyOp18
 70
     1
102
RTVSPropertyOp19
 70
     1
102
RTVSPropertyOp20
 70
     1
102
RTVSPropertyOp21
 70
     1
102
RTVSPropertyOp22
 70
     1
102
RTVSPropertyOp23
 70
     1
102
RTVSPropertyOp24
 70
     1
102
RTVSPropertyOp25
 70
     1
102
RTVSPropertyOp26
 70
     1
102
RTVSPropertyOp27
 70
     1
102
RTVSPropertyOp28
 70
     1
102
RTVSPropertyOp29
 70
     1
102
RTVSPropertyOp30
 70
     1
102
RTVSPropertyOp31
 70
     1
102
RTVSPropertyOp32
 70
     1
  0
XRECORD
  5
40AC8
102
{ACAD_REACTORS
330
40AC7
102
}
330
40AC7
100
AcDbXrecord
280
     1
102
RTVSPropertyOp0
 70
     1
102
RTVSPropertyOp1
 70
     1
102
RTVSPropertyOp2
 70
     1
102
RTVSPropertyOp3
 70
     1
102
RTVSPropertyOp4
 70
     1
102
RTVSPropertyOp5
 70
     1
102
RTVSPropertyOp6
 70
     1
102
RTVSPropertyOp7
 70
     1
102
RTVSPropertyOp8
 70
     1
102
RTVSPropertyOp9
 70
     1
102
RTVSPropertyOp10
 70
     1
102
RTVSPropertyOp11
 70
     1
102
RTVSPropertyOp12
 70
     1
102
RTVSPropertyOp13
 70
     1
102
RTVSPropertyOp14
 70
     1
102
RTVSPropertyOp15
 70
     1
102
RTVSPropertyOp16
 70
     1
102
RTVSPropertyOp17
 70
     1
102
RTVSPropertyOp18
 70
     1
102
RTVSPropertyOp19
 70
     1
102
RTVSPropertyOp20
 70
     1
102
RTVSPropertyOp21
 70
     1
102
RTVSPropertyOp22
 70
     1
102
RTVSPropertyOp23
 70
     1
102
RTVSPropertyOp24
 70
     1
102
RTVSPropertyOp25
 70
     1
102
RTVSPropertyOp26
 70
     1
102
RTVSPropertyOp27
 70
     1
102
RTVSPropertyOp28
 70
     1
102
RTVSPropertyOp29
 70
     1
102
RTVSPropertyOp30
 70
     1
102
RTVSPropertyOp31
 70
     1
102
RTVSPropertyOp32
 70
     1
  0
XRECORD
  5
40AD2
102
{ACAD_REACTORS
330
40AD1
102
}
330
40AD1
100
AcDbXrecord
280
     1
102
RTVSPropertyOp0
 70
     1
102
RTVSPropertyOp1
 70
     1
102
RTVSPropertyOp2
 70
     1
102
RTVSPropertyOp3
 70
     1
102
RTVSPropertyOp4
 70
     1
102
RTVSPropertyOp5
 70
     1
102
RTVSPropertyOp6
 70
     1
102
RTVSPropertyOp7
 70
     1
102
RTVSPropertyOp8
 70
     1
102
RTVSPropertyOp9
 70
     1
102
RTVSPropertyOp10
 70
     1
102
RTVSPropertyOp11
 70
     1
102
RTVSPropertyOp12
 70
     1
102
RTVSPropertyOp13
 70
     1
102
RTVSPropertyOp14
 70
     1
102
RTVSPropertyOp15
 70
     1
102
RTVSPropertyOp16
 70
     1
102
RTVSPropertyOp17
 70
     1
102
RTVSPropertyOp18
 70
     1
102
RTVSPropertyOp19
 70
     1
102
RTVSPropertyOp20
 70
     1
102
RTVSPropertyOp21
 70
     1
102
RTVSPropertyOp22
 70
     1
102
RTVSPropertyOp23
 70
     1
102
RTVSPropertyOp24
 70
     1
102
RTVSPropertyOp25
 70
     1
102
RTVSPropertyOp26
 70
     1
102
RTVSPropertyOp27
 70
     1
102
RTVSPropertyOp28
 70
     1
102
RTVSPropertyOp29
 70
     1
102
RTVSPropertyOp30
 70
     1
102
RTVSPropertyOp31
 70
     1
102
RTVSPropertyOp32
 70
     1
  0
ENDSEC
  0
EOF
