  0
SECTION
  2
HEADER
  9
$ACADVER
  1
AC1015
  9
$ACADMAINTVER
 70
    20
  9
$DWGCODEPAGE
  3
ANSI_1252
  9
$INSBASE
 10
1.235102848601107
 20
11.24774640129371
 30
0.0
  9
$EXTMIN
 10
3.782014315774866
 20
2.869209071129403
 30
0.0
  9
$EXTMAX
 10
8.188133957514494
 20
5.508239372410193
 30
0.0
  9
$LIMMIN
 10
0.0
 20
0.0
  9
$LIMMAX
 10
12.0
 20
9.0
  9
$ORTHOMODE
 70
     1
  9
$REGENMODE
 70
     1
  9
$FILLMODE
 70
     1
  9
$QTEXTMODE
 70
     0
  9
$MIRRTEXT
 70
     0
  9
$LTSCALE
 40
1.0
  9
$ATTMODE
 70
     1
  9
$TEXTSIZE
 40
0.125
  9
$TRACEWID
 40
0.05
  9
$TEXTSTYLE
  7
STD
  9
$CLAYER
  8
0
  9
$CELTYPE
  6
BYLAYER
  9
$CECOLOR
 62
   256
  9
$CELTSCALE
 40
1.0
  9
$DISPSILH
 70
     0
  9
$DIMSCALE
 40
0.5
  9
$DIMASZ
 40
0.125
  9
$DIMEXO
 40
0.07
  9
$DIMDLI
 40
0.25
  9
$DIMRND
 40
0.0
  9
$DIMDLE
 40
0.0
  9
$DIMEXE
 40
0.14
  9
$DIMTP
 40
0.0
  9
$DIMTM
 40
0.0
  9
$DIMTXT
 40
0.125
  9
$DIMCEN
 40
0.0
  9
$DIMTSZ
 40
0.0
  9
$DIMTOL
 70
     0
  9
$DIMLIM
 70
     0
  9
$DIMTIH
 70
     1
  9
$DIMTOH
 70
     1
  9
$DIMSE1
 70
     0
  9
$DIMSE2
 70
     0
  9
$DIMTAD
 70
     0
  9
$DIMZIN
 70
     3
  9
$DIMBLK
  1

  9
$DIMASO
 70
     1
  9
$DIMSHO
 70
     1
  9
$DIMPOST
  1

  9
$DIMAPOST
  1
"
  9
$DIMALT
 70
     0
  9
$DIMALTD
 70
     3
  9
$DIMALTF
 40
1.0
  9
$DIMLFAC
 40
1.0
  9
$DIMTOFL
 70
     0
  9
$DIMTVP
 40
0.0
  9
$DIMTIX
 70
     0
  9
$DIMSOXD
 70
     0
  9
$DIMSAH
 70
     0
  9
$DIMBLK1
  1

  9
$DIMBLK2
  1

  9
$DIMSTYLE
  2
F-DIM@5
  9
$DIMCLRD
 70
     2
  9
$DIMCLRE
 70
     3
  9
$DIMCLRT
 70
   256
  9
$DIMTFAC
 40
1.0
  9
$DIMGAP
 40
0.09
  9
$DIMJUST
 70
     0
  9
$DIMSD1
 70
     0
  9
$DIMSD2
 70
     0
  9
$DIMTOLJ
 70
     1
  9
$DIMTZIN
 70
     0
  9
$DIMALTZ
 70
     0
  9
$DIMALTTZ
 70
     0
  9
$DIMUPT
 70
     0
  9
$DIMDEC
 70
     6
  9
$DIMTDEC
 70
     6
  9
$DIMALTU
 70
     2
  9
$DIMALTTD
 70
     3
  9
$DIMTXSTY
  7
STD
  9
$DIMAUNIT
 70
     0
  9
$DIMADEC
 70
     0
  9
$DIMALTRND
 40
0.0
  9
$DIMAZIN
 70
     0
  9
$DIMDSEP
 70
    46
  9
$DIMATFIT
 70
     3
  9
$DIMFRAC
 70
     2
  9
$DIMLDRBLK
  1

  9
$DIMLUNIT
 70
     5
  9
$DIMLWD
 70
    -2
  9
$DIMLWE
 70
    -2
  9
$DIMTMOVE
 70
     0
  9
$LUNITS
 70
     5
  9
$LUPREC
 70
     6
  9
$SKETCHINC
 40
0.1
  9
$FILLETRAD
 40
0.0
  9
$AUNITS
 70
     0
  9
$AUPREC
 70
     0
  9
$MENU
  1
.
  9
$ELEVATION
 40
0.0
  9
$PELEVATION
 40
0.0
  9
$THICKNESS
 40
0.0
  9
$LIMCHECK
 70
     0
  9
$CHAMFERA
 40
0.5
  9
$CHAMFERB
 40
0.5
  9
$CHAMFERC
 40
1.0
  9
$CHAMFERD
 40
0.0
  9
$SKPOLY
 70
     0
  9
$TDCREATE
 40
2451225.345284028
  9
$TDUCREATE
 40
2451225.595284028
  9
$TDUPDATE
 40
2456317.600431701
  9
$TDUUPDATE
 40
2456317.850431701
  9
$TDINDWG
 40
1.6398024884
  9
$TDUSRTIMER
 40
1.6398024306
  9
$USRTIMER
 70
     1
  9
$ANGBASE
 50
0.0
  9
$ANGDIR
 70
     0
  9
$PDMODE
 70
     3
  9
$PDSIZE
 40
0.0
  9
$PLINEWID
 40
0.0
  9
$SPLFRAME
 70
     0
  9
$SPLINETYPE
 70
     6
  9
$SPLINESEGS
 70
     8
  9
$HANDSEED
  5
3FC91
  9
$SURFTAB1
 70
     6
  9
$SURFTAB2
 70
     6
  9
$SURFTYPE
 70
     6
  9
$SURFU
 70
     6
  9
$SURFV
 70
     6
  9
$UCSBASE
  2

  9
$UCSNAME
  2

  9
$UCSORG
 10
0.0
 20
0.0
 30
0.0
  9
$UCSXDIR
 10
1.0
 20
0.0
 30
0.0
  9
$UCSYDIR
 10
0.0
 20
1.0
 30
0.0
  9
$UCSORTHOREF
  2

  9
$UCSORTHOVIEW
 70
     0
  9
$UCSORGTOP
 10
0.0
 20
0.0
 30
0.0
  9
$UCSORGBOTTOM
 10
0.0
 20
0.0
 30
0.0
  9
$UCSORGLEFT
 10
0.0
 20
0.0
 30
0.0
  9
$UCSORGRIGHT
 10
0.0
 20
0.0
 30
0.0
  9
$UCSORGFRONT
 10
0.0
 20
0.0
 30
0.0
  9
$UCSORGBACK
 10
0.0
 20
0.0
 30
0.0
  9
$PUCSBASE
  2

  9
$PUCSNAME
  2

  9
$PUCSORG
 10
0.0
 20
0.0
 30
0.0
  9
$PUCSXDIR
 10
1.0
 20
0.0
 30
0.0
  9
$PUCSYDIR
 10
0.0
 20
1.0
 30
0.0
  9
$PUCSORTHOREF
  2

  9
$PUCSORTHOVIEW
 70
     0
  9
$PUCSORGTOP
 10
0.0
 20
0.0
 30
0.0
  9
$PUCSORGBOTTOM
 10
0.0
 20
0.0
 30
0.0
  9
$PUCSORGLEFT
 10
0.0
 20
0.0
 30
0.0
  9
$PUCSORGRIGHT
 10
0.0
 20
0.0
 30
0.0
  9
$PUCSORGFRONT
 10
0.0
 20
0.0
 30
0.0
  9
$PUCSORGBACK
 10
0.0
 20
0.0
 30
0.0
  9
$USERI1
 70
     0
  9
$USERI2
 70
     0
  9
$USERI3
 70
     0
  9
$USERI4
 70
     0
  9
$USERI5
 70
     0
  9
$USERR1
 40
0.0
  9
$USERR2
 40
0.0
  9
$USERR3
 40
0.0
  9
$USERR4
 40
0.0
  9
$USERR5
 40
0.0
  9
$WORLDVIEW
 70
     1
  9
$SHADEDGE
 70
     3
  9
$SHADEDIF
 70
    70
  9
$TILEMODE
 70
     1
  9
$MAXACTVP
 70
    48
  9
$PINSBASE
 10
0.0
 20
0.0
 30
0.0
  9
$PLIMCHECK
 70
     0
  9
$PEXTMIN
 10
0.0
 20
0.0
 30
0.0
  9
$PEXTMAX
 10
10.205
 20
7.764780009564798
 30
0.0
  9
$PLIMMIN
 10
-0.2079161059762549
 20
-0.2079166691697489
  9
$PLIMMAX
 10
10.79208365372785
 20
8.29208309053436
  9
$UNITMODE
 70
     0
  9
$VISRETAIN
 70
     1
  9
$PLINEGEN
 70
     0
  9
$PSLTSCALE
 70
     1
  9
$TREEDEPTH
 70
     0
  9
$CMLSTYLE
  2
STANDARD
  9
$CMLJUST
 70
     0
  9
$CMLSCALE
 40
1.0
  9
$PROXYGRAPHICS
 70
     1
  9
$MEASUREMENT
 70
     0
  9
$CELWEIGHT
370
    -1
  9
$ENDCAPS
280
     0
  9
$JOINSTYLE
280
     0
  9
$LWDISPLAY
290
     0
  9
$INSUNITS
 70
     1
  9
$HYPERLINKBASE
  1

  9
$STYLESHEET
  1
5000N-BLACK.CTB
  9
$XEDIT
290
     1
  9
$CEPSNTYPE
380
     0
  9
$PSTYLEMODE
290
     1
  9
$FINGERPRINTGUID
  2
{B3E5E9A9-FEC4-11D2-95EF-00104B2EF1F9}
  9
$VERSIONGUID
  2
{09FA19BB-9D1A-4CF5-88F8-FDC6C0C15F64}
  9
$EXTNAMES
290
     1
  9
$PSVPSCALE
 40
1.0
  9
$OLESTARTUP
290
     0
  0
ENDSEC
  0
SECTION
  2
CLASSES
  0
CLASS
  1
IDBUFFER
  2
AcDbIdBuffer
  3
ObjectDBX Classes
 90
    32768
280
     0
281
     0
  0
CLASS
  1
ACDBDICTIONARYWDFLT
  2
AcDbDictionaryWithDefault
  3
ObjectDBX Classes
 90
        0
280
     0
281
     0
  0
CLASS
  1
ACDBPLACEHOLDER
  2
AcDbPlaceHolder
  3
ObjectDBX Classes
 90
        0
280
     0
281
     0
  0
CLASS
  1
LAYOUT
  2
AcDbLayout
  3
ObjectDBX Classes
 90
        0
280
     0
281
     0
  0
CLASS
  1
DICTIONARYVAR
  2
AcDbDictionaryVar
  3
ObjectDBX Classes
 90
        0
280
     0
281
     0
  0
CLASS
  1
TABLESTYLE
  2
AcDbTableStyle
  3
ObjectDBX Classes
 90
     4095
280
     0
281
     0
  0
CLASS
  1
PLOTSETTINGS
  2
AcDbPlotSettings
  3
ObjectDBX Classes
 90
        0
280
     0
281
     0
  0
CLASS
  1
MATERIAL
  2
AcDbMaterial
  3
ObjectDBX Classes
 90
     1153
280
     0
281
     0
  0
CLASS
  1
VISUALSTYLE
  2
AcDbVisualStyle
  3
ObjectDBX Classes
 90
     4095
280
     0
281
     0
  0
CLASS
  1
SORTENTSTABLE
  2
AcDbSortentsTable
  3
ObjectDBX Classes
 90
        0
280
     0
281
     0
  0
CLASS
  1
FIELD
  2
AcDbField
  3
ObjectDBX Classes
 90
    33920
280
     0
281
     0
  0
CLASS
  1
FIELDLIST
  2
AcDbFieldList
  3
ObjectDBX Classes
 90
     1152
280
     0
281
     0
  0
CLASS
  1
EXACTERMXREFMAP
  2
ExAcTermXrefMap
  3
EXAC_SERVICE
 90
    33793
280
     0
281
     0
  0
CLASS
  1
NPOCOLLECTION
  2
AcDbImpNonPersistentObjectsCollection
  3
ObjectDBX Classes
 90
    33921
280
     0
281
     0
  0
CLASS
  1
EXACXREFPANELOBJECT
  2
ExAcXREFPanelObject
  3
EXAC_ESW
 90
    33793
280
     0
281
     0
  0
CLASS
  1
ACAD_EVALUATION_GRAPH
  2
AcDbEvalGraph
  3
ObjectDBX Classes
 90
    33921
280
     0
281
     0
  0
CLASS
  1
BLOCKBASEPOINTPARAMETER
  2
AcDbBlockBasepointParameter
  3
ObjectDBX Classes
 90
    33921
280
     0
281
     0
  0
CLASS
  1
BLOCKVISIBILITYPARAMETER
  2
AcDbBlockVisibilityParameter
  3
ObjectDBX Classes
 90
    33921
280
     0
281
     0
  0
CLASS
  1
BLOCKVISIBILITYGRIP
  2
AcDbBlockVisibilityGrip
  3
ObjectDBX Classes
 90
    33921
280
     0
281
     0
  0
CLASS
  1
BLOCKGRIPLOCATIONCOMPONENT
  2
AcDbBlockGripExpr
  3
ObjectDBX Classes
 90
    33921
280
     0
281
     0
  0
CLASS
  1
ACDB_DYNAMICBLOCKPURGEPREVENTER_VERSION
  2
AcDbDynamicBlockPurgePreventer
  3
ObjectDBX Classes
 90
    33921
280
     0
281
     0
  0
CLASS
  1
ACAECUSTOBJ
  2
AcAeEditorObj
  3
AcAeEditorObj
 90
    33792
280
     0
281
     0
  0
CLASS
  1
BASEPOINTPARAMETERENTITY
  2
AcDbBlockBasepointParameterEntity
  3
ObjectDBX Classes
 90
    33793
280
     0
281
     1
  0
CLASS
  1
ACAEEEMGROBJ
  2
AcAeEEMgrObj
  3
AcAeEEMgrObj
 90
    33792
280
     0
281
     0
  0
CLASS
  1
VISIBILITYPARAMETERENTITY
  2
AcDbBlockVisibilityParameterEntity
  3
ObjectDBX Classes
 90
    33793
280
     0
281
     1
  0
CLASS
  1
VISIBILITYGRIPENTITY
  2
AcDbBlockVisibilityGripEntity
  3
ObjectDBX Classes
 90
    33793
280
     0
281
     1
  0
CLASS
  1
ACDB_BLOCKREPRESENTATION_DATA
  2
AcDbBlockRepresentationData
  3
ObjectDBX Classes
 90
    33921
280
     0
281
     0
  0
CLASS
  1
BLOCKLINEARPARAMETER
  2
AcDbBlockLinearParameter
  3
ObjectDBX Classes
 90
    33921
280
     0
281
     0
  0
CLASS
  1
BLOCKLINEARGRIP
  2
AcDbBlockLinearGrip
  3
ObjectDBX Classes
 90
    33921
280
     0
281
     0
  0
CLASS
  1
BLOCKSTRETCHACTION
  2
AcDbBlockStretchAction
  3
ObjectDBX Classes
 90
    33921
280
     0
281
     0
  0
CLASS
  1
DBCOLOR
  2
AcDbColor
  3
ObjectDBX Classes
 90
        0
280
     0
281
     0
  0
CLASS
  1
BLOCKROTATIONPARAMETER
  2
AcDbBlockRotationParameter
  3
ObjectDBX Classes
 90
    33921
280
     0
281
     0
  0
CLASS
  1
BLOCKROTATIONGRIP
  2
AcDbBlockRotationGrip
  3
ObjectDBX Classes
 90
    33921
280
     0
281
     0
  0
CLASS
  1
BLOCKMOVEACTION
  2
AcDbBlockMoveAction
  3
ObjectDBX Classes
 90
    33921
280
     0
281
     0
  0
CLASS
  1
BLOCKARRAYACTION
  2
AcDbBlockArrayAction
  3
ObjectDBX Classes
 90
    33921
280
     0
281
     0
  0
CLASS
  1
BLOCKROTATEACTION
  2
AcDbBlockRotateAction
  3
ObjectDBX Classes
 90
    33921
280
     0
281
     0
  0
CLASS
  1
ACAD_TABLE
  2
AcDbTable
  3
ObjectDBX Classes
 90
    33793
280
     0
281
     1
  0
CLASS
  1
BLOCKSCALEACTION
  2
AcDbBlockScaleAction
  3
ObjectDBX Classes
 90
    33921
280
     0
281
     0
  0
CLASS
  1
SCALE
  2
AcDbScale
  3
ObjectDBX Classes
 90
     1153
280
     0
281
     0
  0
CLASS
  1
MLEADERSTYLE
  2
AcDbMLeaderStyle
  3
ACDB_MLEADERSTYLE_CLASS
 90
     4095
280
     0
281
     0
  0
CLASS
  1
CELLSTYLEMAP
  2
AcDbCellStyleMap
  3
ObjectDBX Classes
 90
     1152
280
     0
281
     0
  0
CLASS
  1
AEC_REFEDIT_STATUS_TRACKER
  2
AecDbRefEditStatusTracker
  3
AecArchBase60|Product Desc: Autodesk Architectural Desktop 2007 |Company: Autodesk,Inc. |WEB Address: www.autodesk.com
 90
    32897
280
     0
281
     0
  0
ENDSEC
  0
SECTION
  2
TABLES
  0
TABLE
  2
VPORT
  5
1A
102
{ACAD_XDICTIONARY
360
139C
102
}
330
0
100
AcDbSymbolTable
 70
     1
  0
VPORT
  5
882
330
1A
100
AcDbSymbolTableRecord
100
AcDbViewportTableRecord
  2
*Active
 70
     0
 10
0.0
 20
0.0
 11
1.0
 21
1.0
 12
5.985351590422624
 22
4.188606282799279
 13
0.0
 23
0.0
 14
0.5
 24
0.5
 15
0.5
 25
0.5
 16
0.0
 26
0.0
 36
1.0
 17
0.0
 27
0.0
 37
0.0
 40
2.660751335311831
 41
2.377604166666666
 42
50.0
 43
0.0
 44
0.0
 50
0.0
 51
0.0
 71
     0
 72
   100
 73
     1
 74
     1
 75
     0
 76
     0
 77
     0
 78
     2
281
     0
 65
     1
110
0.0
120
0.0
130
0.0
111
1.0
121
0.0
131
0.0
112
0.0
122
1.0
132
0.0
 79
     0
146
0.0
  0
ENDTAB
  0
TABLE
  2
LTYPE
  5
15
330
0
100
AcDbSymbolTable
 70
     1
  0
LTYPE
  5
16
330
15
100
AcDbSymbolTableRecord
100
AcDbLinetypeTableRecord
  2
BYBLOCK
 70
     0
  3

 72
    65
 73
     0
 40
0.0
  0
LTYPE
  5
17
330
15
100
AcDbSymbolTableRecord
100
AcDbLinetypeTableRecord
  2
BYLAYER
 70
     0
  3

 72
    65
 73
     0
 40
0.0
  0
LTYPE
  5
8
330
15
100
AcDbSymbolTableRecord
100
AcDbLinetypeTableRecord
  2
CONTINUOUS
 70
     0
  3
Solid line
 72
    65
 73
     0
 40
0.0
  0
ENDTAB
  0
TABLE
  2
LAYER
  5
11
102
{ACAD_XDICTIONARY
360
899
102
}
330
0
100
AcDbSymbolTable
 70
     6
  0
LAYER
  5
4
102
{ACAD_XDICTIONARY
360
3F8AB
102
}
330
11
100
AcDbSymbolTableRecord
100
AcDbLayerTableRecord
  2
0
 70
     0
 62
     7
  6
CONTINUOUS
370
    -3
390
5
1001
RAK
1000
{ACET-LAYISO
1070
     0
1070
     7
1000
CONTINUOUS
1071
       -3
1071
        1
1005
5
1000
ACET-LAYISO}
  0
LAYER
  5
1A61
102
{ACAD_XDICTIONARY
360
1A62
102
}
330
11
100
AcDbSymbolTableRecord
100
AcDbLayerTableRecord
  2
DIM
 70
     0
 62
     1
  6
CONTINUOUS
370
    -3
390
5
  0
LAYER
  5
1A6D
102
{ACAD_XDICTIONARY
360
1A6E
102
}
330
11
100
AcDbSymbolTableRecord
100
AcDbLayerTableRecord
  2
IMAGE
 70
     0
 62
     5
  6
CONTINUOUS
370
    -3
390
5
  0
LAYER
  5
1A70
102
{ACAD_XDICTIONARY
360
1A71
102
}
330
11
100
AcDbSymbolTableRecord
100
AcDbLayerTableRecord
  2
WALL
 70
     0
 62
     6
  6
CONTINUOUS
370
    -3
390
5
  0
LAYER
  5
1A79
102
{ACAD_XDICTIONARY
360
1A7A
102
}
330
11
100
AcDbSymbolTableRecord
100
AcDbLayerTableRecord
  2
HATCH
 70
     0
 62
     2
  6
CONTINUOUS
370
    -3
390
5
  0
LAYER
  5
1A7F
102
{ACAD_XDICTIONARY
360
1A80
102
}
330
11
100
AcDbSymbolTableRecord
100
AcDbLayerTableRecord
  2
DETAIL
 70
     0
 62
     1
  6
CONTINUOUS
370
    -3
390
5
  0
ENDTAB
  0
TABLE
  2
STYLE
  5
12
330
0
100
AcDbSymbolTable
 70
     2
  0
STYLE
  5
13
330
12
100
AcDbSymbolTableRecord
100
AcDbTextStyleTableRecord
  2
STANDARD
 70
     0
 40
0.0
 41
1.0
 50
0.0
 71
     0
 42
0.2
  3
txt
  4

  0
STYLE
  5
20
330
12
100
AcDbSymbolTableRecord
100
AcDbTextStyleTableRecord
  2
STD
 70
     0
 40
0.0
 41
1.0
 50
0.0
 71
     0
 42
0.125
  3
arial_0.ttf
  4

1001
ACAD
1000
Arial
1071
       34
  0
ENDTAB
  0
TABLE
  2
VIEW
  5
18
330
0
100
AcDbSymbolTable
 70
     0
  0
ENDTAB
  0
TABLE
  2
UCS
  5
19
330
0
100
AcDbSymbolTable
 70
     0
  0
ENDTAB
  0
TABLE
  2
APPID
  5
1C
330
0
100
AcDbSymbolTable
 70
    37
  0
APPID
  5
1D
330
1C
100
AcDbSymbolTableRecord
100
AcDbRegAppTableRecord
  2
ACAD
 70
     0
  0
APPID
  5
9
330
1C
100
AcDbSymbolTableRecord
100
AcDbRegAppTableRecord
  2
RAK
 70
     0
  0
APPID
  5
3A
330
1C
100
AcDbSymbolTableRecord
100
AcDbRegAppTableRecord
  2
DCO15
 70
     0
  0
APPID
  5
126
330
1C
100
AcDbSymbolTableRecord
100
AcDbRegAppTableRecord
  2
ABNSLEADERTOOLS
 70
     0
  0
APPID
  5
895
330
1C
100
AcDbSymbolTableRecord
100
AcDbRegAppTableRecord
  2
ACAD_PSEXT
 70
     0
  0
APPID
  5
A2A
330
1C
100
AcDbSymbolTableRecord
100
AcDbRegAppTableRecord
  2
ACAD_DSTYLE_DIMTEXT_FILL
 70
     0
  0
APPID
  5
10A5
330
1C
100
AcDbSymbolTableRecord
100
AcDbRegAppTableRecord
  2
AcAecLayerStandard
 70
     0
  0
APPID
  5
198C
330
1C
100
AcDbSymbolTableRecord
100
AcDbRegAppTableRecord
  2
AcDbBlockRepETag
 70
     0
  0
APPID
  5
198D
330
1C
100
AcDbSymbolTableRecord
100
AcDbRegAppTableRecord
  2
AcLayerTools
 70
     0
  0
APPID
  5
1A37
330
1C
100
AcDbSymbolTableRecord
100
AcDbRegAppTableRecord
  2
ACAD_DSTYLE_DIMJAG
 70
     0
  0
APPID
  5
1A38
330
1C
100
AcDbSymbolTableRecord
100
AcDbRegAppTableRecord
  2
ACAD_DSTYLE_DIMBREAK
 70
     0
  0
APPID
  5
1A39
330
1C
100
AcDbSymbolTableRecord
100
AcDbRegAppTableRecord
  2
AcadAnnotative
 70
     0
  0
APPID
  5
1A3A
330
1C
100
AcDbSymbolTableRecord
100
AcDbRegAppTableRecord
  2
ACAD_DSTYLE_DIMTALN
 70
     0
  0
APPID
  5
1A3B
330
1C
100
AcDbSymbolTableRecord
100
AcDbRegAppTableRecord
  2
AcadAnnoAV
 70
     0
  0
APPID
  5
1D4C
330
1C
100
AcDbSymbolTableRecord
100
AcDbRegAppTableRecord
  2
ACAD_MLEADERVER
 70
     0
  0
APPID
  5
1D4D
330
1C
100
AcDbSymbolTableRecord
100
AcDbRegAppTableRecord
  2
AcadAnnoPO
 70
     0
  0
APPID
  5
1D4E
330
1C
100
AcDbSymbolTableRecord
100
AcDbRegAppTableRecord
  2
ACAD_DSTYLE_DIMRADIAL_EXTENSION
 70
     0
  0
APPID
  5
8637
330
1C
100
AcDbSymbolTableRecord
100
AcDbRegAppTableRecord
  2
AcDbDynamicBlockTrueName
 70
     0
  0
APPID
  5
8638
330
1C
100
AcDbSymbolTableRecord
100
AcDbRegAppTableRecord
  2
AcDbDynamicBlockGUID
 70
     0
  0
APPID
  5
EECA
330
1C
100
AcDbSymbolTableRecord
100
AcDbRegAppTableRecord
  2
ACAUTHENVIRON
 70
     0
  0
APPID
  5
EED2
330
1C
100
AcDbSymbolTableRecord
100
AcDbRegAppTableRecord
  2
AcDbBlockRepBTag
 70
     0
  0
APPID
  5
30413
330
1C
100
AcDbSymbolTableRecord
100
AcDbRegAppTableRecord
  2
ACAD_EXEMPT_FROM_CAD_STANDARDS
 70
     0
  0
APPID
  5
3A70F
330
1C
100
AcDbSymbolTableRecord
100
AcDbRegAppTableRecord
  2
AcDbBlockArrayActionTag
 70
     0
  0
APPID
  5
3E311
330
1C
100
AcDbSymbolTableRecord
100
AcDbRegAppTableRecord
  2
ACATTRIBSERVICES
 70
     0
  0
APPID
  5
3E312
330
1C
100
AcDbSymbolTableRecord
100
AcDbRegAppTableRecord
  2
MCAD_NO_VIS
 70
     0
  0
APPID
  5
3E313
330
1C
100
AcDbSymbolTableRecord
100
AcDbRegAppTableRecord
  2
ACAD_TEMP_GRAPHIC
 70
     0
  0
APPID
  5
3E314
330
1C
100
AcDbSymbolTableRecord
100
AcDbRegAppTableRecord
  2
AD_DRAW
 70
     0
  0
APPID
  5
3E315
330
1C
100
AcDbSymbolTableRecord
100
AcDbRegAppTableRecord
  2
DESIGNERASSEMBLIES
 70
     0
  0
APPID
  5
3E316
330
1C
100
AcDbSymbolTableRecord
100
AcDbRegAppTableRecord
  2
ACADM_DIM_EDIT
 70
     0
  0
APPID
  5
3E317
330
1C
100
AcDbSymbolTableRecord
100
AcDbRegAppTableRecord
  2
AMDT_DM_ADJ
 70
     0
  0
APPID
  5
3E318
330
1C
100
AcDbSymbolTableRecord
100
AcDbRegAppTableRecord
  2
ACAD_DSTYLE_DIMARC_LENGTH_SYMBOL
 70
     0
  0
APPID
  5
3E319
330
1C
100
AcDbSymbolTableRecord
100
AcDbRegAppTableRecord
  2
ACAD_DSTYLE_DIM_LINETYPE
 70
     0
  0
APPID
  5
3E31A
330
1C
100
AcDbSymbolTableRecord
100
AcDbRegAppTableRecord
  2
ACAD_DSTYLE_DIM_EXT1_LINETYPE
 70
     0
  0
APPID
  5
3E31B
330
1C
100
AcDbSymbolTableRecord
100
AcDbRegAppTableRecord
  2
ACAD_DSTYLE_DIM_EXT2_LINETYPE
 70
     0
  0
APPID
  5
3E31C
330
1C
100
AcDbSymbolTableRecord
100
AcDbRegAppTableRecord
  2
GradientColor1ACI
 70
     0
  0
APPID
  5
3E31D
330
1C
100
AcDbSymbolTableRecord
100
AcDbRegAppTableRecord
  2
GradientColor2ACI
 70
     0
  0
APPID
  5
3E31E
330
1C
100
AcDbSymbolTableRecord
100
AcDbRegAppTableRecord
  2
ACAD_NAV_VCDISPLAY
 70
     0
  0
ENDTAB
  0
TABLE
  2
DIMSTYLE
  5
1E
330
0
100
AcDbSymbolTable
 70
     1
100
AcDbDimStyleTable
 71
     1
340
29264
  0
DIMSTYLE
105
29264
330
1E
100
AcDbSymbolTableRecord
100
AcDbDimStyleTableRecord
  2
F-DIM@5
 70
     0
  4
"
 40
0.5
 41
0.125
 42
0.07
 43
0.25
 44
0.14
 78
     3
140
0.125
141
0.0
143
1.0
171
     3
176
     2
177
     3
178
   256
271
     6
272
     6
274
     3
276
     2
277
     5
340
20
1001
ACAD_DSTYLE_DIMJAG
1070
   388
1040
1.5
1001
ACAD_DSTYLE_DIMTALN
1070
   392
1070
     0
1001
ACAD_DSTYLE_DIMARC_LENGTH_SYMBOL
1070
   379
1070
     1
  0
ENDTAB
  0
TABLE
  2
BLOCK_RECORD
  5
1
330
0
100
AcDbSymbolTable
 70
     0
  0
BLOCK_RECORD
  5
2
102
{ACAD_XDICTIONARY
360
2FE15
102
}
330
1
100
AcDbSymbolTableRecord
100
AcDbBlockTableRecord
  2
*MODEL_SPACE
340
B
  0
BLOCK_RECORD
  5
D
102
{ACAD_XDICTIONARY
360
1D72
102
}
330
1
100
AcDbSymbolTableRecord
100
AcDbBlockTableRecord
  2
*PAPER_SPACE
340
10
  0
ENDTAB
  0
ENDSEC
  0
SECTION
  2
BLOCKS
  0
BLOCK
  5
3
330
2
100
AcDbEntity
  8
0
100
AcDbBlockBegin
  2
*MODEL_SPACE
 70
     0
 10
0.0
 20
0.0
 30
0.0
  3
*MODEL_SPACE
  1

  0
ENDBLK
  5
A
330
2
100
AcDbEntity
  8
0
100
AcDbBlockEnd
  0
BLOCK
  5
E
330
D
100
AcDbEntity
 67
     1
  8
0
100
AcDbBlockBegin
  2
*PAPER_SPACE
 70
     0
 10
0.0
 20
0.0
 30
0.0
  3
*PAPER_SPACE
  1

  0
ENDBLK
  5
F
330
D
100
AcDbEntity
 67
     1
  8
0
100
AcDbBlockEnd
  0
ENDSEC
  0
SECTION
  2
ENTITIES
  0
HATCH
  5
3E184
330
2
100
AcDbEntity
  8
HATCH
100
AcDbHatch
 10
0.0
 20
0.0
 30
0.0
210
0.0
220
0.0
230
1.0
  2
SOLID
 70
     1
 71
     0
 91
        1
 92
        7
 72
     0
 73
     1
 93
       12
 10
5.314631800942264
 20
4.810464789460239
 10
5.354631800942271
 20
4.810464789460239
 10
5.354631800942271
 20
4.998464789460237
 10
5.229631800942271
 20
4.998464789460237
 10
5.229631800942271
 20
4.810464789460237
 10
5.269631800942264
 20
4.810464789460239
 10
5.269631800942264
 20
3.548464789460239
 10
4.823331800942269
 20
3.548464789460239
 10
4.823331800942269
 20
3.498464789460238
 10
5.760931800942271
 20
3.498464789460238
 10
5.760931800942271
 20
3.548464789460239
 10
5.314631800942251
 20
3.548464789460239
 97
        0
 75
     0
 76
     1
 47
0.0038747153754072
 98
        1
 10
5.293350847157184
 20
4.492108605694773
1001
ACAD
1010
0.0
1020
0.0
1030
0.0
  0
HATCH
  5
3E18B
330
2
100
AcDbEntity
  8
HATCH
100
AcDbHatch
 10
0.0
 20
0.0
 30
0.0
210
0.0
220
0.0
230
1.0
  2
SOLID
 70
     1
 71
     0
 91
        1
 92
        7
 72
     0
 73
     1
 93
        6
 10
7.18813395751448
 20
4.430964789460237
 10
7.133133957514487
 20
4.430964789460237
 10
7.133133957514487
 20
3.548464789460243
 10
6.250633957514494
 20
3.548464789460239
 10
6.25063395751448
 20
3.493464789460232
 10
7.18813395751448
 20
3.493464789460232
 97
        0
 75
     0
 76
     1
 47
0.0026394515874817
 98
        1
 10
6.850798874037494
 20
3.522635369671629
1001
ACAD
1010
0.0
1020
0.0
1030
0.0
  0
LINE
  5
3E19F
330
2
100
AcDbEntity
  8
WALL
 62
     5
100
AcDbLine
 10
7.18813395751448
 20
2.869209071129414
 30
0.0
 11
7.18813395751448
 21
5.508239372410193
 31
0.0
  0
LINE
  5
3E1A1
330
2
100
AcDbEntity
  8
WALL
 62
     5
100
AcDbLine
 10
7.68813395751448
 20
2.869209071129418
 30
0.0
 11
7.68813395751448
 21
5.508239372410193
 31
0.0
  0
LINE
  5
3E1A2
330
2
100
AcDbEntity
  8
WALL
 62
     5
100
AcDbLine
 10
5.046481800942273
 20
3.548464789460239
 30
0.0
 11
5.046481800942273
 21
4.04846478946024
 31
0.0
  0
LINE
  5
3E1A3
330
2
100
AcDbEntity
  8
WALL
 62
     5
100
AcDbLine
 10
5.046481800942273
 20
4.04846478946024
 30
0.0
 11
3.782014315774872
 21
4.04846478946024
 31
0.0
  0
LINE
  5
3E1A4
330
2
100
AcDbEntity
  8
WALL
 62
     5
100
AcDbLine
 10
4.823331800942269
 20
3.548464789460239
 30
0.0
 11
3.782014315774872
 21
3.548464789460239
 31
0.0
  0
LINE
  5
3E25A
330
2
100
AcDbEntity
  8
DETAIL
100
AcDbLine
 10
7.395749292920696
 20
3.968308539460234
 30
0.0
 11
7.449976143580791
 21
3.968308539460234
 31
0.0
1001
AcDbBlockRepETag
1070
     1
1071
       35
1005
3E25A
  0
LINE
  5
3E25B
330
2
100
AcDbEntity
  8
DETAIL
100
AcDbLine
 10
7.708249292920696
 20
3.968308539460234
 30
0.0
 11
7.762821457514462
 21
3.968308539460234
 31
0.0
1001
AcDbBlockRepETag
1070
     1
1071
       38
1005
3E25B
  0
LINE
  5
3E25C
330
2
100
AcDbEntity
  8
DETAIL
100
AcDbLine
 10
7.242963643580822
 20
4.050321039460254
 30
0.0
 11
7.251236792920678
 21
4.050321039460254
 31
0.0
1001
AcDbBlockRepETag
1070
     1
1071
       11
1005
3E25C
  0
LINE
  5
3E25D
330
2
100
AcDbEntity
  8
DETAIL
100
AcDbLine
 10
7.324976143580783
 20
3.968308539460234
 30
0.0
 11
7.243542113110231
 21
3.968308539460234
 31
0.0
1001
AcDbBlockRepETag
1070
     1
1071
       40
1005
3E25D
  0
LINE
  5
3E25E
330
2
100
AcDbEntity
  8
DETAIL
100
AcDbLine
 10
7.083133957514518
 20
3.886277289460234
 30
0.0
 11
7.083133957514518
 21
4.120652289460234
 31
0.0
1001
AcDbBlockRepETag
1070
     1
1071
       41
1005
3E25E
  0
ARC
  5
3E25F
330
2
100
AcDbEntity
  8
DETAIL
100
AcDbCircle
 10
7.253932971801281
 20
4.256790696228571
 30
0.0
 40
0.2184169615179908
100
AcDbArc
 50
218.5572234717034
 51
270.2559747343546
1001
AcDbBlockRepETag
1070
     1
1071
       42
1005
3E25F
  0
LINE
  5
3E260
330
2
100
AcDbEntity
  8
DETAIL
100
AcDbLine
 10
7.26318191793092
 20
4.038375914450011
 30
0.0
 11
7.317408768591056
 21
4.038375914450011
 31
0.0
1001
AcDbBlockRepETag
1070
     1
1071
       22
1005
3E260
  0
LINE
  5
3E261
330
2
100
AcDbEntity
  8
DETAIL
100
AcDbLine
 10
7.32568191793092
 20
4.038375914450011
 30
0.0
 11
7.379908768591056
 21
4.038375914450011
 31
0.0
1001
AcDbBlockRepETag
1070
     1
1071
       36
1005
3E261
  0
LINE
  5
3E262
330
2
100
AcDbEntity
  8
DETAIL
100
AcDbLine
 10
7.63818191793092
 20
4.038375914450011
 30
0.0
 11
7.692408768591056
 21
4.038375914450011
 31
0.0
1001
AcDbBlockRepETag
1070
     1
1071
       37
1005
3E262
  0
LINE
  5
3E263
330
2
100
AcDbEntity
  8
DETAIL
100
AcDbLine
 10
7.70068191793092
 20
4.038375914450011
 30
0.0
 11
7.754908768591063
 21
4.038375914450011
 31
0.0
1001
AcDbBlockRepETag
1070
     1
1071
       39
1005
3E263
  0
LINE
  5
3E264
330
2
100
AcDbEntity
  8
DETAIL
100
AcDbLine
 10
7.407449292920715
 20
3.956608539460216
 30
0.0
 11
7.313736792920678
 21
4.050321039460254
 31
0.0
1001
AcDbBlockRepETag
1070
     1
1071
       23
1005
3E264
  0
LINE
  5
3E265
330
2
100
AcDbEntity
  8
DETAIL
100
AcDbLine
 10
7.399176143580803
 20
3.956608539460216
 30
0.0
 11
7.305463643580822
 21
4.050321039460254
 31
0.0
1001
AcDbBlockRepETag
1070
     1
1071
       24
1005
3E265
  0
LINE
  5
3E266
330
2
100
AcDbEntity
  8
DETAIL
100
AcDbLine
 10
7.399176143580803
 20
3.956608539460216
 30
0.0
 11
7.407449292920715
 21
3.956608539460216
 31
0.0
1001
AcDbBlockRepETag
1070
     1
1071
       25
1005
3E266
  0
LINE
  5
3E267
330
2
100
AcDbEntity
  8
DETAIL
100
AcDbLine
 10
7.305463643580822
 20
4.050321039460254
 30
0.0
 11
7.313736792920678
 21
4.050321039460254
 31
0.0
1001
AcDbBlockRepETag
1070
     1
1071
       26
1005
3E267
  0
LINE
  5
3E268
330
2
100
AcDbEntity
  8
DETAIL
100
AcDbLine
 10
7.719949292920715
 20
3.956608539460216
 30
0.0
 11
7.626236792920678
 21
4.050321039460254
 31
0.0
1001
AcDbBlockRepETag
1070
     1
1071
       27
1005
3E268
  0
LINE
  5
3E269
330
2
100
AcDbEntity
  8
DETAIL
100
AcDbLine
 10
7.711676143580803
 20
3.956608539460216
 30
0.0
 11
7.617963643580822
 21
4.050321039460254
 31
0.0
1001
AcDbBlockRepETag
1070
     1
1071
       28
1005
3E269
  0
LINE
  5
3E26A
330
2
100
AcDbEntity
  8
DETAIL
100
AcDbLine
 10
7.711676143580803
 20
3.956608539460216
 30
0.0
 11
7.719949292920715
 21
3.956608539460216
 31
0.0
1001
AcDbBlockRepETag
1070
     1
1071
       29
1005
3E26A
  0
LINE
  5
3E26B
330
2
100
AcDbEntity
  8
DETAIL
100
AcDbLine
 10
7.617963643580822
 20
4.050321039460254
 30
0.0
 11
7.626236792920678
 21
4.050321039460254
 31
0.0
1001
AcDbBlockRepETag
1070
     1
1071
       30
1005
3E26B
  0
LINE
  5
3E26C
330
2
100
AcDbEntity
  8
DETAIL
100
AcDbLine
 10
7.782449292920715
 20
3.956608539460216
 30
0.0
 11
7.688736792920678
 21
4.050321039460254
 31
0.0
1001
AcDbBlockRepETag
1070
     1
1071
       31
1005
3E26C
  0
LINE
  5
3E26D
330
2
100
AcDbEntity
  8
DETAIL
100
AcDbLine
 10
7.774176143580803
 20
3.956608539460216
 30
0.0
 11
7.680463643580822
 21
4.050321039460254
 31
0.0
1001
AcDbBlockRepETag
1070
     1
1071
       32
1005
3E26D
  0
LINE
  5
3E26E
330
2
100
AcDbEntity
  8
DETAIL
100
AcDbLine
 10
7.774176143580803
 20
3.956608539460216
 30
0.0
 11
7.782449292920715
 21
3.956608539460216
 31
0.0
1001
AcDbBlockRepETag
1070
     1
1071
       33
1005
3E26E
  0
LINE
  5
3E26F
330
2
100
AcDbEntity
  8
DETAIL
100
AcDbLine
 10
7.680463643580822
 20
4.050321039460254
 30
0.0
 11
7.688736792920678
 21
4.050321039460254
 31
0.0
1001
AcDbBlockRepETag
1070
     1
1071
       34
1005
3E26F
  0
ARC
  5
3E270
330
2
100
AcDbEntity
  8
DETAIL
100
AcDbCircle
 10
7.253932971801281
 20
3.750138882691897
 30
0.0
 40
0.2184169615179908
100
AcDbArc
 50
92.72678982455664
 51
141.4427765282965
1001
AcDbBlockRepETag
1070
     1
1071
       43
1005
3E270
  0
LINE
  5
3E271
330
2
100
AcDbEntity
  8
DETAIL
100
AcDbLine
 10
7.833133957514518
 20
4.003464789460234
 30
0.0
 11
7.762821457514518
 21
4.038621039460234
 31
0.0
1001
AcDbBlockRepETag
1070
     1
1071
        0
1005
3E271
  0
LINE
  5
3E272
330
2
100
AcDbEntity
  8
DETAIL
100
AcDbLine
 10
7.812978580004313
 20
3.980306103036763
 30
0.0
 11
7.742963643580822
 21
4.050321039460254
 31
0.0
1001
AcDbBlockRepETag
1070
     1
1071
        1
1005
3E272
  0
LINE
  5
3E273
330
2
100
AcDbEntity
  8
DETAIL
100
AcDbLine
 10
7.818494012897588
 20
3.983063819483343
 30
0.0
 11
7.751236792920734
 21
4.050321039460254
 31
0.0
1001
AcDbBlockRepETag
1070
     1
1071
        2
1005
3E273
  0
LINE
  5
3E274
330
2
100
AcDbEntity
  8
DETAIL
100
AcDbLine
 10
7.768106681118617
 20
3.970951151262313
 30
0.0
 11
7.804257914892047
 21
3.989026768149026
 31
0.0
1001
AcDbBlockRepETag
1070
     1
1071
        3
1005
3E274
  0
LINE
  5
3E275
330
2
100
AcDbEntity
  8
DETAIL
100
AcDbLine
 10
7.809773347785323
 20
3.991784484595608
 30
0.0
 11
7.833133957514518
 21
4.003464789460234
 31
0.0
1001
AcDbBlockRepETag
1070
     1
1071
        4
1005
3E275
  0
LINE
  5
3E276
330
2
100
AcDbEntity
  8
DETAIL
100
AcDbLine
 10
7.812978580004313
 20
3.980306103036763
 30
0.0
 11
7.818494012897588
 21
3.983063819483343
 31
0.0
1001
AcDbBlockRepETag
1070
     1
1071
        5
1005
3E276
  0
LINE
  5
3E277
330
2
100
AcDbEntity
  8
DETAIL
100
AcDbLine
 10
7.742963643580822
 20
4.050321039460254
 30
0.0
 11
7.751236792920734
 21
4.050321039460254
 31
0.0
1001
AcDbBlockRepETag
1070
     1
1071
        6
1005
3E277
  0
LINE
  5
3E278
330
2
100
AcDbEntity
  8
DETAIL
100
AcDbLine
 10
7.344949292920715
 20
3.956608539460216
 30
0.0
 11
7.251236792920678
 21
4.050321039460254
 31
0.0
1001
AcDbBlockRepETag
1070
     1
1071
        7
1005
3E278
  0
LINE
  5
3E279
330
2
100
AcDbEntity
  8
DETAIL
100
AcDbLine
 10
7.336676143580803
 20
3.956608539460216
 30
0.0
 11
7.242963643580822
 21
4.050321039460254
 31
0.0
1001
AcDbBlockRepETag
1070
     1
1071
        8
1005
3E279
  0
LINE
  5
3E27A
330
2
100
AcDbEntity
  8
DETAIL
100
AcDbLine
 10
7.336676143580803
 20
3.956608539460216
 30
0.0
 11
7.344949292920715
 21
3.956608539460216
 31
0.0
1001
AcDbBlockRepETag
1070
     1
1071
        9
1005
3E27A
  0
LINE
  5
3E27B
330
2
100
AcDbEntity
  8
DETAIL
100
AcDbLine
 10
7.333249292920696
 20
3.968308539460234
 30
0.0
 11
7.387476143580791
 21
3.968308539460234
 31
0.0
1001
AcDbBlockRepETag
1070
     1
1071
       10
1005
3E27B
  0
LINE
  5
3E27C
330
2
100
AcDbEntity
  8
DETAIL
100
AcDbLine
 10
7.458249292920696
 20
3.968308539460234
 30
0.0
 11
7.512476143580791
 21
3.968308539460234
 31
0.0
1001
AcDbBlockRepETag
1070
     1
1071
       35
1005
3E27C
1001
AcDbBlockArrayActionTag
1070
     1
  0
LINE
  5
3E27D
330
2
100
AcDbEntity
  8
DETAIL
100
AcDbLine
 10
7.38818191793092
 20
4.038375914450011
 30
0.0
 11
7.442408768591056
 21
4.038375914450011
 31
0.0
1001
AcDbBlockRepETag
1070
     1
1071
       36
1005
3E27D
1001
AcDbBlockArrayActionTag
1070
     1
  0
LINE
  5
3E27E
330
2
100
AcDbEntity
  8
DETAIL
100
AcDbLine
 10
7.469949292920715
 20
3.956608539460216
 30
0.0
 11
7.376236792920678
 21
4.050321039460254
 31
0.0
1001
AcDbBlockRepETag
1070
     1
1071
       23
1005
3E27E
1001
AcDbBlockArrayActionTag
1070
     1
  0
LINE
  5
3E27F
330
2
100
AcDbEntity
  8
DETAIL
100
AcDbLine
 10
7.461676143580803
 20
3.956608539460216
 30
0.0
 11
7.367963643580822
 21
4.050321039460254
 31
0.0
1001
AcDbBlockRepETag
1070
     1
1071
       24
1005
3E27F
1001
AcDbBlockArrayActionTag
1070
     1
  0
LINE
  5
3E280
330
2
100
AcDbEntity
  8
DETAIL
100
AcDbLine
 10
7.461676143580803
 20
3.956608539460216
 30
0.0
 11
7.469949292920715
 21
3.956608539460216
 31
0.0
1001
AcDbBlockRepETag
1070
     1
1071
       25
1005
3E280
1001
AcDbBlockArrayActionTag
1070
     1
  0
LINE
  5
3E281
330
2
100
AcDbEntity
  8
DETAIL
100
AcDbLine
 10
7.367963643580822
 20
4.050321039460254
 30
0.0
 11
7.376236792920678
 21
4.050321039460254
 31
0.0
1001
AcDbBlockRepETag
1070
     1
1071
       26
1005
3E281
1001
AcDbBlockArrayActionTag
1070
     1
  0
LINE
  5
3E282
330
2
100
AcDbEntity
  8
DETAIL
100
AcDbLine
 10
7.520749292920696
 20
3.968308539460234
 30
0.0
 11
7.574976143580791
 21
3.968308539460234
 31
0.0
1001
AcDbBlockRepETag
1070
     1
1071
       35
1005
3E282
1001
AcDbBlockArrayActionTag
1070
     1
  0
LINE
  5
3E283
330
2
100
AcDbEntity
  8
DETAIL
100
AcDbLine
 10
7.45068191793092
 20
4.038375914450011
 30
0.0
 11
7.504908768591056
 21
4.038375914450011
 31
0.0
1001
AcDbBlockRepETag
1070
     1
1071
       36
1005
3E283
1001
AcDbBlockArrayActionTag
1070
     1
  0
LINE
  5
3E284
330
2
100
AcDbEntity
  8
DETAIL
100
AcDbLine
 10
7.532449292920715
 20
3.956608539460216
 30
0.0
 11
7.438736792920678
 21
4.050321039460254
 31
0.0
1001
AcDbBlockRepETag
1070
     1
1071
       23
1005
3E284
1001
AcDbBlockArrayActionTag
1070
     1
  0
LINE
  5
3E285
330
2
100
AcDbEntity
  8
DETAIL
100
AcDbLine
 10
7.524176143580803
 20
3.956608539460216
 30
0.0
 11
7.430463643580822
 21
4.050321039460254
 31
0.0
1001
AcDbBlockRepETag
1070
     1
1071
       24
1005
3E285
1001
AcDbBlockArrayActionTag
1070
     1
  0
LINE
  5
3E286
330
2
100
AcDbEntity
  8
DETAIL
100
AcDbLine
 10
7.524176143580803
 20
3.956608539460216
 30
0.0
 11
7.532449292920715
 21
3.956608539460216
 31
0.0
1001
AcDbBlockRepETag
1070
     1
1071
       25
1005
3E286
1001
AcDbBlockArrayActionTag
1070
     1
  0
LINE
  5
3E287
330
2
100
AcDbEntity
  8
DETAIL
100
AcDbLine
 10
7.430463643580822
 20
4.050321039460254
 30
0.0
 11
7.438736792920678
 21
4.050321039460254
 31
0.0
1001
AcDbBlockRepETag
1070
     1
1071
       26
1005
3E287
1001
AcDbBlockArrayActionTag
1070
     1
  0
LINE
  5
3E288
330
2
100
AcDbEntity
  8
DETAIL
100
AcDbLine
 10
7.583249292920696
 20
3.968308539460234
 30
0.0
 11
7.637476143580791
 21
3.968308539460234
 31
0.0
1001
AcDbBlockRepETag
1070
     1
1071
       35
1005
3E288
1001
AcDbBlockArrayActionTag
1070
     1
  0
LINE
  5
3E289
330
2
100
AcDbEntity
  8
DETAIL
100
AcDbLine
 10
7.51318191793092
 20
4.038375914450011
 30
0.0
 11
7.567408768591056
 21
4.038375914450011
 31
0.0
1001
AcDbBlockRepETag
1070
     1
1071
       36
1005
3E289
1001
AcDbBlockArrayActionTag
1070
     1
  0
LINE
  5
3E28A
330
2
100
AcDbEntity
  8
DETAIL
100
AcDbLine
 10
7.594949292920715
 20
3.956608539460216
 30
0.0
 11
7.501236792920678
 21
4.050321039460254
 31
0.0
1001
AcDbBlockRepETag
1070
     1
1071
       23
1005
3E28A
1001
AcDbBlockArrayActionTag
1070
     1
  0
LINE
  5
3E28B
330
2
100
AcDbEntity
  8
DETAIL
100
AcDbLine
 10
7.586676143580803
 20
3.956608539460216
 30
0.0
 11
7.492963643580822
 21
4.050321039460254
 31
0.0
1001
AcDbBlockRepETag
1070
     1
1071
       24
1005
3E28B
1001
AcDbBlockArrayActionTag
1070
     1
  0
LINE
  5
3E28C
330
2
100
AcDbEntity
  8
DETAIL
100
AcDbLine
 10
7.586676143580803
 20
3.956608539460216
 30
0.0
 11
7.594949292920715
 21
3.956608539460216
 31
0.0
1001
AcDbBlockRepETag
1070
     1
1071
       25
1005
3E28C
1001
AcDbBlockArrayActionTag
1070
     1
  0
LINE
  5
3E28D
330
2
100
AcDbEntity
  8
DETAIL
100
AcDbLine
 10
7.492963643580822
 20
4.050321039460254
 30
0.0
 11
7.501236792920678
 21
4.050321039460254
 31
0.0
1001
AcDbBlockRepETag
1070
     1
1071
       26
1005
3E28D
1001
AcDbBlockArrayActionTag
1070
     1
  0
LINE
  5
3E28E
330
2
100
AcDbEntity
  8
DETAIL
100
AcDbLine
 10
7.645749292920696
 20
3.968308539460234
 30
0.0
 11
7.699976143580791
 21
3.968308539460234
 31
0.0
1001
AcDbBlockRepETag
1070
     1
1071
       35
1005
3E28E
1001
AcDbBlockArrayActionTag
1070
     1
  0
LINE
  5
3E28F
330
2
100
AcDbEntity
  8
DETAIL
100
AcDbLine
 10
7.57568191793092
 20
4.038375914450011
 30
0.0
 11
7.629908768591056
 21
4.038375914450011
 31
0.0
1001
AcDbBlockRepETag
1070
     1
1071
       36
1005
3E28F
1001
AcDbBlockArrayActionTag
1070
     1
  0
LINE
  5
3E290
330
2
100
AcDbEntity
  8
DETAIL
100
AcDbLine
 10
7.657449292920715
 20
3.956608539460216
 30
0.0
 11
7.563736792920678
 21
4.050321039460254
 31
0.0
1001
AcDbBlockRepETag
1070
     1
1071
       23
1005
3E290
1001
AcDbBlockArrayActionTag
1070
     1
  0
LINE
  5
3E291
330
2
100
AcDbEntity
  8
DETAIL
100
AcDbLine
 10
7.649176143580803
 20
3.956608539460216
 30
0.0
 11
7.555463643580822
 21
4.050321039460254
 31
0.0
1001
AcDbBlockRepETag
1070
     1
1071
       24
1005
3E291
1001
AcDbBlockArrayActionTag
1070
     1
  0
LINE
  5
3E292
330
2
100
AcDbEntity
  8
DETAIL
100
AcDbLine
 10
7.649176143580803
 20
3.956608539460216
 30
0.0
 11
7.657449292920715
 21
3.956608539460216
 31
0.0
1001
AcDbBlockRepETag
1070
     1
1071
       25
1005
3E292
1001
AcDbBlockArrayActionTag
1070
     1
  0
LINE
  5
3E293
330
2
100
AcDbEntity
  8
DETAIL
100
AcDbLine
 10
7.555463643580822
 20
4.050321039460254
 30
0.0
 11
7.563736792920678
 21
4.050321039460254
 31
0.0
1001
AcDbBlockRepETag
1070
     1
1071
       26
1005
3E293
1001
AcDbBlockArrayActionTag
1070
     1
  0
LINE
  5
3E294
330
2
100
AcDbEntity
  8
DETAIL
100
AcDbLine
 10
5.522916287002225
 20
4.241964789460237
 30
0.0
 11
5.666131800942267
 21
4.241964789460237
 31
0.0
  0
LINE
  5
3E295
330
2
100
AcDbEntity
  8
DETAIL
100
AcDbLine
 10
5.531532308489401
 20
4.116964789460239
 30
0.0
 11
5.522916287002225
 21
4.241964789460237
 31
0.0
  0
LINE
  5
3E296
330
2
100
AcDbEntity
  8
DETAIL
100
AcDbLine
 10
5.531532308489401
 20
4.116964789460237
 30
0.0
 11
5.517831472287467
 21
4.093964789460239
 31
0.0
  0
LINE
  5
3E297
330
2
100
AcDbEntity
  8
DETAIL
100
AcDbLine
 10
5.707631800942267
 20
4.179464789460237
 30
0.0
 11
5.537631800942267
 21
4.216205151619386
 31
0.0
  0
LINE
  5
3E298
330
2
100
AcDbEntity
  8
DETAIL
100
AcDbLine
 10
5.707631800942267
 20
4.179464789460237
 30
0.0
 11
5.537631800942267
 21
4.241964789460237
 31
0.0
  0
LINE
  5
3E299
330
2
100
AcDbEntity
  8
DETAIL
100
AcDbLine
 10
5.707631800942267
 20
4.179464789460237
 30
0.0
 11
5.666131800942267
 21
4.241964789460237
 31
0.0
  0
LINE
  5
3E29A
330
2
100
AcDbEntity
  8
DETAIL
100
AcDbLine
 10
5.707631800942267
 20
4.179464789460237
 30
0.0
 11
5.666131800942267
 21
4.116964789460237
 31
0.0
  0
LINE
  5
3E29B
330
2
100
AcDbEntity
  8
DETAIL
100
AcDbLine
 10
5.531532308489401
 20
4.116964789460237
 30
0.0
 11
5.666131800942267
 21
4.116964789460237
 31
0.0
  0
LINE
  5
3E29C
330
2
100
AcDbEntity
  8
DETAIL
100
AcDbLine
 10
5.666131800942264
 20
4.18843376022262
 30
0.0
 11
5.666131800942267
 21
4.116964789460237
 31
0.0
  0
LINE
  5
3E29D
330
2
100
AcDbEntity
  8
DETAIL
100
AcDbLine
 10
5.537631800942267
 20
4.216205151619386
 30
0.0
 11
5.537631800942268
 21
4.241964789460237
 31
0.0
  0
LINE
  5
3E29E
330
2
100
AcDbEntity
  8
DETAIL
100
AcDbLine
 10
5.165631800942263
 20
4.289464789460238
 30
0.0
 11
5.165631800942263
 21
4.069464789460241
 31
0.0
  0
LINE
  5
3E29F
330
2
100
AcDbEntity
  8
DETAIL
100
AcDbLine
 10
5.233131800942262
 20
4.330714789460238
 30
0.0
 11
5.233131800942262
 21
4.028214789460241
 31
0.0
  0
LINE
  5
3E2A0
330
2
100
AcDbEntity
  8
DETAIL
100
AcDbLine
 10
5.287955734731691
 20
4.116964789460241
 30
0.0
 11
5.279339713244517
 21
4.241964789460239
 31
0.0
  0
LINE
  5
3E2A1
330
2
100
AcDbEntity
  8
DETAIL
100
AcDbLine
 10
5.297979462046827
 20
4.116964789460241
 30
0.0
 11
5.28936344055965
 21
4.241964789460239
 31
0.0
  0
LINE
  5
3E2A2
330
2
100
AcDbEntity
  8
DETAIL
100
AcDbLine
 10
5.328551830357974
 20
4.116964789460239
 30
0.0
 11
5.319935808870799
 21
4.241964789460239
 31
0.0
  0
LINE
  5
3E2A3
330
2
100
AcDbEntity
  8
DETAIL
100
AcDbLine
 10
5.338575557673113
 20
4.116964789460239
 30
0.0
 11
5.329959536185936
 21
4.241964789460241
 31
0.0
  0
LINE
  5
3E2A4
330
2
100
AcDbEntity
  8
DETAIL
100
AcDbLine
 10
5.369147925984262
 20
4.116964789460239
 30
0.0
 11
5.360531904497086
 21
4.241964789460241
 31
0.0
  0
LINE
  5
3E2A5
330
2
100
AcDbEntity
  8
DETAIL
100
AcDbLine
 10
5.379171653299398
 20
4.116964789460239
 30
0.0
 11
5.370555631812223
 21
4.241964789460243
 31
0.0
  0
LINE
  5
3E2A6
330
2
100
AcDbEntity
  8
DETAIL
100
AcDbLine
 10
5.409744021610547
 20
4.116964789460239
 30
0.0
 11
5.401128000123373
 21
4.241964789460243
 31
0.0
  0
LINE
  5
3E2A7
330
2
100
AcDbEntity
  8
DETAIL
100
AcDbLine
 10
5.41976774892568
 20
4.116964789460239
 30
0.0
 11
5.411151727438507
 21
4.241964789460241
 31
0.0
  0
LINE
  5
3E2A8
330
2
100
AcDbEntity
  8
DETAIL
100
AcDbLine
 10
5.450340117236833
 20
4.116964789460239
 30
0.0
 11
5.441724095749656
 21
4.241964789460241
 31
0.0
  0
LINE
  5
3E2A9
330
2
100
AcDbEntity
  8
DETAIL
100
AcDbLine
 10
5.460363844551967
 20
4.116964789460239
 30
0.0
 11
5.451747823064792
 21
4.241964789460239
 31
0.0
  0
LINE
  5
3E2AA
330
2
100
AcDbEntity
  8
DETAIL
100
AcDbLine
 10
5.490936212863116
 20
4.116964789460239
 30
0.0
 11
5.482320191375941
 21
4.241964789460239
 31
0.0
  0
LINE
  5
3E2AB
330
2
100
AcDbEntity
  8
DETAIL
100
AcDbLine
 10
5.500959940178251
 20
4.116964789460239
 30
0.0
 11
5.492343918691076
 21
4.241964789460237
 31
0.0
  0
LINE
  5
3E2AC
330
2
100
AcDbEntity
  8
DETAIL
100
AcDbLine
 10
5.314850994156041
 20
4.093964789460237
 30
0.0
 11
5.303064276761585
 21
4.264964789460238
 31
0.0
  0
LINE
  5
3E2AD
330
2
100
AcDbEntity
  8
DETAIL
100
AcDbLine
 10
5.355447089782328
 20
4.093964789460239
 30
0.0
 11
5.343660372387871
 21
4.26496478946024
 31
0.0
  0
LINE
  5
3E2AE
330
2
100
AcDbEntity
  8
DETAIL
100
AcDbLine
 10
5.396043185408615
 20
4.09396478946024
 30
0.0
 11
5.384256468014156
 21
4.264964789460242
 31
0.0
  0
LINE
  5
3E2AF
330
2
100
AcDbEntity
  8
DETAIL
100
AcDbLine
 10
5.436639281034898
 20
4.093964789460239
 30
0.0
 11
5.424852563640442
 21
4.26496478946024
 31
0.0
  0
LINE
  5
3E2B0
330
2
100
AcDbEntity
  8
DETAIL
100
AcDbLine
 10
5.477235376661183
 20
4.093964789460237
 30
0.0
 11
5.465448659266726
 21
4.264964789460238
 31
0.0
  0
LINE
  5
3E2B1
330
2
100
AcDbEntity
  8
DETAIL
100
AcDbLine
 10
5.517831472287467
 20
4.093964789460237
 30
0.0
 11
5.506044754893012
 21
4.264964789460238
 31
0.0
  0
LINE
  5
3E2B2
330
2
100
AcDbEntity
  8
DETAIL
100
AcDbLine
 10
5.269631800942264
 20
4.330714789460238
 30
0.0
 11
5.269631800942264
 21
4.028214789460241
 31
0.0
  0
LINE
  5
3E2B3
330
2
100
AcDbEntity
  8
DETAIL
100
AcDbLine
 10
5.165631800942263
 20
4.069464789460241
 30
0.0
 11
5.233131800942262
 21
4.028214789460241
 31
0.0
  0
LINE
  5
3E2B4
330
2
100
AcDbEntity
  8
DETAIL
100
AcDbLine
 10
5.355447089782328
 20
4.09396478946024
 30
0.0
 11
5.338575557673111
 21
4.116964789460239
 31
0.0
  0
LINE
  5
3E2B5
330
2
100
AcDbEntity
  8
DETAIL
100
AcDbLine
 10
5.369147925984262
 20
4.116964789460239
 30
0.0
 11
5.379171653299398
 21
4.116964789460241
 31
0.0
  0
LINE
  5
3E2B6
330
2
100
AcDbEntity
  8
DETAIL
100
AcDbLine
 10
5.409744021610547
 20
4.116964789460241
 30
0.0
 11
5.41976774892568
 21
4.116964789460239
 31
0.0
  0
LINE
  5
3E2B7
330
2
100
AcDbEntity
  8
DETAIL
100
AcDbLine
 10
5.490936212863116
 20
4.116964789460237
 30
0.0
 11
5.500959940178251
 21
4.116964789460237
 31
0.0
  0
LINE
  5
3E2B8
330
2
100
AcDbEntity
  8
DETAIL
100
AcDbLine
 10
5.450340117236833
 20
4.116964789460239
 30
0.0
 11
5.460363844551969
 21
4.116964789460237
 31
0.0
  0
LINE
  5
3E2B9
330
2
100
AcDbEntity
  8
DETAIL
100
AcDbLine
 10
5.369147925984262
 20
4.116964789460239
 30
0.0
 11
5.355447089782328
 21
4.09396478946024
 31
0.0
  0
LINE
  5
3E2BA
330
2
100
AcDbEntity
  8
DETAIL
100
AcDbLine
 10
5.409744021610547
 20
4.116964789460241
 30
0.0
 11
5.396043185408615
 21
4.093964789460241
 31
0.0
  0
LINE
  5
3E2BB
330
2
100
AcDbEntity
  8
DETAIL
100
AcDbLine
 10
5.396043185408615
 20
4.093964789460241
 30
0.0
 11
5.379171653299398
 21
4.116964789460241
 31
0.0
  0
LINE
  5
3E2BC
330
2
100
AcDbEntity
  8
DETAIL
100
AcDbLine
 10
5.450340117236832
 20
4.116964789460239
 30
0.0
 11
5.436639281034898
 21
4.09396478946024
 31
0.0
  0
LINE
  5
3E2BD
330
2
100
AcDbEntity
  8
DETAIL
100
AcDbLine
 10
5.436639281034898
 20
4.09396478946024
 30
0.0
 11
5.41976774892568
 21
4.116964789460239
 31
0.0
  0
LINE
  5
3E2BE
330
2
100
AcDbEntity
  8
DETAIL
100
AcDbLine
 10
5.477235376661183
 20
4.093964789460239
 30
0.0
 11
5.460363844551967
 21
4.116964789460237
 31
0.0
  0
LINE
  5
3E2BF
330
2
100
AcDbEntity
  8
DETAIL
100
AcDbLine
 10
5.490936212863116
 20
4.116964789460237
 30
0.0
 11
5.477235376661183
 21
4.093964789460239
 31
0.0
  0
LINE
  5
3E2C0
330
2
100
AcDbEntity
  8
DETAIL
100
AcDbLine
 10
5.517831472287467
 20
4.093964789460239
 30
0.0
 11
5.500959940178251
 21
4.116964789460237
 31
0.0
  0
LINE
  5
3E2C1
330
2
100
AcDbEntity
  8
DETAIL
100
AcDbLine
 10
5.269631800942264
 20
4.028214789460241
 30
0.0
 11
5.233131800942262
 21
4.028214789460243
 31
0.0
  0
LINE
  5
3E2C2
330
2
100
AcDbEntity
  8
DETAIL
100
AcDbLine
 10
5.328551830357974
 20
4.116964789460241
 30
0.0
 11
5.338575557673113
 21
4.116964789460241
 31
0.0
  0
LINE
  5
3E2C3
330
2
100
AcDbEntity
  8
DETAIL
100
AcDbLine
 10
5.287955734731691
 20
4.116964789460241
 30
0.0
 11
5.297979462046829
 21
4.116964789460241
 31
0.0
  0
LINE
  5
3E2C4
330
2
100
AcDbEntity
  8
DETAIL
100
AcDbLine
 10
5.274254898529758
 20
4.093964789460237
 30
0.0
 11
5.269631800942264
 21
4.16103602405464
 31
0.0
  0
LINE
  5
3E2C5
330
2
100
AcDbEntity
  8
DETAIL
100
AcDbLine
 10
5.274254898529758
 20
4.093964789460239
 30
0.0
 11
5.269631800942264
 21
4.100267195419818
 31
0.0
  0
LINE
  5
3E2C6
330
2
100
AcDbEntity
  8
DETAIL
100
AcDbLine
 10
5.287955734731689
 20
4.116964789460237
 30
0.0
 11
5.274254898529758
 21
4.093964789460239
 31
0.0
  0
LINE
  5
3E2C7
330
2
100
AcDbEntity
  8
DETAIL
100
AcDbLine
 10
5.328551830357974
 20
4.116964789460237
 30
0.0
 11
5.314850994156041
 21
4.093964789460239
 31
0.0
  0
LINE
  5
3E2C8
330
2
100
AcDbEntity
  8
DETAIL
100
AcDbLine
 10
5.314850994156041
 20
4.093964789460239
 30
0.0
 11
5.297979462046825
 21
4.116964789460237
 31
0.0
  0
LINE
  5
3E2C9
330
2
100
AcDbEntity
  8
DETAIL
100
AcDbLine
 10
5.165631800942263
 20
4.28946478946024
 30
0.0
 11
5.233131800942262
 21
4.330714789460238
 31
0.0
  0
LINE
  5
3E2CA
330
2
100
AcDbEntity
  8
DETAIL
100
AcDbLine
 10
5.360531904497085
 20
4.241964789460239
 30
0.0
 11
5.343660372387871
 21
4.26496478946024
 31
0.0
  0
LINE
  5
3E2CB
330
2
100
AcDbEntity
  8
DETAIL
100
AcDbLine
 10
5.482320191375941
 20
4.241964789460237
 30
0.0
 11
5.492343918691076
 21
4.241964789460237
 31
0.0
  0
LINE
  5
3E2CC
330
2
100
AcDbEntity
  8
DETAIL
100
AcDbLine
 10
5.360531904497086
 20
4.241964789460241
 30
0.0
 11
5.370555631812223
 21
4.241964789460241
 31
0.0
  0
LINE
  5
3E2CD
330
2
100
AcDbEntity
  8
DETAIL
100
AcDbLine
 10
5.441724095749656
 20
4.241964789460241
 30
0.0
 11
5.451747823064792
 21
4.241964789460241
 31
0.0
  0
LINE
  5
3E2CE
330
2
100
AcDbEntity
  8
DETAIL
100
AcDbLine
 10
5.401128000123373
 20
4.241964789460241
 30
0.0
 11
5.411151727438507
 21
4.241964789460243
 31
0.0
  0
LINE
  5
3E2CF
330
2
100
AcDbEntity
  8
DETAIL
100
AcDbLine
 10
5.384256468014156
 20
4.264964789460242
 30
0.0
 11
5.370555631812221
 21
4.241964789460241
 31
0.0
  0
LINE
  5
3E2D0
330
2
100
AcDbEntity
  8
DETAIL
100
AcDbLine
 10
5.40112800012337
 20
4.241964789460241
 30
0.0
 11
5.384256468014156
 21
4.264964789460242
 31
0.0
  0
LINE
  5
3E2D1
330
2
100
AcDbEntity
  8
DETAIL
100
AcDbLine
 10
5.424852563640442
 20
4.26496478946024
 30
0.0
 11
5.411151727438506
 21
4.241964789460239
 31
0.0
  0
LINE
  5
3E2D2
330
2
100
AcDbEntity
  8
DETAIL
100
AcDbLine
 10
5.441724095749655
 20
4.241964789460239
 30
0.0
 11
5.424852563640442
 21
4.26496478946024
 31
0.0
  0
LINE
  5
3E2D3
330
2
100
AcDbEntity
  8
DETAIL
100
AcDbLine
 10
5.482320191375939
 20
4.241964789460237
 30
0.0
 11
5.465448659266726
 21
4.264964789460238
 31
0.0
  0
LINE
  5
3E2D4
330
2
100
AcDbEntity
  8
DETAIL
100
AcDbLine
 10
5.465448659266726
 20
4.264964789460238
 30
0.0
 11
5.451747823064789
 21
4.241964789460237
 31
0.0
  0
LINE
  5
3E2D5
330
2
100
AcDbEntity
  8
DETAIL
100
AcDbLine
 10
5.506044754893012
 20
4.264964789460238
 30
0.0
 11
5.492343918691075
 21
4.241964789460237
 31
0.0
  0
LINE
  5
3E2D6
330
2
100
AcDbEntity
  8
DETAIL
100
AcDbLine
 10
5.522916287002225
 20
4.241964789460237
 30
0.0
 11
5.506044754893012
 21
4.264964789460238
 31
0.0
  0
LINE
  5
3E2D7
330
2
100
AcDbEntity
  8
DETAIL
100
AcDbLine
 10
5.319935808870799
 20
4.241964789460241
 30
0.0
 11
5.329959536185936
 21
4.241964789460241
 31
0.0
  0
LINE
  5
3E2D8
330
2
100
AcDbEntity
  8
DETAIL
100
AcDbLine
 10
5.279339713244517
 20
4.241964789460241
 30
0.0
 11
5.289363440559652
 21
4.241964789460241
 31
0.0
  0
LINE
  5
3E2D9
330
2
100
AcDbEntity
  8
DETAIL
100
AcDbLine
 10
5.279339713244513
 20
4.241964789460237
 30
0.0
 11
5.269631800942264
 21
4.255199034074562
 31
0.0
  0
LINE
  5
3E2DA
330
2
100
AcDbEntity
  8
DETAIL
100
AcDbLine
 10
5.303064276761585
 20
4.264964789460238
 30
0.0
 11
5.289363440559648
 21
4.241964789460237
 31
0.0
  0
LINE
  5
3E2DB
330
2
100
AcDbEntity
  8
DETAIL
100
AcDbLine
 10
5.319935808870797
 20
4.241964789460237
 30
0.0
 11
5.303064276761585
 21
4.264964789460238
 31
0.0
  0
LINE
  5
3E2DC
330
2
100
AcDbEntity
  8
DETAIL
100
AcDbLine
 10
5.343660372387871
 20
4.26496478946024
 30
0.0
 11
5.329959536185934
 21
4.241964789460239
 31
0.0
  0
LINE
  5
3E2DD
330
2
100
AcDbEntity
  8
DETAIL
100
AcDbLine
 10
5.269631800942264
 20
4.330714789460238
 30
0.0
 11
5.233131800942266
 21
4.330714789460241
 31
0.0
  0
LINE
  5
3F90B
330
2
100
AcDbEntity
  8
0
  6
Continuous
100
AcDbLine
 10
5.354631800942271
 20
4.998464789460237
 30
0.0
 11
5.354631800942268
 21
4.810464789460239
 31
0.0
  0
LINE
  5
3F90E
330
2
100
AcDbEntity
  8
0
  6
Continuous
100
AcDbLine
 10
5.354631800942268
 20
4.810464789460239
 30
0.0
 11
5.314631800942268
 21
4.810464789460239
 31
0.0
  0
LINE
  5
3F90F
330
2
100
AcDbEntity
  8
0
  6
Continuous
100
AcDbLine
 10
5.314631800942268
 20
4.810464789460239
 30
0.0
 11
5.314631800942268
 21
3.548464789460239
 31
0.0
  0
LINE
  5
3F910
330
2
100
AcDbEntity
  8
0
  6
Continuous
100
AcDbLine
 10
5.314631800942268
 20
3.548464789460239
 30
0.0
 11
5.760931800942271
 21
3.548464789460239
 31
0.0
  0
LINE
  5
3F911
330
2
100
AcDbEntity
  8
0
  6
Continuous
100
AcDbLine
 10
5.760931800942271
 20
3.548464789460239
 30
0.0
 11
5.760931800942271
 21
3.498464789460238
 31
0.0
  0
LINE
  5
3F912
330
2
100
AcDbEntity
  8
0
  6
Continuous
100
AcDbLine
 10
5.760931800942271
 20
3.498464789460238
 30
0.0
 11
4.823331800942269
 21
3.498464789460238
 31
0.0
  0
LINE
  5
3F913
330
2
100
AcDbEntity
  8
0
  6
Continuous
100
AcDbLine
 10
4.823331800942269
 20
3.498464789460238
 30
0.0
 11
4.823331800942269
 21
3.548464789460239
 31
0.0
  0
LINE
  5
3F914
330
2
100
AcDbEntity
  8
0
  6
Continuous
100
AcDbLine
 10
4.823331800942269
 20
3.548464789460239
 30
0.0
 11
5.269631800942272
 21
3.548464789460239
 31
0.0
  0
LINE
  5
3F915
330
2
100
AcDbEntity
  8
0
  6
Continuous
100
AcDbLine
 10
5.269631800942272
 20
3.548464789460239
 30
0.0
 11
5.269631800942266
 21
4.810464789460239
 31
0.0
  0
LINE
  5
3F916
330
2
100
AcDbEntity
  8
0
  6
Continuous
100
AcDbLine
 10
5.269631800942266
 20
4.810464789460239
 30
0.0
 11
5.229631800942275
 21
4.810464789460239
 31
0.0
  0
LINE
  5
3F917
330
2
100
AcDbEntity
  8
0
  6
Continuous
100
AcDbLine
 10
5.229631800942275
 20
4.810464789460239
 30
0.0
 11
5.229631800942271
 21
4.998464789460237
 31
0.0
  0
LINE
  5
3F918
330
2
100
AcDbEntity
  8
0
  6
Continuous
100
AcDbLine
 10
5.229631800942271
 20
4.998464789460237
 30
0.0
 11
5.354631800942271
 21
4.998464789460237
 31
0.0
  0
LINE
  5
3F919
330
2
100
AcDbEntity
  8
0
100
AcDbLine
 10
7.083133957514518
 20
4.223464789460233
 30
0.0
 11
7.09313395751451
 21
4.233464789460239
 31
0.0
  0
LINE
  5
3F91A
330
2
100
AcDbEntity
  8
0
100
AcDbLine
 10
7.09313395751451
 20
4.233464789460239
 30
0.0
 11
7.083133957514518
 21
4.243464789460243
 31
0.0
  0
LINE
  5
3F91B
330
2
100
AcDbEntity
  8
0
100
AcDbLine
 10
7.083133957514518
 20
4.243464789460243
 30
0.0
 11
7.09313395751451
 21
4.253464789460234
 31
0.0
  0
LINE
  5
3F91C
330
2
100
AcDbEntity
  8
0
100
AcDbLine
 10
7.09313395751451
 20
4.253464789460234
 30
0.0
 11
7.083133957514518
 21
4.26346478946024
 31
0.0
  0
LINE
  5
3F91D
330
2
100
AcDbEntity
  8
0
100
AcDbLine
 10
7.083133957514518
 20
4.26346478946024
 30
0.0
 11
7.09313395751451
 21
4.273464789460232
 31
0.0
  0
LINE
  5
3F91E
330
2
100
AcDbEntity
  8
0
100
AcDbLine
 10
7.09313395751451
 20
4.273464789460232
 30
0.0
 11
7.083133957514518
 21
4.283464789460236
 31
0.0
  0
LINE
  5
3F91F
330
2
100
AcDbEntity
  8
0
100
AcDbLine
 10
7.083133957514518
 20
4.283464789460236
 30
0.0
 11
7.09313395751451
 21
4.293464789460241
 31
0.0
  0
LINE
  5
3F920
330
2
100
AcDbEntity
  8
0
100
AcDbLine
 10
7.09313395751451
 20
4.293464789460241
 30
0.0
 11
7.083133957514518
 21
4.303464789460231
 31
0.0
  0
LINE
  5
3F921
330
2
100
AcDbEntity
  8
0
100
AcDbLine
 10
7.083133957514518
 20
4.303464789460231
 30
0.0
 11
7.09313395751451
 21
4.313464789460237
 31
0.0
  0
LINE
  5
3F922
330
2
100
AcDbEntity
  8
0
100
AcDbLine
 10
7.09313395751451
 20
4.313464789460237
 30
0.0
 11
7.083133957514518
 21
4.323464789460241
 31
0.0
  0
LINE
  5
3F923
330
2
100
AcDbEntity
  8
0
100
AcDbLine
 10
7.083133957514518
 20
4.323464789460241
 30
0.0
 11
7.09313395751451
 21
4.333464789460232
 31
0.0
  0
LINE
  5
3F924
330
2
100
AcDbEntity
  8
0
100
AcDbLine
 10
7.09313395751451
 20
4.333464789460232
 30
0.0
 11
7.083133957514518
 21
4.343464789460238
 31
0.0
  0
LINE
  5
3F925
330
2
100
AcDbEntity
  8
0
100
AcDbLine
 10
7.083133957514518
 20
4.343464789460238
 30
0.0
 11
7.09313395751451
 21
4.353464789460242
 31
0.0
  0
LINE
  5
3F926
330
2
100
AcDbEntity
  8
0
100
AcDbLine
 10
7.09313395751451
 20
4.353464789460242
 30
0.0
 11
7.083133957514518
 21
4.363464789460233
 31
0.0
  0
LINE
  5
3F927
330
2
100
AcDbEntity
  8
0
100
AcDbLine
 10
7.083133957514518
 20
4.363464789460233
 30
0.0
 11
7.09313395751451
 21
4.373464789460238
 31
0.0
  0
LINE
  5
3F928
330
2
100
AcDbEntity
  8
0
100
AcDbLine
 10
7.09313395751451
 20
4.373464789460238
 30
0.0
 11
7.083133957514518
 21
4.383464789460243
 31
0.0
  0
LINE
  5
3F929
330
2
100
AcDbEntity
  8
0
100
AcDbLine
 10
7.083133957514518
 20
4.383464789460243
 30
0.0
 11
7.09313395751451
 21
4.393464789460234
 31
0.0
  0
LINE
  5
3F92A
330
2
100
AcDbEntity
  8
0
100
AcDbLine
 10
7.09313395751451
 20
4.393464789460234
 30
0.0
 11
7.083133957514518
 21
4.403464789460239
 31
0.0
  0
LINE
  5
3F92B
330
2
100
AcDbEntity
  8
0
100
AcDbLine
 10
7.083133957514518
 20
4.403464789460239
 30
0.0
 11
7.09313395751451
 21
4.413464789460245
 31
0.0
  0
LINE
  5
3F92C
330
2
100
AcDbEntity
  8
0
100
AcDbLine
 10
7.09313395751451
 20
4.413464789460245
 30
0.0
 11
7.083133957514518
 21
4.423464789460236
 31
0.0
  0
LINE
  5
3F92D
330
2
100
AcDbEntity
  8
0
100
AcDbLine
 10
7.083133957514518
 20
4.423464789460236
 30
0.0
 11
7.09313395751451
 21
4.433464789460241
 31
0.0
  0
LINE
  5
3F92E
330
2
100
AcDbEntity
  8
0
100
AcDbLine
 10
7.09313395751451
 20
4.433464789460241
 30
0.0
 11
7.083133957514518
 21
4.443464789460231
 31
0.0
  0
LINE
  5
3F92F
330
2
100
AcDbEntity
  8
0
100
AcDbLine
 10
7.083133957514518
 20
4.443464789460231
 30
0.0
 11
7.09313395751451
 21
4.453464789460237
 31
0.0
  0
LINE
  5
3F930
330
2
100
AcDbEntity
  8
0
100
AcDbLine
 10
7.09313395751451
 20
4.453464789460237
 30
0.0
 11
7.083133957514518
 21
4.463464789460243
 31
0.0
  0
LINE
  5
3F931
330
2
100
AcDbEntity
  8
0
100
AcDbLine
 10
7.083133957514518
 20
4.463464789460243
 30
0.0
 11
7.09313395751451
 21
4.473464789460233
 31
0.0
  0
LINE
  5
3F932
330
2
100
AcDbEntity
  8
0
100
AcDbLine
 10
7.09313395751451
 20
4.473464789460233
 30
0.0
 11
7.083133957514518
 21
4.483464789460238
 31
0.0
  0
LINE
  5
3F933
330
2
100
AcDbEntity
  8
0
100
AcDbLine
 10
7.083133957514518
 20
4.483464789460238
 30
0.0
 11
7.09313395751451
 21
4.493464789460244
 31
0.0
  0
LINE
  5
3F934
330
2
100
AcDbEntity
  8
0
100
AcDbLine
 10
7.09313395751451
 20
4.493464789460244
 30
0.0
 11
7.083133957514518
 21
4.503464789460235
 31
0.0
  0
LINE
  5
3F935
330
2
100
AcDbEntity
  8
0
100
AcDbLine
 10
7.083133957514518
 20
4.503464789460235
 30
0.0
 11
7.09313395751451
 21
4.51346478946024
 31
0.0
  0
LINE
  5
3F936
330
2
100
AcDbEntity
  8
0
100
AcDbLine
 10
7.09313395751451
 20
4.51346478946024
 30
0.0
 11
7.083133957514518
 21
4.523464789460232
 31
0.0
  0
LINE
  5
3F937
330
2
100
AcDbEntity
  8
0
100
AcDbLine
 10
7.083133957514518
 20
4.523464789460232
 30
0.0
 11
7.133133957514472
 21
4.523464789460232
 31
0.0
  0
LINE
  5
3F938
330
2
100
AcDbEntity
  8
0
100
AcDbLine
 10
7.133133957514472
 20
4.523464789460232
 30
0.0
 11
7.133133957514472
 21
3.683464789460241
 31
0.0
  0
LINE
  5
3F939
330
2
100
AcDbEntity
  8
0
100
AcDbLine
 10
7.133133957514472
 20
3.683464789460241
 30
0.0
 11
7.123133957514482
 21
3.673464789460236
 31
0.0
  0
LINE
  5
3F93A
330
2
100
AcDbEntity
  8
0
100
AcDbLine
 10
7.123133957514482
 20
3.673464789460236
 30
0.0
 11
7.133133957514472
 21
3.663464789460231
 31
0.0
  0
LINE
  5
3F93B
330
2
100
AcDbEntity
  8
0
100
AcDbLine
 10
7.133133957514472
 20
3.663464789460231
 30
0.0
 11
7.133133957514472
 21
3.608464789460238
 31
0.0
  0
LINE
  5
3F93C
330
2
100
AcDbEntity
  8
0
100
AcDbLine
 10
7.133133957514472
 20
3.608464789460238
 30
0.0
 11
7.073133957514526
 21
3.548464789460236
 31
0.0
  0
LINE
  5
3F93D
330
2
100
AcDbEntity
  8
0
100
AcDbLine
 10
7.073133957514526
 20
3.548464789460236
 30
0.0
 11
6.733133957514382
 21
3.548464789460236
 31
0.0
  0
LINE
  5
3F93E
330
2
100
AcDbEntity
  8
0
100
AcDbLine
 10
6.733133957514382
 20
3.548464789460236
 30
0.0
 11
6.733133957514382
 21
3.623464789460238
 31
0.0
  0
LINE
  5
3F93F
330
2
100
AcDbEntity
  8
0
100
AcDbLine
 10
6.733133957514382
 20
3.623464789460238
 30
0.0
 11
6.783133957514337
 21
3.623464789460238
 31
0.0
  0
LINE
  5
3F940
330
2
100
AcDbEntity
  8
0
100
AcDbLine
 10
6.783133957514337
 20
3.623464789460238
 30
0.0
 11
6.783133957514337
 21
3.598464789460233
 31
0.0
  0
LINE
  5
3F941
330
2
100
AcDbEntity
  8
0
100
AcDbLine
 10
6.783133957514337
 20
3.598464789460233
 30
0.0
 11
6.908133957514337
 21
3.598464789460233
 31
0.0
  0
LINE
  5
3F942
330
2
100
AcDbEntity
  8
0
100
AcDbLine
 10
6.908133957514337
 20
3.598464789460233
 30
0.0
 11
6.908133957514337
 21
3.723464789460233
 31
0.0
  0
LINE
  5
3F943
330
2
100
AcDbEntity
  8
0
100
AcDbLine
 10
6.908133957514337
 20
3.723464789460233
 30
0.0
 11
6.783133957514337
 21
3.723464789460233
 31
0.0
  0
LINE
  5
3F944
330
2
100
AcDbEntity
  8
0
100
AcDbLine
 10
6.783133957514337
 20
3.723464789460233
 30
0.0
 11
6.783133957514337
 21
3.698464789460241
 31
0.0
  0
LINE
  5
3F945
330
2
100
AcDbEntity
  8
0
100
AcDbLine
 10
6.783133957514337
 20
3.698464789460241
 30
0.0
 11
6.733133957514382
 21
3.698464789460241
 31
0.0
  0
LINE
  5
3F946
330
2
100
AcDbEntity
  8
0
100
AcDbLine
 10
6.733133957514382
 20
3.698464789460241
 30
0.0
 11
6.733133957514382
 21
3.773464789460231
 31
0.0
  0
LINE
  5
3F947
330
2
100
AcDbEntity
  8
0
100
AcDbLine
 10
6.733133957514382
 20
3.773464789460231
 30
0.0
 11
6.958133957514518
 21
3.773464789460231
 31
0.0
  0
LINE
  5
3F948
330
2
100
AcDbEntity
  8
0
100
AcDbLine
 10
6.958133957514518
 20
3.773464789460231
 30
0.0
 11
6.958133957514518
 21
3.598464789460233
 31
0.0
  0
LINE
  5
3F949
330
2
100
AcDbEntity
  8
0
100
AcDbLine
 10
6.958133957514518
 20
3.598464789460233
 30
0.0
 11
7.052423279395724
 21
3.598464789460233
 31
0.0
  0
LINE
  5
3F94A
330
2
100
AcDbEntity
  8
0
100
AcDbLine
 10
7.052423279395724
 20
3.598464789460233
 30
0.0
 11
7.083133957514518
 21
3.629175467578899
 31
0.0
  0
LINE
  5
3F94B
330
2
100
AcDbEntity
  8
0
100
AcDbLine
 10
7.083133957514518
 20
3.629175467578899
 30
0.0
 11
7.083133957514518
 21
3.648464789460231
 31
0.0
  0
LINE
  5
3F94C
330
2
100
AcDbEntity
  8
0
100
AcDbLine
 10
7.083133957514518
 20
3.648464789460231
 30
0.0
 11
7.09313395751451
 21
3.658464789460236
 31
0.0
  0
LINE
  5
3F94D
330
2
100
AcDbEntity
  8
0
100
AcDbLine
 10
7.09313395751451
 20
3.658464789460236
 30
0.0
 11
7.083133957514518
 21
3.668464789460241
 31
0.0
  0
LINE
  5
3F94E
330
2
100
AcDbEntity
  8
0
100
AcDbLine
 10
7.083133957514518
 20
3.668464789460241
 30
0.0
 11
7.083133957514518
 21
3.76346478946024
 31
0.0
  0
LINE
  5
3F94F
330
2
100
AcDbEntity
  8
0
100
AcDbLine
 10
7.083133957514518
 20
3.76346478946024
 30
0.0
 11
7.09313395751451
 21
3.773464789460231
 31
0.0
  0
LINE
  5
3F950
330
2
100
AcDbEntity
  8
0
100
AcDbLine
 10
7.09313395751451
 20
3.773464789460231
 30
0.0
 11
7.083133957514518
 21
3.783464789460236
 31
0.0
  0
LINE
  5
3F951
330
2
100
AcDbEntity
  8
0
100
AcDbLine
 10
7.083133957514518
 20
3.783464789460236
 30
0.0
 11
7.09313395751451
 21
3.793464789460241
 31
0.0
  0
LINE
  5
3F952
330
2
100
AcDbEntity
  8
0
100
AcDbLine
 10
7.09313395751451
 20
3.793464789460241
 30
0.0
 11
7.083133957514518
 21
3.803464789460231
 31
0.0
  0
LINE
  5
3F953
330
2
100
AcDbEntity
  8
0
100
AcDbLine
 10
7.083133957514518
 20
3.803464789460231
 30
0.0
 11
7.09313395751451
 21
3.813464789460237
 31
0.0
  0
LINE
  5
3F954
330
2
100
AcDbEntity
  8
0
100
AcDbLine
 10
7.09313395751451
 20
3.813464789460237
 30
0.0
 11
7.083133957514518
 21
3.823464789460241
 31
0.0
  0
LINE
  5
3F955
330
2
100
AcDbEntity
  8
0
100
AcDbLine
 10
7.083133957514518
 20
3.823464789460241
 30
0.0
 11
7.09313395751451
 21
3.833464789460233
 31
0.0
  0
LINE
  5
3F956
330
2
100
AcDbEntity
  8
0
100
AcDbLine
 10
7.09313395751451
 20
3.833464789460233
 30
0.0
 11
7.083133957514518
 21
3.843464789460238
 31
0.0
  0
LINE
  5
3F957
330
2
100
AcDbEntity
  8
0
100
AcDbLine
 10
7.083133957514518
 20
3.843464789460238
 30
0.0
 11
7.09313395751451
 21
3.853464789460243
 31
0.0
  0
LINE
  5
3F958
330
2
100
AcDbEntity
  8
0
100
AcDbLine
 10
7.09313395751451
 20
3.853464789460243
 30
0.0
 11
7.083133957514518
 21
3.863464789460234
 31
0.0
  0
LINE
  5
3F959
330
2
100
AcDbEntity
  8
0
100
AcDbLine
 10
7.083133957514518
 20
3.863464789460234
 30
0.0
 11
7.09313395751451
 21
3.873464789460238
 31
0.0
  0
LINE
  5
3F95A
330
2
100
AcDbEntity
  8
0
100
AcDbLine
 10
7.09313395751451
 20
3.873464789460238
 30
0.0
 11
7.083133957514518
 21
3.883464789460243
 31
0.0
  0
LINE
  5
3F95B
330
2
100
AcDbEntity
  8
0
100
AcDbLine
 10
7.083133957514518
 20
3.883464789460243
 30
0.0
 11
7.09313395751451
 21
3.893464789460234
 31
0.0
  0
LINE
  5
3F95C
330
2
100
AcDbEntity
  8
0
100
AcDbLine
 10
7.09313395751451
 20
3.893464789460234
 30
0.0
 11
7.083133957514518
 21
3.903464789460239
 31
0.0
  0
LINE
  5
3F95D
330
2
100
AcDbEntity
  8
0
100
AcDbLine
 10
7.083133957514518
 20
3.903464789460239
 30
0.0
 11
7.09313395751451
 21
3.913464789460231
 31
0.0
  0
LINE
  5
3F95E
330
2
100
AcDbEntity
  8
0
100
AcDbLine
 10
7.09313395751451
 20
3.913464789460231
 30
0.0
 11
7.083133957514518
 21
3.923464789460236
 31
0.0
  0
LINE
  5
3F95F
330
2
100
AcDbEntity
  8
0
100
AcDbLine
 10
7.083133957514518
 20
3.923464789460236
 30
0.0
 11
7.09313395751451
 21
3.933464789460241
 31
0.0
  0
LINE
  5
3F960
330
2
100
AcDbEntity
  8
0
100
AcDbLine
 10
7.09313395751451
 20
3.933464789460241
 30
0.0
 11
7.083133957514518
 21
3.943464789460231
 31
0.0
  0
LINE
  5
3F961
330
2
100
AcDbEntity
  8
0
100
AcDbLine
 10
7.083133957514518
 20
3.943464789460231
 30
0.0
 11
7.09313395751451
 21
3.953464789460237
 31
0.0
  0
LINE
  5
3F962
330
2
100
AcDbEntity
  8
0
100
AcDbLine
 10
7.09313395751451
 20
3.953464789460237
 30
0.0
 11
7.083133957514518
 21
3.963464789460243
 31
0.0
  0
LINE
  5
3F963
330
2
100
AcDbEntity
  8
0
100
AcDbLine
 10
7.083133957514518
 20
3.963464789460243
 30
0.0
 11
7.09313395751451
 21
3.973464789460233
 31
0.0
  0
LINE
  5
3F964
330
2
100
AcDbEntity
  8
0
100
AcDbLine
 10
7.09313395751451
 20
3.973464789460233
 30
0.0
 11
7.083133957514518
 21
3.983464789460238
 31
0.0
  0
LINE
  5
3F965
330
2
100
AcDbEntity
  8
0
100
AcDbLine
 10
7.083133957514518
 20
3.983464789460238
 30
0.0
 11
7.09313395751451
 21
3.993464789460243
 31
0.0
  0
LINE
  5
3F966
330
2
100
AcDbEntity
  8
0
100
AcDbLine
 10
7.09313395751451
 20
3.993464789460243
 30
0.0
 11
7.083133957514518
 21
4.003464789460234
 31
0.0
  0
LINE
  5
3F967
330
2
100
AcDbEntity
  8
0
100
AcDbLine
 10
7.083133957514518
 20
4.003464789460234
 30
0.0
 11
7.09313395751451
 21
4.01346478946024
 31
0.0
  0
LINE
  5
3F968
330
2
100
AcDbEntity
  8
0
100
AcDbLine
 10
7.09313395751451
 20
4.01346478946024
 30
0.0
 11
7.083133957514518
 21
4.023464789460232
 31
0.0
  0
LINE
  5
3F969
330
2
100
AcDbEntity
  8
0
100
AcDbLine
 10
7.083133957514518
 20
4.023464789460232
 30
0.0
 11
7.09313395751451
 21
4.033464789460236
 31
0.0
  0
LINE
  5
3F96A
330
2
100
AcDbEntity
  8
0
100
AcDbLine
 10
7.09313395751451
 20
4.033464789460236
 30
0.0
 11
7.083133957514518
 21
4.043464789460241
 31
0.0
  0
LINE
  5
3F96B
330
2
100
AcDbEntity
  8
0
100
AcDbLine
 10
7.083133957514518
 20
4.043464789460241
 30
0.0
 11
7.09313395751451
 21
4.053464789460231
 31
0.0
  0
LINE
  5
3F96C
330
2
100
AcDbEntity
  8
0
100
AcDbLine
 10
7.09313395751451
 20
4.053464789460231
 30
0.0
 11
7.083133957514518
 21
4.063464789460237
 31
0.0
  0
LINE
  5
3F96D
330
2
100
AcDbEntity
  8
0
100
AcDbLine
 10
7.083133957514518
 20
4.063464789460237
 30
0.0
 11
7.09313395751451
 21
4.073464789460241
 31
0.0
  0
LINE
  5
3F96E
330
2
100
AcDbEntity
  8
0
100
AcDbLine
 10
7.09313395751451
 20
4.073464789460241
 30
0.0
 11
7.083133957514518
 21
4.083464789460232
 31
0.0
  0
LINE
  5
3F96F
330
2
100
AcDbEntity
  8
0
100
AcDbLine
 10
7.083133957514518
 20
4.083464789460232
 30
0.0
 11
7.09313395751451
 21
4.093464789460238
 31
0.0
  0
LINE
  5
3F970
330
2
100
AcDbEntity
  8
0
100
AcDbLine
 10
7.09313395751451
 20
4.093464789460238
 30
0.0
 11
7.083133957514518
 21
4.103464789460242
 31
0.0
  0
LINE
  5
3F971
330
2
100
AcDbEntity
  8
0
100
AcDbLine
 10
7.083133957514518
 20
4.103464789460242
 30
0.0
 11
7.09313395751451
 21
4.113464789460233
 31
0.0
  0
LINE
  5
3F972
330
2
100
AcDbEntity
  8
0
100
AcDbLine
 10
7.09313395751451
 20
4.113464789460233
 30
0.0
 11
7.083133957514518
 21
4.123464789460238
 31
0.0
  0
LINE
  5
3F973
330
2
100
AcDbEntity
  8
0
100
AcDbLine
 10
7.083133957514518
 20
4.123464789460238
 30
0.0
 11
7.09313395751451
 21
4.133464789460243
 31
0.0
  0
LINE
  5
3F974
330
2
100
AcDbEntity
  8
0
100
AcDbLine
 10
7.09313395751451
 20
4.133464789460243
 30
0.0
 11
7.083133957514518
 21
4.143464789460234
 31
0.0
  0
LINE
  5
3F975
330
2
100
AcDbEntity
  8
0
100
AcDbLine
 10
7.083133957514518
 20
4.143464789460234
 30
0.0
 11
7.09313395751451
 21
4.153464789460239
 31
0.0
  0
LINE
  5
3F976
330
2
100
AcDbEntity
  8
0
100
AcDbLine
 10
7.09313395751451
 20
4.153464789460239
 30
0.0
 11
7.083133957514518
 21
4.163464789460231
 31
0.0
  0
LINE
  5
3F977
330
2
100
AcDbEntity
  8
0
100
AcDbLine
 10
7.083133957514518
 20
4.163464789460231
 30
0.0
 11
7.09313395751451
 21
4.173464789460236
 31
0.0
  0
LINE
  5
3F978
330
2
100
AcDbEntity
  8
0
100
AcDbLine
 10
7.09313395751451
 20
4.173464789460236
 30
0.0
 11
7.083133957514518
 21
4.183464789460241
 31
0.0
  0
LINE
  5
3F979
330
2
100
AcDbEntity
  8
0
100
AcDbLine
 10
7.083133957514518
 20
4.183464789460241
 30
0.0
 11
7.09313395751451
 21
4.193464789460231
 31
0.0
  0
LINE
  5
3F97A
330
2
100
AcDbEntity
  8
0
100
AcDbLine
 10
7.09313395751451
 20
4.193464789460231
 30
0.0
 11
7.083133957514518
 21
4.203464789460237
 31
0.0
  0
LINE
  5
3F97B
330
2
100
AcDbEntity
  8
0
100
AcDbLine
 10
7.083133957514518
 20
4.203464789460237
 30
0.0
 11
7.09313395751451
 21
4.213464789460243
 31
0.0
  0
LINE
  5
3F97C
330
2
100
AcDbEntity
  8
0
100
AcDbLine
 10
7.09313395751451
 20
4.213464789460243
 30
0.0
 11
7.083133957514518
 21
4.223464789460233
 31
0.0
  0
LINE
  5
3F97D
330
2
100
AcDbEntity
  8
0
100
AcDbLine
 10
5.364631800942233
 20
4.223464789460233
 30
0.0
 11
5.354631800942243
 21
4.233464789460239
 31
0.0
  0
LINE
  5
3F97E
330
2
100
AcDbEntity
  8
0
100
AcDbLine
 10
5.354631800942243
 20
4.233464789460239
 30
0.0
 11
5.364631800942233
 21
4.243464789460243
 31
0.0
  0
LINE
  5
3F97F
330
2
100
AcDbEntity
  8
0
100
AcDbLine
 10
5.364631800942233
 20
4.243464789460243
 30
0.0
 11
5.354631800942243
 21
4.253464789460234
 31
0.0
  0
LINE
  5
3F980
330
2
100
AcDbEntity
  8
0
100
AcDbLine
 10
5.354631800942243
 20
4.253464789460234
 30
0.0
 11
5.364631800942233
 21
4.26346478946024
 31
0.0
  0
LINE
  5
3F981
330
2
100
AcDbEntity
  8
0
100
AcDbLine
 10
5.364631800942233
 20
4.26346478946024
 30
0.0
 11
5.354631800942243
 21
4.273464789460232
 31
0.0
  0
LINE
  5
3F982
330
2
100
AcDbEntity
  8
0
100
AcDbLine
 10
5.354631800942243
 20
4.273464789460232
 30
0.0
 11
5.364631800942233
 21
4.283464789460236
 31
0.0
  0
LINE
  5
3F983
330
2
100
AcDbEntity
  8
0
100
AcDbLine
 10
5.364631800942233
 20
4.283464789460236
 30
0.0
 11
5.354631800942243
 21
4.293464789460241
 31
0.0
  0
LINE
  5
3F984
330
2
100
AcDbEntity
  8
0
100
AcDbLine
 10
5.354631800942243
 20
4.293464789460241
 30
0.0
 11
5.364631800942233
 21
4.303464789460231
 31
0.0
  0
LINE
  5
3F985
330
2
100
AcDbEntity
  8
0
100
AcDbLine
 10
5.364631800942233
 20
4.303464789460231
 30
0.0
 11
5.354631800942243
 21
4.313464789460237
 31
0.0
  0
LINE
  5
3F986
330
2
100
AcDbEntity
  8
0
100
AcDbLine
 10
5.354631800942243
 20
4.313464789460237
 30
0.0
 11
5.364631800942233
 21
4.323464789460241
 31
0.0
  0
LINE
  5
3F987
330
2
100
AcDbEntity
  8
0
100
AcDbLine
 10
5.364631800942233
 20
4.323464789460241
 30
0.0
 11
5.354631800942243
 21
4.333464789460232
 31
0.0
  0
LINE
  5
3F988
330
2
100
AcDbEntity
  8
0
100
AcDbLine
 10
5.354631800942243
 20
4.333464789460232
 30
0.0
 11
5.364631800942233
 21
4.343464789460238
 31
0.0
  0
LINE
  5
3F989
330
2
100
AcDbEntity
  8
0
100
AcDbLine
 10
5.364631800942233
 20
4.343464789460238
 30
0.0
 11
5.354631800942243
 21
4.353464789460242
 31
0.0
  0
LINE
  5
3F98A
330
2
100
AcDbEntity
  8
0
100
AcDbLine
 10
5.354631800942243
 20
4.353464789460242
 30
0.0
 11
5.364631800942233
 21
4.363464789460233
 31
0.0
  0
LINE
  5
3F98B
330
2
100
AcDbEntity
  8
0
100
AcDbLine
 10
5.364631800942233
 20
4.363464789460233
 30
0.0
 11
5.354631800942243
 21
4.373464789460238
 31
0.0
  0
LINE
  5
3F98C
330
2
100
AcDbEntity
  8
0
100
AcDbLine
 10
5.354631800942243
 20
4.373464789460238
 30
0.0
 11
5.364631800942233
 21
4.383464789460243
 31
0.0
  0
LINE
  5
3F98D
330
2
100
AcDbEntity
  8
0
100
AcDbLine
 10
5.364631800942233
 20
4.383464789460243
 30
0.0
 11
5.354631800942243
 21
4.393464789460234
 31
0.0
  0
LINE
  5
3F98E
330
2
100
AcDbEntity
  8
0
100
AcDbLine
 10
5.354631800942243
 20
4.393464789460234
 30
0.0
 11
5.364631800942233
 21
4.403464789460239
 31
0.0
  0
LINE
  5
3F98F
330
2
100
AcDbEntity
  8
0
100
AcDbLine
 10
5.364631800942233
 20
4.403464789460239
 30
0.0
 11
5.354631800942243
 21
4.413464789460245
 31
0.0
  0
LINE
  5
3F990
330
2
100
AcDbEntity
  8
0
100
AcDbLine
 10
5.354631800942243
 20
4.413464789460245
 30
0.0
 11
5.364631800942233
 21
4.423464789460236
 31
0.0
  0
LINE
  5
3F991
330
2
100
AcDbEntity
  8
0
100
AcDbLine
 10
5.364631800942233
 20
4.423464789460236
 30
0.0
 11
5.354631800942243
 21
4.433464789460241
 31
0.0
  0
LINE
  5
3F992
330
2
100
AcDbEntity
  8
0
100
AcDbLine
 10
5.354631800942243
 20
4.433464789460241
 30
0.0
 11
5.364631800942233
 21
4.443464789460231
 31
0.0
  0
LINE
  5
3F993
330
2
100
AcDbEntity
  8
0
100
AcDbLine
 10
5.364631800942233
 20
4.443464789460231
 30
0.0
 11
5.354631800942243
 21
4.453464789460237
 31
0.0
  0
LINE
  5
3F994
330
2
100
AcDbEntity
  8
0
100
AcDbLine
 10
5.354631800942243
 20
4.453464789460237
 30
0.0
 11
5.364631800942233
 21
4.463464789460243
 31
0.0
  0
LINE
  5
3F995
330
2
100
AcDbEntity
  8
0
100
AcDbLine
 10
5.364631800942233
 20
4.463464789460243
 30
0.0
 11
5.354631800942243
 21
4.473464789460233
 31
0.0
  0
LINE
  5
3F996
330
2
100
AcDbEntity
  8
0
100
AcDbLine
 10
5.354631800942243
 20
4.473464789460233
 30
0.0
 11
5.364631800942233
 21
4.483464789460238
 31
0.0
  0
LINE
  5
3F997
330
2
100
AcDbEntity
  8
0
100
AcDbLine
 10
5.364631800942233
 20
4.483464789460238
 30
0.0
 11
5.354631800942243
 21
4.493464789460244
 31
0.0
  0
LINE
  5
3F998
330
2
100
AcDbEntity
  8
0
100
AcDbLine
 10
5.354631800942243
 20
4.493464789460244
 30
0.0
 11
5.364631800942233
 21
4.503464789460235
 31
0.0
  0
LINE
  5
3F999
330
2
100
AcDbEntity
  8
0
100
AcDbLine
 10
5.364631800942233
 20
4.503464789460235
 30
0.0
 11
5.354631800942243
 21
4.51346478946024
 31
0.0
  0
LINE
  5
3F99A
330
2
100
AcDbEntity
  8
0
100
AcDbLine
 10
5.354631800942243
 20
4.51346478946024
 30
0.0
 11
5.364631800942233
 21
4.523464789460232
 31
0.0
  0
LINE
  5
3F99B
330
2
100
AcDbEntity
  8
0
100
AcDbLine
 10
5.364631800942233
 20
4.523464789460232
 30
0.0
 11
5.314631800942278
 21
4.523464789460232
 31
0.0
  0
LINE
  5
3F99C
330
2
100
AcDbEntity
  8
0
100
AcDbLine
 10
5.314631800942278
 20
4.523464789460232
 30
0.0
 11
5.314631800942278
 21
3.683464789460241
 31
0.0
  0
LINE
  5
3F99D
330
2
100
AcDbEntity
  8
0
100
AcDbLine
 10
5.314631800942278
 20
3.683464789460241
 30
0.0
 11
5.324631800942269
 21
3.673464789460236
 31
0.0
  0
LINE
  5
3F99E
330
2
100
AcDbEntity
  8
0
100
AcDbLine
 10
5.324631800942269
 20
3.673464789460236
 30
0.0
 11
5.314631800942278
 21
3.663464789460231
 31
0.0
  0
LINE
  5
3F99F
330
2
100
AcDbEntity
  8
0
100
AcDbLine
 10
5.314631800942278
 20
3.663464789460231
 30
0.0
 11
5.314631800942278
 21
3.608464789460238
 31
0.0
  0
LINE
  5
3F9A0
330
2
100
AcDbEntity
  8
0
100
AcDbLine
 10
5.314631800942278
 20
3.608464789460238
 30
0.0
 11
5.374631800942224
 21
3.548464789460236
 31
0.0
  0
LINE
  5
3F9A1
330
2
100
AcDbEntity
  8
0
100
AcDbLine
 10
5.374631800942224
 20
3.548464789460236
 30
0.0
 11
5.714631800942369
 21
3.548464789460236
 31
0.0
  0
LINE
  5
3F9A2
330
2
100
AcDbEntity
  8
0
100
AcDbLine
 10
5.714631800942369
 20
3.548464789460236
 30
0.0
 11
5.714631800942369
 21
3.623464789460238
 31
0.0
  0
LINE
  5
3F9A3
330
2
100
AcDbEntity
  8
0
100
AcDbLine
 10
5.714631800942369
 20
3.623464789460238
 30
0.0
 11
5.664631800942416
 21
3.623464789460238
 31
0.0
  0
LINE
  5
3F9A4
330
2
100
AcDbEntity
  8
0
100
AcDbLine
 10
5.664631800942416
 20
3.623464789460238
 30
0.0
 11
5.664631800942416
 21
3.598464789460233
 31
0.0
  0
LINE
  5
3F9A5
330
2
100
AcDbEntity
  8
0
100
AcDbLine
 10
5.664631800942416
 20
3.598464789460233
 30
0.0
 11
5.539631800942416
 21
3.598464789460233
 31
0.0
  0
LINE
  5
3F9A6
330
2
100
AcDbEntity
  8
0
100
AcDbLine
 10
5.539631800942416
 20
3.598464789460233
 30
0.0
 11
5.539631800942416
 21
3.723464789460233
 31
0.0
  0
LINE
  5
3F9A7
330
2
100
AcDbEntity
  8
0
100
AcDbLine
 10
5.539631800942416
 20
3.723464789460233
 30
0.0
 11
5.664631800942416
 21
3.723464789460233
 31
0.0
  0
LINE
  5
3F9A8
330
2
100
AcDbEntity
  8
0
100
AcDbLine
 10
5.664631800942416
 20
3.723464789460233
 30
0.0
 11
5.664631800942416
 21
3.698464789460241
 31
0.0
  0
LINE
  5
3F9A9
330
2
100
AcDbEntity
  8
0
100
AcDbLine
 10
5.664631800942416
 20
3.698464789460241
 30
0.0
 11
5.714631800942369
 21
3.698464789460241
 31
0.0
  0
LINE
  5
3F9AA
330
2
100
AcDbEntity
  8
0
100
AcDbLine
 10
5.714631800942369
 20
3.698464789460241
 30
0.0
 11
5.714631800942369
 21
3.773464789460231
 31
0.0
  0
LINE
  5
3F9AB
330
2
100
AcDbEntity
  8
0
100
AcDbLine
 10
5.714631800942369
 20
3.773464789460231
 30
0.0
 11
5.489631800942233
 21
3.773464789460231
 31
0.0
  0
LINE
  5
3F9AC
330
2
100
AcDbEntity
  8
0
100
AcDbLine
 10
5.489631800942233
 20
3.773464789460231
 30
0.0
 11
5.489631800942233
 21
3.598464789460233
 31
0.0
  0
LINE
  5
3F9AD
330
2
100
AcDbEntity
  8
0
100
AcDbLine
 10
5.489631800942233
 20
3.598464789460233
 30
0.0
 11
5.395342479061027
 21
3.598464789460233
 31
0.0
  0
LINE
  5
3F9AE
330
2
100
AcDbEntity
  8
0
100
AcDbLine
 10
5.395342479061027
 20
3.598464789460233
 30
0.0
 11
5.364631800942233
 21
3.629175467578899
 31
0.0
  0
LINE
  5
3F9AF
330
2
100
AcDbEntity
  8
0
100
AcDbLine
 10
5.364631800942233
 20
3.629175467578899
 30
0.0
 11
5.364631800942233
 21
3.648464789460231
 31
0.0
  0
LINE
  5
3F9B0
330
2
100
AcDbEntity
  8
0
100
AcDbLine
 10
5.364631800942233
 20
3.648464789460231
 30
0.0
 11
5.354631800942243
 21
3.658464789460236
 31
0.0
  0
LINE
  5
3F9B1
330
2
100
AcDbEntity
  8
0
100
AcDbLine
 10
5.354631800942243
 20
3.658464789460236
 30
0.0
 11
5.364631800942233
 21
3.668464789460241
 31
0.0
  0
LINE
  5
3F9B2
330
2
100
AcDbEntity
  8
0
100
AcDbLine
 10
5.364631800942233
 20
3.668464789460241
 30
0.0
 11
5.364631800942233
 21
3.76346478946024
 31
0.0
  0
LINE
  5
3F9B3
330
2
100
AcDbEntity
  8
0
100
AcDbLine
 10
5.364631800942233
 20
3.76346478946024
 30
0.0
 11
5.354631800942243
 21
3.773464789460231
 31
0.0
  0
LINE
  5
3F9B4
330
2
100
AcDbEntity
  8
0
100
AcDbLine
 10
5.354631800942243
 20
3.773464789460231
 30
0.0
 11
5.364631800942233
 21
3.783464789460236
 31
0.0
  0
LINE
  5
3F9B5
330
2
100
AcDbEntity
  8
0
100
AcDbLine
 10
5.364631800942233
 20
3.783464789460236
 30
0.0
 11
5.354631800942243
 21
3.793464789460241
 31
0.0
  0
LINE
  5
3F9B6
330
2
100
AcDbEntity
  8
0
100
AcDbLine
 10
5.354631800942243
 20
3.793464789460241
 30
0.0
 11
5.364631800942233
 21
3.803464789460231
 31
0.0
  0
LINE
  5
3F9B7
330
2
100
AcDbEntity
  8
0
100
AcDbLine
 10
5.364631800942233
 20
3.803464789460231
 30
0.0
 11
5.354631800942243
 21
3.813464789460237
 31
0.0
  0
LINE
  5
3F9B8
330
2
100
AcDbEntity
  8
0
100
AcDbLine
 10
5.354631800942243
 20
3.813464789460237
 30
0.0
 11
5.364631800942233
 21
3.823464789460241
 31
0.0
  0
LINE
  5
3F9B9
330
2
100
AcDbEntity
  8
0
100
AcDbLine
 10
5.364631800942233
 20
3.823464789460241
 30
0.0
 11
5.354631800942243
 21
3.833464789460233
 31
0.0
  0
LINE
  5
3F9BA
330
2
100
AcDbEntity
  8
0
100
AcDbLine
 10
5.354631800942243
 20
3.833464789460233
 30
0.0
 11
5.364631800942233
 21
3.843464789460238
 31
0.0
  0
LINE
  5
3F9BB
330
2
100
AcDbEntity
  8
0
100
AcDbLine
 10
5.364631800942233
 20
3.843464789460238
 30
0.0
 11
5.354631800942243
 21
3.853464789460243
 31
0.0
  0
LINE
  5
3F9BC
330
2
100
AcDbEntity
  8
0
100
AcDbLine
 10
5.354631800942243
 20
3.853464789460243
 30
0.0
 11
5.364631800942233
 21
3.863464789460234
 31
0.0
  0
LINE
  5
3F9BD
330
2
100
AcDbEntity
  8
0
100
AcDbLine
 10
5.364631800942233
 20
3.863464789460234
 30
0.0
 11
5.354631800942243
 21
3.873464789460238
 31
0.0
  0
LINE
  5
3F9BE
330
2
100
AcDbEntity
  8
0
100
AcDbLine
 10
5.354631800942243
 20
3.873464789460238
 30
0.0
 11
5.364631800942233
 21
3.883464789460243
 31
0.0
  0
LINE
  5
3F9BF
330
2
100
AcDbEntity
  8
0
100
AcDbLine
 10
5.364631800942233
 20
3.883464789460243
 30
0.0
 11
5.354631800942243
 21
3.893464789460234
 31
0.0
  0
LINE
  5
3F9C0
330
2
100
AcDbEntity
  8
0
100
AcDbLine
 10
5.354631800942243
 20
3.893464789460234
 30
0.0
 11
5.364631800942233
 21
3.903464789460239
 31
0.0
  0
LINE
  5
3F9C1
330
2
100
AcDbEntity
  8
0
100
AcDbLine
 10
5.364631800942233
 20
3.903464789460239
 30
0.0
 11
5.354631800942243
 21
3.913464789460231
 31
0.0
  0
LINE
  5
3F9C2
330
2
100
AcDbEntity
  8
0
100
AcDbLine
 10
5.354631800942243
 20
3.913464789460231
 30
0.0
 11
5.364631800942233
 21
3.923464789460236
 31
0.0
  0
LINE
  5
3F9C3
330
2
100
AcDbEntity
  8
0
100
AcDbLine
 10
5.364631800942233
 20
3.923464789460236
 30
0.0
 11
5.354631800942243
 21
3.933464789460241
 31
0.0
  0
LINE
  5
3F9C4
330
2
100
AcDbEntity
  8
0
100
AcDbLine
 10
5.354631800942243
 20
3.933464789460241
 30
0.0
 11
5.364631800942233
 21
3.943464789460231
 31
0.0
  0
LINE
  5
3F9C5
330
2
100
AcDbEntity
  8
0
100
AcDbLine
 10
5.364631800942233
 20
3.943464789460231
 30
0.0
 11
5.354631800942243
 21
3.953464789460237
 31
0.0
  0
LINE
  5
3F9C6
330
2
100
AcDbEntity
  8
0
100
AcDbLine
 10
5.354631800942243
 20
3.953464789460237
 30
0.0
 11
5.364631800942233
 21
3.963464789460243
 31
0.0
  0
LINE
  5
3F9C7
330
2
100
AcDbEntity
  8
0
100
AcDbLine
 10
5.364631800942233
 20
3.963464789460243
 30
0.0
 11
5.354631800942243
 21
3.973464789460233
 31
0.0
  0
LINE
  5
3F9C8
330
2
100
AcDbEntity
  8
0
100
AcDbLine
 10
5.354631800942243
 20
3.973464789460233
 30
0.0
 11
5.364631800942233
 21
3.983464789460238
 31
0.0
  0
LINE
  5
3F9C9
330
2
100
AcDbEntity
  8
0
100
AcDbLine
 10
5.364631800942233
 20
3.983464789460238
 30
0.0
 11
5.354631800942243
 21
3.993464789460243
 31
0.0
  0
LINE
  5
3F9CA
330
2
100
AcDbEntity
  8
0
100
AcDbLine
 10
5.354631800942243
 20
3.993464789460243
 30
0.0
 11
5.364631800942233
 21
4.003464789460234
 31
0.0
  0
LINE
  5
3F9CB
330
2
100
AcDbEntity
  8
0
100
AcDbLine
 10
5.364631800942233
 20
4.003464789460234
 30
0.0
 11
5.354631800942243
 21
4.01346478946024
 31
0.0
  0
LINE
  5
3F9CC
330
2
100
AcDbEntity
  8
0
100
AcDbLine
 10
5.354631800942243
 20
4.01346478946024
 30
0.0
 11
5.364631800942233
 21
4.023464789460232
 31
0.0
  0
LINE
  5
3F9CD
330
2
100
AcDbEntity
  8
0
100
AcDbLine
 10
5.364631800942233
 20
4.023464789460232
 30
0.0
 11
5.354631800942243
 21
4.033464789460236
 31
0.0
  0
LINE
  5
3F9CE
330
2
100
AcDbEntity
  8
0
100
AcDbLine
 10
5.354631800942243
 20
4.033464789460236
 30
0.0
 11
5.364631800942233
 21
4.043464789460241
 31
0.0
  0
LINE
  5
3F9CF
330
2
100
AcDbEntity
  8
0
100
AcDbLine
 10
5.364631800942233
 20
4.043464789460241
 30
0.0
 11
5.354631800942243
 21
4.053464789460231
 31
0.0
  0
LINE
  5
3F9D0
330
2
100
AcDbEntity
  8
0
100
AcDbLine
 10
5.354631800942243
 20
4.053464789460231
 30
0.0
 11
5.364631800942233
 21
4.063464789460237
 31
0.0
  0
LINE
  5
3F9D1
330
2
100
AcDbEntity
  8
0
100
AcDbLine
 10
5.364631800942233
 20
4.063464789460237
 30
0.0
 11
5.354631800942243
 21
4.073464789460241
 31
0.0
  0
LINE
  5
3F9D2
330
2
100
AcDbEntity
  8
0
100
AcDbLine
 10
5.354631800942243
 20
4.073464789460241
 30
0.0
 11
5.364631800942233
 21
4.083464789460232
 31
0.0
  0
LINE
  5
3F9D3
330
2
100
AcDbEntity
  8
0
100
AcDbLine
 10
5.364631800942233
 20
4.083464789460232
 30
0.0
 11
5.354631800942243
 21
4.093464789460238
 31
0.0
  0
LINE
  5
3F9D4
330
2
100
AcDbEntity
  8
0
100
AcDbLine
 10
5.354631800942243
 20
4.093464789460238
 30
0.0
 11
5.364631800942233
 21
4.103464789460242
 31
0.0
  0
LINE
  5
3F9D5
330
2
100
AcDbEntity
  8
0
100
AcDbLine
 10
5.364631800942233
 20
4.103464789460242
 30
0.0
 11
5.354631800942243
 21
4.113464789460233
 31
0.0
  0
LINE
  5
3F9D6
330
2
100
AcDbEntity
  8
0
100
AcDbLine
 10
5.354631800942243
 20
4.113464789460233
 30
0.0
 11
5.364631800942233
 21
4.123464789460238
 31
0.0
  0
LINE
  5
3F9D7
330
2
100
AcDbEntity
  8
0
100
AcDbLine
 10
5.364631800942233
 20
4.123464789460238
 30
0.0
 11
5.354631800942243
 21
4.133464789460243
 31
0.0
  0
LINE
  5
3F9D8
330
2
100
AcDbEntity
  8
0
100
AcDbLine
 10
5.354631800942243
 20
4.133464789460243
 30
0.0
 11
5.364631800942233
 21
4.143464789460234
 31
0.0
  0
LINE
  5
3F9D9
330
2
100
AcDbEntity
  8
0
100
AcDbLine
 10
5.364631800942233
 20
4.143464789460234
 30
0.0
 11
5.354631800942243
 21
4.153464789460239
 31
0.0
  0
LINE
  5
3F9DA
330
2
100
AcDbEntity
  8
0
100
AcDbLine
 10
5.354631800942243
 20
4.153464789460239
 30
0.0
 11
5.364631800942233
 21
4.163464789460231
 31
0.0
  0
LINE
  5
3F9DB
330
2
100
AcDbEntity
  8
0
100
AcDbLine
 10
5.364631800942233
 20
4.163464789460231
 30
0.0
 11
5.354631800942243
 21
4.173464789460236
 31
0.0
  0
LINE
  5
3F9DC
330
2
100
AcDbEntity
  8
0
100
AcDbLine
 10
5.354631800942243
 20
4.173464789460236
 30
0.0
 11
5.364631800942233
 21
4.183464789460241
 31
0.0
  0
LINE
  5
3F9DD
330
2
100
AcDbEntity
  8
0
100
AcDbLine
 10
5.364631800942233
 20
4.183464789460241
 30
0.0
 11
5.354631800942243
 21
4.193464789460231
 31
0.0
  0
LINE
  5
3F9DE
330
2
100
AcDbEntity
  8
0
100
AcDbLine
 10
5.354631800942243
 20
4.193464789460231
 30
0.0
 11
5.364631800942233
 21
4.203464789460237
 31
0.0
  0
LINE
  5
3F9DF
330
2
100
AcDbEntity
  8
0
100
AcDbLine
 10
5.364631800942233
 20
4.203464789460237
 30
0.0
 11
5.354631800942243
 21
4.213464789460243
 31
0.0
  0
LINE
  5
3F9E0
330
2
100
AcDbEntity
  8
0
100
AcDbLine
 10
5.354631800942243
 20
4.213464789460243
 30
0.0
 11
5.364631800942233
 21
4.223464789460233
 31
0.0
  0
LINE
  5
3F9E1
330
2
100
AcDbEntity
  8
DIM
 62
     3
100
AcDbLine
 10
5.733882879228374
 20
3.432637339801428
 30
0.0
 11
5.733882879228374
 21
3.162891412751823
 31
0.0
  0
LINE
  5
3F9E2
330
2
100
AcDbEntity
  8
DIM
 62
     3
100
AcDbLine
 10
6.713882879228362
 20
3.430924820498308
 30
0.0
 11
6.713882879228362
 21
3.162891412751823
 31
0.0
  0
LINE
  5
3F9E3
330
2
100
AcDbEntity
  8
DIM
 62
     2
100
AcDbLine
 10
5.796382879228374
 20
3.232891412751822
 30
0.0
 11
6.067333595463021
 21
3.232891412751822
 31
0.0
  0
LINE
  5
3F9E4
330
2
100
AcDbEntity
  8
DIM
 62
     2
100
AcDbLine
 10
6.651382879228362
 20
3.232891412751822
 30
0.0
 11
6.380432162993717
 21
3.232891412751822
 31
0.0
  0
SOLID
  5
3F9E5
330
2
100
AcDbEntity
  8
DIM
 62
     2
100
AcDbTrace
 10
5.796382879228374
 20
3.243308079418488
 30
0.0
 11
5.796382879228374
 21
3.222474746085156
 31
0.0
 12
5.733882879228374
 22
3.232891412751822
 32
0.0
 13
5.733882879228374
 23
3.232891412751822
 33
0.0
  0
SOLID
  5
3F9E6
330
2
100
AcDbEntity
  8
DIM
 62
     2
100
AcDbTrace
 10
6.651382879228362
 20
3.243308079418488
 30
0.0
 11
6.651382879228362
 21
3.222474746085156
 31
0.0
 12
6.713882879228362
 22
3.232891412751822
 32
0.0
 13
6.713882879228362
 23
3.232891412751822
 33
0.0
  0
MTEXT
  5
3F9E7
330
2
100
AcDbEntity
  8
DIM
100
AcDbMText
 10
6.223882879228368
 20
3.232891412751822
 30
0.0
 40
0.0625
 41
0.0
 71
     5
 72
     1
  1
\A1;1" - 2"
  7
STD
 73
     1
 44
1.0
1001
ACAD
1000
MTEXTBEGIN
1070
    73
1070
     1
1070
    44
1040
1.0
1070
    74
1070
     0
1000
MTEXTEND
  0
LINE
  5
3F9E8
330
2
100
AcDbEntity
  8
HATCH
100
AcDbLine
 10
7.68813395751448
 20
5.489250321058597
 30
0.0
 11
7.707123008866068
 21
5.508239372410186
 31
0.0
1001
ACAD
1010
0.0
1020
0.0
1030
0.0
  0
LINE
  5
3F9E9
330
2
100
AcDbEntity
  8
HATCH
100
AcDbLine
 10
7.68813395751448
 20
5.347828964821295
 30
0.0
 11
7.848544365103371
 21
5.508239372410186
 31
0.0
1001
ACAD
1010
0.0
1020
0.0
1030
0.0
  0
LINE
  5
3F9EA
330
2
100
AcDbEntity
  8
HATCH
100
AcDbLine
 10
7.68813395751448
 20
5.20640760858398
 30
0.0
 11
7.989965721340695
 21
5.508239372410186
 31
0.0
1001
ACAD
1010
0.0
1020
0.0
1030
0.0
  0
LINE
  5
3F9EB
330
2
100
AcDbEntity
  8
HATCH
100
AcDbLine
 10
7.688133957514487
 20
5.064986252346669
 30
0.0
 11
8.131387077578002
 21
5.508239372410179
 31
0.0
1001
ACAD
1010
0.0
1020
0.0
1030
0.0
  0
LINE
  5
3F9EC
330
2
100
AcDbEntity
  8
HATCH
100
AcDbLine
 10
7.68813395751448
 20
4.923564896109353
 30
0.0
 11
8.188133957514473
 21
5.423564896109346
 31
0.0
1001
ACAD
1010
0.0
1020
0.0
1030
0.0
  0
LINE
  5
3F9ED
330
2
100
AcDbEntity
  8
HATCH
100
AcDbLine
 10
7.68813395751448
 20
4.782143539872045
 30
0.0
 11
8.188133957514459
 21
5.282143539872031
 31
0.0
1001
ACAD
1010
0.0
1020
0.0
1030
0.0
  0
LINE
  5
3F9EE
330
2
100
AcDbEntity
  8
HATCH
100
AcDbLine
 10
7.688133957514487
 20
4.640722183634743
 30
0.0
 11
8.188133957514466
 21
5.140722183634728
 31
0.0
1001
ACAD
1010
0.0
1020
0.0
1030
0.0
  0
LINE
  5
3F9EF
330
2
100
AcDbEntity
  8
HATCH
100
AcDbLine
 10
7.68813395751448
 20
4.499300827397425
 30
0.0
 11
8.188133957514473
 21
4.999300827397418
 31
0.0
1001
ACAD
1010
0.0
1020
0.0
1030
0.0
  0
LINE
  5
3F9F0
330
2
100
AcDbEntity
  8
HATCH
100
AcDbLine
 10
7.68813395751448
 20
4.357879471160116
 30
0.0
 11
8.188133957514466
 21
4.857879471160103
 31
0.0
1001
ACAD
1010
0.0
1020
0.0
1030
0.0
  0
LINE
  5
3F9F1
330
2
100
AcDbEntity
  8
HATCH
100
AcDbLine
 10
7.688133957514473
 20
4.216458114922807
 30
0.0
 11
8.188133957514466
 21
4.7164581149228
 31
0.0
1001
ACAD
1010
0.0
1020
0.0
1030
0.0
  0
LINE
  5
3F9F2
330
2
100
AcDbEntity
  8
HATCH
100
AcDbLine
 10
7.68813395751448
 20
4.075036758685506
 30
0.0
 11
8.188133957514466
 21
4.575036758685483
 31
0.0
1001
ACAD
1010
0.0
1020
0.0
1030
0.0
  0
LINE
  5
3F9F3
330
2
100
AcDbEntity
  8
HATCH
100
AcDbLine
 10
7.688133957514487
 20
3.933615402448197
 30
0.0
 11
8.188133957514473
 21
4.433615402448181
 31
0.0
1001
ACAD
1010
0.0
1020
0.0
1030
0.0
  0
LINE
  5
3F9F4
330
2
100
AcDbEntity
  8
HATCH
100
AcDbLine
 10
7.68813395751448
 20
3.792194046210873
 30
0.0
 11
8.188133957514473
 21
4.292194046210872
 31
0.0
1001
ACAD
1010
0.0
1020
0.0
1030
0.0
  0
LINE
  5
3F9F5
330
2
100
AcDbEntity
  8
HATCH
100
AcDbLine
 10
7.68813395751448
 20
3.650772689973571
 30
0.0
 11
8.188133957514459
 21
4.150772689973556
 31
0.0
1001
ACAD
1010
0.0
1020
0.0
1030
0.0
  0
LINE
  5
3F9F6
330
2
100
AcDbEntity
  8
HATCH
100
AcDbLine
 10
7.688133957514473
 20
3.509351333736261
 30
0.0
 11
8.18813395751448
 21
4.009351333736268
 31
0.0
1001
ACAD
1010
0.0
1020
0.0
1030
0.0
  0
LINE
  5
3F9F7
330
2
100
AcDbEntity
  8
HATCH
100
AcDbLine
 10
7.68813395751448
 20
3.367929977498953
 30
0.0
 11
8.188133957514487
 21
3.867929977498959
 31
0.0
1001
ACAD
1010
0.0
1020
0.0
1030
0.0
  0
LINE
  5
3F9F8
330
2
100
AcDbEntity
  8
HATCH
100
AcDbLine
 10
7.688133957514487
 20
3.226508621261642
 30
0.0
 11
8.188133957514494
 21
3.726508621261649
 31
0.0
1001
ACAD
1010
0.0
1020
0.0
1030
0.0
  0
LINE
  5
3F9F9
330
2
100
AcDbEntity
  8
HATCH
100
AcDbLine
 10
7.68813395751448
 20
3.085087265024334
 30
0.0
 11
8.188133957514487
 21
3.585087265024334
 31
0.0
1001
ACAD
1010
0.0
1020
0.0
1030
0.0
  0
LINE
  5
3F9FA
330
2
100
AcDbEntity
  8
HATCH
100
AcDbLine
 10
7.68813395751448
 20
2.943665908787031
 30
0.0
 11
8.188133957514473
 21
3.443665908787024
 31
0.0
1001
ACAD
1010
0.0
1020
0.0
1030
0.0
  0
LINE
  5
3F9FB
330
2
100
AcDbEntity
  8
HATCH
100
AcDbLine
 10
7.755098476094174
 20
2.869209071129411
 30
0.0
 11
8.18813395751448
 21
3.302244552549716
 31
0.0
1001
ACAD
1010
0.0
1020
0.0
1030
0.0
  0
LINE
  5
3F9FC
330
2
100
AcDbEntity
  8
HATCH
100
AcDbLine
 10
7.896519832331486
 20
2.869209071129403
 30
0.0
 11
8.188133957514487
 21
3.160823196312406
 31
0.0
1001
ACAD
1010
0.0
1020
0.0
1030
0.0
  0
LINE
  5
3F9FD
330
2
100
AcDbEntity
  8
HATCH
100
AcDbLine
 10
8.037941188568794
 20
2.869209071129411
 30
0.0
 11
8.188133957514487
 21
3.019401840075103
 31
0.0
1001
ACAD
1010
0.0
1020
0.0
1030
0.0
  0
LINE
  5
3F9FE
330
2
100
AcDbEntity
  8
HATCH
100
AcDbLine
 10
8.179362544806096
 20
2.869209071129411
 30
0.0
 11
8.18813395751448
 21
2.877980483837794
 31
0.0
1001
ACAD
1010
0.0
1020
0.0
1030
0.0
  0
LINE
  5
3F9FF
330
2
100
AcDbEntity
  8
HATCH
 62
     1
100
AcDbLine
 10
7.330261583959955
 20
5.363988715325778
 30
0.0
 11
7.354366119323199
 21
5.39271538194274
 31
0.0
1001
ACAD
1010
0.0
1020
0.0
1030
0.0
  0
LINE
  5
3FA00
330
2
100
AcDbEntity
  8
HATCH
 62
     1
100
AcDbLine
 10
7.399637250901388
 20
4.987892648430936
 30
0.0
 11
7.423741786264636
 21
5.016619315047896
 31
0.0
1001
ACAD
1010
0.0
1020
0.0
1030
0.0
  0
LINE
  5
3FA01
330
2
100
AcDbEntity
  8
HATCH
 62
     1
100
AcDbLine
 10
7.188133957514473
 20
4.277058071480658
 30
0.0
 11
7.203863028847124
 21
4.295803248749518
 31
0.0
1001
ACAD
1010
0.0
1020
0.0
1030
0.0
  0
LINE
  5
3FA02
330
2
100
AcDbEntity
  8
HATCH
 62
     1
100
AcDbLine
 10
7.469012917842822
 20
4.611796581536096
 30
0.0
 11
7.493117453206067
 21
4.640523248153058
 31
0.0
1001
ACAD
1010
0.0
1020
0.0
1030
0.0
  0
LINE
  5
3FA03
330
2
100
AcDbEntity
  8
HATCH
 62
     1
100
AcDbLine
 10
7.249134160425316
 20
3.890980515237719
 30
0.0
 11
7.273238695788561
 21
3.919707181854681
 31
0.0
1001
ACAD
1010
0.0
1020
0.0
1030
0.0
  0
LINE
  5
3FA04
330
2
100
AcDbEntity
  8
HATCH
 62
     1
100
AcDbLine
 10
7.538388584784258
 20
4.235700514641258
 30
0.0
 11
7.562493120147505
 21
4.26442718125822
 31
0.0
1001
ACAD
1010
0.0
1020
0.0
1030
0.0
  0
LINE
  5
3FA05
330
2
100
AcDbEntity
  8
HATCH
 62
     1
100
AcDbLine
 10
7.318509827366746
 20
3.514884448342876
 30
0.0
 11
7.342614362729992
 21
3.543611114959837
 31
0.0
1001
ACAD
1010
0.0
1020
0.0
1030
0.0
  0
LINE
  5
3FA06
330
2
100
AcDbEntity
  8
HATCH
 62
     1
100
AcDbLine
 10
7.607764251725687
 20
3.859604447746415
 30
0.0
 11
7.631868787088934
 21
3.888331114363377
 31
0.0
1001
ACAD
1010
0.0
1020
0.0
1030
0.0
  0
LINE
  5
3FA07
330
2
100
AcDbEntity
  8
HATCH
 62
     1
100
AcDbLine
 10
7.387885494308178
 20
3.138788381448041
 30
0.0
 11
7.411990029671424
 21
3.167515048065003
 31
0.0
1001
ACAD
1010
0.0
1020
0.0
1030
0.0
  0
LINE
  5
3FA08
330
2
100
AcDbEntity
  8
HATCH
 62
     1
100
AcDbLine
 10
7.677139918667122
 20
3.483508380851582
 30
0.0
 11
7.68813395751448
 21
3.496610566145041
 31
0.0
1001
ACAD
1010
0.0
1020
0.0
1030
0.0
  0
LINE
  5
3FA09
330
2
100
AcDbEntity
  8
HATCH
 62
     1
100
AcDbLine
 10
7.33026160082289
 20
5.363988735777375
 30
0.0
 11
7.360147441765642
 21
5.361374063494946
 31
0.0
1001
ACAD
1010
0.0
1020
0.0
1030
0.0
  0
LINE
  5
3FA0A
330
2
100
AcDbEntity
  8
HATCH
 62
     1
100
AcDbLine
 10
7.399637267629366
 20
4.987892668927367
 30
0.0
 11
7.42952310857212
 21
4.985277996644937
 31
0.0
1001
ACAD
1010
0.0
1020
0.0
1030
0.0
  0
LINE
  5
3FA0B
330
2
100
AcDbEntity
  8
HATCH
 62
     1
100
AcDbLine
 10
7.469012934435875
 20
4.611796602077361
 30
0.0
 11
7.498898775378627
 21
4.609181929794931
 31
0.0
1001
ACAD
1010
0.0
1020
0.0
1030
0.0
  0
LINE
  5
3FA0C
330
2
100
AcDbEntity
  8
HATCH
 62
     1
100
AcDbLine
 10
7.188133957514494
 20
4.266343845900858
 30
0.0
 11
7.209644350872092
 21
4.264461930334086
 31
0.0
1001
ACAD
1010
0.0
1020
0.0
1030
0.0
  0
LINE
  5
3FA0D
330
2
100
AcDbEntity
  8
HATCH
 62
     1
100
AcDbLine
 10
7.538388601242367
 20
4.235700535227358
 30
0.0
 11
7.56827444218512
 21
4.233085862944928
 31
0.0
1001
ACAD
1010
0.0
1020
0.0
1030
0.0
  0
LINE
  5
3FA0E
330
2
100
AcDbEntity
  8
HATCH
 62
     1
100
AcDbLine
 10
7.249134176735818
 20
3.890980535766506
 30
0.0
 11
7.27902001767857
 21
3.888365863484077
 31
0.0
1001
ACAD
1010
0.0
1020
0.0
1030
0.0
  0
LINE
  5
3FA0F
330
2
100
AcDbEntity
  8
HATCH
 62
     1
100
AcDbLine
 10
7.607764268048847
 20
3.859604468377348
 30
0.0
 11
7.637650108991598
 21
3.85698979609492
 31
0.0
1001
ACAD
1010
0.0
1020
0.0
1030
0.0
  0
LINE
  5
3FA10
330
2
100
AcDbEntity
  8
HATCH
 62
     1
100
AcDbLine
 10
7.318509843542326
 20
3.514884468916501
 30
0.0
 11
7.348395684485076
 21
3.512269796634071
 31
0.0
1001
ACAD
1010
0.0
1020
0.0
1030
0.0
  0
LINE
  5
3FA11
330
2
100
AcDbEntity
  8
HATCH
 62
     1
100
AcDbLine
 10
7.677139934855353
 20
3.483508401527343
 30
0.0
 11
7.688133957514494
 21
3.482546549178122
 31
0.0
1001
ACAD
1010
0.0
1020
0.0
1030
0.0
  0
LINE
  5
3FA12
330
2
100
AcDbEntity
  8
HATCH
 62
     1
100
AcDbLine
 10
7.387885510348832
 20
3.138788402066496
 30
0.0
 11
7.417771351291585
 21
3.136173729784066
 31
0.0
1001
ACAD
1010
0.0
1020
0.0
1030
0.0
  0
LINE
  5
3FA13
330
2
100
AcDbEntity
  8
HATCH
 62
     1
100
AcDbLine
 10
7.417792871299591
 20
3.136110107923296
 30
0.0
 11
7.412011590374211
 21
3.167451450366959
 31
0.0
1001
ACAD
1010
0.0
1020
0.0
1030
0.0
  0
LINE
  5
3FA14
330
2
100
AcDbEntity
  8
HATCH
 62
     1
100
AcDbLine
 10
7.348417498199624
 20
3.512206228064738
 30
0.0
 11
7.342636217274243
 21
3.543547570508399
 31
0.0
1001
ACAD
1010
0.0
1020
0.0
1030
0.0
  0
LINE
  5
3FA15
330
2
100
AcDbEntity
  8
HATCH
 62
     1
100
AcDbLine
 10
7.279042125099658
 20
3.888302348206178
 30
0.0
 11
7.273260844174277
 21
3.919643690649841
 31
0.0
1001
ACAD
1010
0.0
1020
0.0
1030
0.0
  0
LINE
  5
3FA16
330
2
100
AcDbEntity
  8
HATCH
 62
     1
100
AcDbLine
 10
7.20966675199969
 20
4.264398468347621
 30
0.0
 11
7.203885471074308
 21
4.295739810791283
 31
0.0
1001
ACAD
1010
0.0
1020
0.0
1030
0.0
  0
LINE
  5
3FA17
330
2
100
AcDbEntity
  8
HATCH
 62
     1
100
AcDbLine
 10
7.637672189056634
 20
3.856925999095211
 30
0.0
 11
7.631890908131254
 21
3.888267341538873
 31
0.0
1001
ACAD
1010
0.0
1020
0.0
1030
0.0
  0
LINE
  5
3FA18
330
2
100
AcDbEntity
  8
HATCH
 62
     1
100
AcDbLine
 10
7.568296815956667
 20
4.233022119236653
 30
0.0
 11
7.562515535031288
 21
4.264363461680314
 31
0.0
1001
ACAD
1010
0.0
1020
0.0
1030
0.0
  0
LINE
  5
3FA19
330
2
100
AcDbEntity
  8
HATCH
 62
     1
100
AcDbLine
 10
7.498921442856701
 20
4.609118239378093
 30
0.0
 11
7.493140161931322
 21
4.640459581821755
 31
0.0
1001
ACAD
1010
0.0
1020
0.0
1030
0.0
  0
LINE
  5
3FA1A
330
2
100
AcDbEntity
  8
HATCH
 62
     1
100
AcDbLine
 10
7.429546069756733
 20
4.985214359519535
 30
0.0
 11
7.423764788831355
 21
5.016555701963198
 31
0.0
1001
ACAD
1010
0.0
1020
0.0
1030
0.0
  0
LINE
  5
3FA1B
330
2
100
AcDbEntity
  8
HATCH
 62
     1
100
AcDbLine
 10
7.360170696656767
 20
5.361310479660976
 30
0.0
 11
7.354389415731387
 21
5.392651822104638
 31
0.0
1001
ACAD
1010
0.0
1020
0.0
1030
0.0
  0
LINE
  5
3FA1C
330
2
100
AcDbEntity
  8
HATCH
 62
     1
100
AcDbLine
 10
7.350816174889353
 20
5.341093952806165
 30
0.0
 11
7.389760422604956
 21
5.381682227835606
 31
0.0
1001
ACAD
1010
0.0
1020
0.0
1030
0.0
  0
LINE
  5
3FA1D
330
2
100
AcDbEntity
  8
HATCH
 62
     1
100
AcDbLine
 10
7.417105726614928
 20
4.771275145288335
 30
0.0
 11
7.456049974330531
 21
4.811863420317778
 31
0.0
1001
ACAD
1010
0.0
1020
0.0
1030
0.0
  0
LINE
  5
3FA1E
330
2
100
AcDbEntity
  8
HATCH
 62
     1
100
AcDbLine
 10
7.483395278340488
 20
4.20145633777053
 30
0.0
 11
7.522339526056092
 21
4.242044612799972
 31
0.0
1001
ACAD
1010
0.0
1020
0.0
1030
0.0
  0
LINE
  5
3FA1F
330
2
100
AcDbEntity
  8
HATCH
 62
     1
100
AcDbLine
 10
7.549684830066062
 20
3.631637530252711
 30
0.0
 11
7.588629077781667
 21
3.672225805282153
 31
0.0
1001
ACAD
1010
0.0
1020
0.0
1030
0.0
  0
LINE
  5
3FA20
330
2
100
AcDbEntity
  8
HATCH
 62
     1
100
AcDbLine
 10
7.615974381791637
 20
3.061818722734891
 30
0.0
 11
7.654918629507242
 21
3.102406997764332
 31
0.0
1001
ACAD
1010
0.0
1020
0.0
1030
0.0
  0
LINE
  5
3FA21
330
2
100
AcDbEntity
  8
HATCH
 62
     1
100
AcDbLine
 10
7.660463956657983
 20
3.054866099476948
 30
0.0
 11
7.654939864424772
 21
3.102351004424306
 31
0.0
1001
ACAD
1010
0.0
1020
0.0
1030
0.0
  0
LINE
  5
3FA22
330
2
100
AcDbEntity
  8
HATCH
 62
     1
100
AcDbLine
 10
7.594174859566012
 20
3.624684875407957
 30
0.0
 11
7.588650767332802
 21
3.672169780355316
 31
0.0
1001
ACAD
1010
0.0
1020
0.0
1030
0.0
  0
LINE
  5
3FA23
330
2
100
AcDbEntity
  8
HATCH
 62
     1
100
AcDbLine
 10
7.527885762474043
 20
4.194503651338966
 30
0.0
 11
7.52236167024083
 21
4.241988556286325
 31
0.0
1001
ACAD
1010
0.0
1020
0.0
1030
0.0
  0
LINE
  5
3FA24
330
2
100
AcDbEntity
  8
HATCH
 62
     1
100
AcDbLine
 10
7.461596665382071
 20
4.764322427269974
 30
0.0
 11
7.456072573148858
 21
4.811807332217333
 31
0.0
1001
ACAD
1010
0.0
1020
0.0
1030
0.0
  0
LINE
  5
3FA25
330
2
100
AcDbEntity
  8
HATCH
 62
     1
100
AcDbLine
 10
7.3953075682901
 20
5.334141203200983
 30
0.0
 11
7.389783476056887
 21
5.381626108148342
 31
0.0
1001
ACAD
1010
0.0
1020
0.0
1030
0.0
  0
LINE
  5
3FA26
330
2
100
AcDbEntity
  8
HATCH
 62
     1
100
AcDbLine
 10
7.350816175762671
 20
5.341093973961574
 30
0.0
 11
7.395284552791168
 21
5.334197348377164
 31
0.0
1001
ACAD
1010
0.0
1020
0.0
1030
0.0
  0
LINE
  5
3FA27
330
2
100
AcDbEntity
  8
HATCH
 62
     1
100
AcDbLine
 10
7.417105727537811
 20
4.771275166486014
 30
0.0
 11
7.461574104566308
 21
4.764378540901606
 31
0.0
1001
ACAD
1010
0.0
1020
0.0
1030
0.0
  0
LINE
  5
3FA28
330
2
100
AcDbEntity
  8
HATCH
 62
     1
100
AcDbLine
 10
7.483395279312968
 20
4.20145635901045
 30
0.0
 11
7.527863656341462
 21
4.19455973342604
 31
0.0
1001
ACAD
1010
0.0
1020
0.0
1030
0.0
  0
LINE
  5
3FA29
330
2
100
AcDbEntity
  8
HATCH
 62
     1
100
AcDbLine
 10
7.549684831088106
 20
3.631637551534883
 30
0.0
 11
7.594153208116602
 21
3.624740925950475
 31
0.0
1001
ACAD
1010
0.0
1020
0.0
1030
0.0
  0
LINE
  5
3FA2A
330
2
100
AcDbEntity
  8
HATCH
 62
     1
100
AcDbLine
 10
7.61597438286324
 20
3.061818744059318
 30
0.0
 11
7.660442759891736
 21
3.05492211847491
 31
0.0
1001
ACAD
1010
0.0
1020
0.0
1030
0.0
  0
LINE
  5
3FA2B
330
2
100
AcDbEntity
  8
HATCH
 62
     1
100
AcDbLine
 10
7.430351952946877
 20
5.163432800173453
 30
0.0
 11
7.465361218940522
 21
5.176871598281401
 31
0.0
1001
ACAD
1010
0.0
1020
0.0
1030
0.0
  0
LINE
  5
3FA2C
330
2
100
AcDbEntity
  8
HATCH
 62
     1
100
AcDbLine
 10
7.308694287082357
 20
4.800857777545391
 30
0.0
 11
7.343703553076002
 21
4.814296575653339
 31
0.0
1001
ACAD
1010
0.0
1020
0.0
1030
0.0
  0
LINE
  5
3FA2D
330
2
100
AcDbEntity
  8
HATCH
 62
     1
100
AcDbLine
 10
7.188133957514466
 20
4.438703982855951
 30
0.0
 11
7.22204588721151
 21
4.451721553025295
 31
0.0
1001
ACAD
1010
0.0
1020
0.0
1030
0.0
  0
LINE
  5
3FA2E
330
2
100
AcDbEntity
  8
HATCH
 62
     1
100
AcDbLine
 10
7.607147813141606
 20
4.599548332212733
 30
0.0
 11
7.642157079135253
 21
4.612987130320681
 31
0.0
1001
ACAD
1010
0.0
1020
0.0
1030
0.0
  0
LINE
  5
3FA2F
330
2
100
AcDbEntity
  8
HATCH
 62
     1
100
AcDbLine
 10
7.485490147277075
 20
4.236973309584671
 30
0.0
 11
7.520499413270719
 21
4.25041210769262
 31
0.0
1001
ACAD
1010
0.0
1020
0.0
1030
0.0
  0
LINE
  5
3FA30
330
2
100
AcDbEntity
  8
HATCH
 62
     1
100
AcDbLine
 10
7.363832481412582
 20
3.874398286956618
 30
0.0
 11
7.398841747406228
 21
3.887837085064568
 31
0.0
1001
ACAD
1010
0.0
1020
0.0
1030
0.0
  0
LINE
  5
3FA31
330
2
100
AcDbEntity
  8
HATCH
 62
     1
100
AcDbLine
 10
7.242174815548076
 20
3.511823264328571
 30
0.0
 11
7.277184081541721
 21
3.525262062436521
 31
0.0
1001
ACAD
1010
0.0
1020
0.0
1030
0.0
  0
LINE
  5
3FA32
330
2
100
AcDbEntity
  8
HATCH
 62
     1
100
AcDbLine
 10
7.662286007471817
 20
3.673088841623957
 30
0.0
 11
7.688133957514468
 21
3.683010940024723
 31
0.0
1001
ACAD
1010
0.0
1020
0.0
1030
0.0
  0
LINE
  5
3FA33
330
2
100
AcDbEntity
  8
HATCH
 62
     1
100
AcDbLine
 10
7.540628341607301
 20
3.310513818995896
 30
0.0
 11
7.575637607600946
 21
3.323952617103845
 31
0.0
1001
ACAD
1010
0.0
1020
0.0
1030
0.0
  0
LINE
  5
3FA34
330
2
100
AcDbEntity
  8
HATCH
 62
     1
100
AcDbLine
 10
7.418970675742782
 20
2.947938796367836
 30
0.0
 11
7.453979941736427
 21
2.961377594475784
 31
0.0
1001
ACAD
1010
0.0
1020
0.0
1030
0.0
  0
LINE
  5
3FA35
330
2
100
AcDbEntity
  8
HATCH
 62
     1
100
AcDbLine
 10
7.430351983029272
 20
5.163432796247222
 30
0.0
 11
7.455223110205923
 21
5.146657009143098
 31
0.0
1001
ACAD
1010
0.0
1020
0.0
1030
0.0
  0
LINE
  5
3FA36
330
2
100
AcDbEntity
  8
HATCH
 62
     1
100
AcDbLine
 10
7.308694317068494
 20
4.800857773723794
 30
0.0
 11
7.333565444245143
 21
4.78408198661967
 31
0.0
1001
ACAD
1010
0.0
1020
0.0
1030
0.0
  0
LINE
  5
3FA37
330
2
100
AcDbEntity
  8
HATCH
 62
     1
100
AcDbLine
 10
7.607147843188308
 20
4.599548328474324
 30
0.0
 11
7.63201897036496
 21
4.582772541370203
 31
0.0
1001
ACAD
1010
0.0
1020
0.0
1030
0.0
  0
LINE
  5
3FA38
330
2
100
AcDbEntity
  8
HATCH
 62
     1
100
AcDbLine
 10
7.18813395751448
 20
4.437542608683408
 30
0.0
 11
7.211907778284347
 21
4.421506964096248
 31
0.0
1001
ACAD
1010
0.0
1020
0.0
1030
0.0
  0
LINE
  5
3FA39
330
2
100
AcDbEntity
  8
HATCH
 62
     1
100
AcDbLine
 10
7.48549017722751
 20
4.236973305950901
 30
0.0
 11
7.510361304404161
 21
4.220197518846778
 31
0.0
1001
ACAD
1010
0.0
1020
0.0
1030
0.0
  0
LINE
  5
3FA3A
330
2
100
AcDbEntity
  8
HATCH
 62
     1
100
AcDbLine
 10
7.363832511266723
 20
3.874398283427476
 30
0.0
 11
7.388703638443375
 21
3.857622496323353
 31
0.0
1001
ACAD
1010
0.0
1020
0.0
1030
0.0
  0
LINE
  5
3FA3B
330
2
100
AcDbEntity
  8
HATCH
 62
     1
100
AcDbLine
 10
7.66228603738654
 20
3.673088838178008
 30
0.0
 11
7.68715716456319
 21
3.656313051073886
 31
0.0
1001
ACAD
1010
0.0
1020
0.0
1030
0.0
  0
LINE
  5
3FA3C
330
2
100
AcDbEntity
  8
HATCH
 62
     1
100
AcDbLine
 10
7.242174845305926
 20
3.511823260904046
 30
0.0
 11
7.267045972482577
 21
3.495047473799922
 31
0.0
1001
ACAD
1010
0.0
1020
0.0
1030
0.0
  0
LINE
  5
3FA3D
330
2
100
AcDbEntity
  8
HATCH
 62
     1
100
AcDbLine
 10
7.54062837142574
 20
3.310513815654576
 30
0.0
 11
7.565499498602392
 21
3.293738028550455
 31
0.0
1001
ACAD
1010
0.0
1020
0.0
1030
0.0
  0
LINE
  5
3FA3E
330
2
100
AcDbEntity
  8
HATCH
 62
     1
100
AcDbLine
 10
7.418970705464966
 20
2.947938793131145
 30
0.0
 11
7.443841832641616
 21
2.931163006027022
 31
0.0
1001
ACAD
1010
0.0
1020
0.0
1030
0.0
  0
LINE
  5
3FA3F
330
2
100
AcDbEntity
  8
HATCH
 62
     1
100
AcDbLine
 10
7.211930223293659
 20
4.421443849964987
 30
0.0
 11
7.222068385391936
 21
4.451658426324387
 31
0.0
1001
ACAD
1010
0.0
1020
0.0
1030
0.0
  0
LINE
  5
3FA40
330
2
100
AcDbEntity
  8
HATCH
 62
     1
100
AcDbLine
 10
7.333588171972173
 20
4.7840187767064
 30
0.0
 11
7.343726334070449
 21
4.8142333530658
 31
0.0
1001
ACAD
1010
0.0
1020
0.0
1030
0.0
  0
LINE
  5
3FA41
330
2
100
AcDbEntity
  8
HATCH
 62
     1
100
AcDbLine
 10
7.455246120650687
 20
5.146593703447813
 30
0.0
 11
7.465384282748964
 21
5.176808279807214
 31
0.0
1001
ACAD
1010
0.0
1020
0.0
1030
0.0
  0
LINE
  5
3FA42
330
2
100
AcDbEntity
  8
HATCH
 62
     1
100
AcDbLine
 10
7.267067691548867
 20
3.494984318095724
 30
0.0
 11
7.277205853647143
 21
3.525198894455126
 31
0.0
1001
ACAD
1010
0.0
1020
0.0
1030
0.0
  0
LINE
  5
3FA43
330
2
100
AcDbEntity
  8
HATCH
 62
     1
100
AcDbLine
 10
7.388725640227383
 20
3.857559244837137
 30
0.0
 11
7.398863802325657
 21
3.887773821196539
 31
0.0
1001
ACAD
1010
0.0
1020
0.0
1030
0.0
  0
LINE
  5
3FA44
330
2
100
AcDbEntity
  8
HATCH
 62
     1
100
AcDbLine
 10
7.510383588905895
 20
4.220134171578551
 30
0.0
 11
7.520521751004172
 21
4.250348747937953
 31
0.0
1001
ACAD
1010
0.0
1020
0.0
1030
0.0
  0
LINE
  5
3FA45
330
2
100
AcDbEntity
  8
HATCH
 62
     1
100
AcDbLine
 10
7.632041537584409
 20
4.582709098319964
 30
0.0
 11
7.642179699682687
 21
4.612923674679366
 31
0.0
1001
ACAD
1010
0.0
1020
0.0
1030
0.0
  0
LINE
  5
3FA46
330
2
100
AcDbEntity
  8
HATCH
 62
     1
100
AcDbLine
 10
7.443863108482587
 20
2.93109971296787
 30
0.0
 11
7.454001270580865
 21
2.961314289327271
 31
0.0
1001
ACAD
1010
0.0
1020
0.0
1030
0.0
  0
LINE
  5
3FA47
330
2
100
AcDbEntity
  8
HATCH
 62
     1
100
AcDbLine
 10
7.565521057161102
 20
3.293674639709283
 30
0.0
 11
7.575659219259378
 21
3.323889216068683
 31
0.0
1001
ACAD
1010
0.0
1020
0.0
1030
0.0
  0
LINE
  5
3FA48
330
2
100
AcDbEntity
  8
HATCH
 62
     1
100
AcDbLine
 10
7.687179005839617
 20
3.656249566450694
 30
0.0
 11
7.688133957514491
 21
3.659095591205511
 31
0.0
1001
ACAD
1010
0.0
1020
0.0
1030
0.0
  0
LINE
  5
3FABD
330
2
100
AcDbEntity
  8
0
100
AcDbLine
 10
6.25063395751448
 20
3.548464789460239
 30
0.0
 11
6.25063395751448
 21
3.493464789460232
 31
0.0
  0
LINE
  5
3FABE
330
2
100
AcDbEntity
  8
0
100
AcDbLine
 10
6.25063395751448
 20
3.493464789460232
 30
0.0
 11
7.18813395751448
 21
3.493464789460232
 31
0.0
  0
LINE
  5
3FABF
330
2
100
AcDbEntity
  8
0
100
AcDbLine
 10
7.18813395751448
 20
3.493464789460232
 30
0.0
 11
7.18813395751448
 21
4.430964789460233
 31
0.0
  0
LINE
  5
3FAC0
330
2
100
AcDbEntity
  8
0
100
AcDbLine
 10
7.18813395751448
 20
4.430964789460233
 30
0.0
 11
7.133133957514487
 21
4.430964789460233
 31
0.0
  0
LINE
  5
3FAC1
330
2
100
AcDbEntity
  8
0
100
AcDbLine
 10
7.133133957514487
 20
4.430964789460233
 30
0.0
 11
7.133133957514487
 21
3.548464789460239
 31
0.0
  0
LINE
  5
3FAC2
330
2
100
AcDbEntity
  8
0
100
AcDbLine
 10
7.133133957514487
 20
3.548464789460239
 30
0.0
 11
6.25063395751448
 21
3.548464789460239
 31
0.0
  0
LINE
  5
3FAC3
330
2
100
AcDbEntity
  8
HATCH
100
AcDbLine
 10
6.754289879378853
 20
3.548464789460247
 30
0.0
 11
6.733133957514391
 21
3.569620711324706
 31
0.0
1001
ACAD
1010
0.0
1020
0.0
1030
0.0
  0
LINE
  5
3FAC4
330
2
100
AcDbEntity
  8
HATCH
100
AcDbLine
 10
6.798484053203019
 20
3.548464789460239
 30
0.0
 11
6.73313395751439
 21
3.613814885148868
 31
0.0
1001
ACAD
1010
0.0
1020
0.0
1030
0.0
  0
LINE
  5
3FAC5
330
2
100
AcDbEntity
  8
HATCH
100
AcDbLine
 10
6.842678227027163
 20
3.548464789460247
 30
0.0
 11
6.792678227027181
 21
3.598464789460229
 31
0.0
1001
ACAD
1010
0.0
1020
0.0
1030
0.0
  0
LINE
  5
3FAC6
330
2
100
AcDbEntity
  8
HATCH
100
AcDbLine
 10
6.783133957514337
 20
3.60800905897307
 30
0.0
 11
6.767678227027164
 21
3.623464789460245
 31
0.0
1001
ACAD
1010
0.0
1020
0.0
1030
0.0
  0
LINE
  5
3FAC7
330
2
100
AcDbEntity
  8
HATCH
100
AcDbLine
 10
6.886872400851338
 20
3.548464789460239
 30
0.0
 11
6.836872400851332
 21
3.598464789460243
 31
0.0
1001
ACAD
1010
0.0
1020
0.0
1030
0.0
  0
LINE
  5
3FAC8
330
2
100
AcDbEntity
  8
HATCH
100
AcDbLine
 10
6.736872400851327
 20
3.698464789460248
 30
0.0
 11
6.733133957514386
 21
3.702203232797191
 31
0.0
1001
ACAD
1010
0.0
1020
0.0
1030
0.0
  0
LINE
  5
3FAC9
330
2
100
AcDbEntity
  8
HATCH
100
AcDbLine
 10
6.931066574675482
 20
3.548464789460247
 30
0.0
 11
6.8810665746755
 21
3.598464789460229
 31
0.0
1001
ACAD
1010
0.0
1020
0.0
1030
0.0
  0
LINE
  5
3FACA
330
2
100
AcDbEntity
  8
HATCH
100
AcDbLine
 10
6.781066574675481
 20
3.698464789460248
 30
0.0
 11
6.733133957514372
 21
3.746397406621357
 31
0.0
1001
ACAD
1010
0.0
1020
0.0
1030
0.0
  0
LINE
  5
3FACB
330
2
100
AcDbEntity
  8
HATCH
100
AcDbLine
 10
6.975260748499656
 20
3.548464789460239
 30
0.0
 11
6.908133957514343
 21
3.615591580445553
 31
0.0
1001
ACAD
1010
0.0
1020
0.0
1030
0.0
  0
LINE
  5
3FACC
330
2
100
AcDbEntity
  8
HATCH
100
AcDbLine
 10
6.800260748499662
 20
3.723464789460233
 30
0.0
 11
6.750260748499655
 21
3.773464789460241
 31
0.0
1001
ACAD
1010
0.0
1020
0.0
1030
0.0
  0
LINE
  5
3FACD
330
2
100
AcDbEntity
  8
HATCH
100
AcDbLine
 10
7.019454922323802
 20
3.548464789460247
 30
0.0
 11
6.969454922323808
 21
3.598464789460241
 31
0.0
1001
ACAD
1010
0.0
1020
0.0
1030
0.0
  0
LINE
  5
3FACE
330
2
100
AcDbEntity
  8
HATCH
100
AcDbLine
 10
6.844454922323808
 20
3.723464789460241
 30
0.0
 11
6.794454922323811
 21
3.773464789460238
 31
0.0
1001
ACAD
1010
0.0
1020
0.0
1030
0.0
  0
LINE
  5
3FACF
330
2
100
AcDbEntity
  8
HATCH
100
AcDbLine
 10
6.958133957514522
 20
3.609785754269526
 30
0.0
 11
6.908133957514332
 21
3.659785754269711
 31
0.0
1001
ACAD
1010
0.0
1020
0.0
1030
0.0
  0
LINE
  5
3FAD0
330
2
100
AcDbEntity
  8
HATCH
100
AcDbLine
 10
7.063649096147972
 20
3.548464789460239
 30
0.0
 11
7.013649096147974
 21
3.598464789460241
 31
0.0
1001
ACAD
1010
0.0
1020
0.0
1030
0.0
  0
LINE
  5
3FAD1
330
2
100
AcDbEntity
  8
HATCH
100
AcDbLine
 10
6.888649096147978
 20
3.723464789460233
 30
0.0
 11
6.838649096147975
 21
3.773464789460241
 31
0.0
1001
ACAD
1010
0.0
1020
0.0
1030
0.0
  0
LINE
  5
3FAD2
330
2
100
AcDbEntity
  8
HATCH
100
AcDbLine
 10
6.958133957514526
 20
3.653979928093689
 30
0.0
 11
6.908133957514337
 21
3.703979928093874
 31
0.0
1001
ACAD
1010
0.0
1020
0.0
1030
0.0
  0
LINE
  5
3FAD3
330
2
100
AcDbEntity
  8
HATCH
100
AcDbLine
 10
7.090488613743325
 20
3.565819445689044
 30
0.0
 11
7.055133274683927
 21
3.601174784748439
 31
0.0
1001
ACAD
1010
0.0
1020
0.0
1030
0.0
  0
LINE
  5
3FAD4
330
2
100
AcDbEntity
  8
HATCH
100
AcDbLine
 10
6.958133957514522
 20
3.698174101917846
 30
0.0
 11
6.882843269972133
 21
3.773464789460234
 31
0.0
1001
ACAD
1010
0.0
1020
0.0
1030
0.0
  0
LINE
  5
3FAD5
330
2
100
AcDbEntity
  8
HATCH
100
AcDbLine
 10
7.112585700655396
 20
3.587916532601138
 30
0.0
 11
7.077230361596071
 21
3.623271871660462
 31
0.0
1001
ACAD
1010
0.0
1020
0.0
1030
0.0
  0
LINE
  5
3FAD6
330
2
100
AcDbEntity
  8
HATCH
100
AcDbLine
 10
6.958133957514526
 20
3.742368275742006
 30
0.0
 11
6.927037443796296
 21
3.773464789460238
 31
0.0
1001
ACAD
1010
0.0
1020
0.0
1030
0.0
  0
LINE
  5
3FAD7
330
2
100
AcDbEntity
  8
HATCH
100
AcDbLine
 10
7.133133957514487
 20
3.6115624495662
 30
0.0
 11
7.089682787567486
 21
3.655013619513201
 31
0.0
1001
ACAD
1010
0.0
1020
0.0
1030
0.0
  0
LINE
  5
3FAD8
330
2
100
AcDbEntity
  8
HATCH
100
AcDbLine
 10
7.13313395751449
 20
3.655756623390363
 30
0.0
 11
7.08313395751453
 21
3.705756623390325
 31
0.0
1001
ACAD
1010
0.0
1020
0.0
1030
0.0
  0
LINE
  5
3FAD9
330
2
100
AcDbEntity
  8
HATCH
100
AcDbLine
 10
7.133133957514487
 20
3.699950797214518
 30
0.0
 11
7.083133957514518
 21
3.749950797214483
 31
0.0
1001
ACAD
1010
0.0
1020
0.0
1030
0.0
  0
LINE
  5
3FADA
330
2
100
AcDbEntity
  8
HATCH
100
AcDbLine
 10
7.13313395751449
 20
3.744144971038681
 30
0.0
 11
7.088474048303726
 21
3.788804880249446
 31
0.0
1001
ACAD
1010
0.0
1020
0.0
1030
0.0
  0
LINE
  5
3FADB
330
2
100
AcDbEntity
  8
HATCH
100
AcDbLine
 10
7.133133957514487
 20
3.788339144862837
 30
0.0
 11
7.090571135215801
 21
3.830901967161523
 31
0.0
1001
ACAD
1010
0.0
1020
0.0
1030
0.0
  0
LINE
  5
3FADC
330
2
100
AcDbEntity
  8
HATCH
100
AcDbLine
 10
7.13313395751449
 20
3.832533318686993
 30
0.0
 11
7.09266822212788
 21
3.872999054073606
 31
0.0
1001
ACAD
1010
0.0
1020
0.0
1030
0.0
  0
LINE
  5
3FADD
330
2
100
AcDbEntity
  8
HATCH
100
AcDbLine
 10
7.133133957514487
 20
3.876727492511157
 30
0.0
 11
7.084765309039966
 21
3.925096140985678
 31
0.0
1001
ACAD
1010
0.0
1020
0.0
1030
0.0
  0
LINE
  5
3FADE
330
2
100
AcDbEntity
  8
HATCH
100
AcDbLine
 10
7.13313395751449
 20
3.920921666335312
 30
0.0
 11
7.086862395952035
 21
3.967193227897768
 31
0.0
1001
ACAD
1010
0.0
1020
0.0
1030
0.0
  0
LINE
  5
3FADF
330
2
100
AcDbEntity
  8
HATCH
100
AcDbLine
 10
7.133133957514487
 20
3.965115840159477
 30
0.0
 11
7.088959482864125
 21
4.009290314809837
 31
0.0
1001
ACAD
1010
0.0
1020
0.0
1030
0.0
  0
LINE
  5
3FAE0
330
2
100
AcDbEntity
  8
HATCH
100
AcDbLine
 10
7.13313395751449
 20
4.009310013983633
 30
0.0
 11
7.091056569776196
 21
4.051387401721927
 31
0.0
1001
ACAD
1010
0.0
1020
0.0
1030
0.0
  0
LINE
  5
3FAE1
330
2
100
AcDbEntity
  8
HATCH
100
AcDbLine
 10
7.133133957514487
 20
4.053504187807791
 30
0.0
 11
7.083153656688272
 21
4.103484488634013
 31
0.0
1001
ACAD
1010
0.0
1020
0.0
1030
0.0
  0
LINE
  5
3FAE2
330
2
100
AcDbEntity
  8
HATCH
100
AcDbLine
 10
7.13313395751449
 20
4.097698361631948
 30
0.0
 11
7.085250743600357
 21
4.145581575546085
 31
0.0
1001
ACAD
1010
0.0
1020
0.0
1030
0.0
  0
LINE
  5
3FAE3
330
2
100
AcDbEntity
  8
HATCH
100
AcDbLine
 10
7.13313395751449
 20
4.141892535456111
 30
0.0
 11
7.087347830512431
 21
4.187678662458167
 31
0.0
1001
ACAD
1010
0.0
1020
0.0
1030
0.0
  0
LINE
  5
3FAE4
330
2
100
AcDbEntity
  8
HATCH
100
AcDbLine
 10
7.133133957514487
 20
4.186086709280266
 30
0.0
 11
7.089444917424517
 21
4.229775749370237
 31
0.0
1001
ACAD
1010
0.0
1020
0.0
1030
0.0
  0
LINE
  5
3FAE5
330
2
100
AcDbEntity
  8
HATCH
100
AcDbLine
 10
7.13313395751449
 20
4.23028088310443
 30
0.0
 11
7.091542004336591
 21
4.271872836282326
 31
0.0
1001
ACAD
1010
0.0
1020
0.0
1030
0.0
  0
LINE
  5
3FAE6
330
2
100
AcDbEntity
  8
HATCH
100
AcDbLine
 10
7.133133957514487
 20
4.274475056928586
 30
0.0
 11
7.083639091248662
 21
4.323969923194411
 31
0.0
1001
ACAD
1010
0.0
1020
0.0
1030
0.0
  0
LINE
  5
3FAE7
330
2
100
AcDbEntity
  8
HATCH
100
AcDbLine
 10
7.13313395751449
 20
4.31866923075275
 30
0.0
 11
7.085736178160761
 21
4.36606701010648
 31
0.0
1001
ACAD
1010
0.0
1020
0.0
1030
0.0
  0
LINE
  5
3FAE8
330
2
100
AcDbEntity
  8
HATCH
100
AcDbLine
 10
7.133133957514487
 20
4.362863404576906
 30
0.0
 11
7.087833265072831
 21
4.408164097018564
 31
0.0
1001
ACAD
1010
0.0
1020
0.0
1030
0.0
  0
LINE
  5
3FAE9
330
2
100
AcDbEntity
  8
HATCH
100
AcDbLine
 10
7.13313395751449
 20
4.407057578401068
 30
0.0
 11
7.089930351984914
 21
4.450261183930641
 31
0.0
1001
ACAD
1010
0.0
1020
0.0
1030
0.0
  0
LINE
  5
3FAEA
330
2
100
AcDbEntity
  8
HATCH
100
AcDbLine
 10
7.133133957514487
 20
4.451251752225224
 30
0.0
 11
7.092027438896978
 21
4.492358270842736
 31
0.0
1001
ACAD
1010
0.0
1020
0.0
1030
0.0
  0
LINE
  5
3FAEB
330
2
100
AcDbEntity
  8
HATCH
100
AcDbLine
 10
7.13313395751448
 20
4.495445926049398
 30
0.0
 11
7.105115094103634
 21
4.523464789460245
 31
0.0
1001
ACAD
1010
0.0
1020
0.0
1030
0.0
  0
LINE
  5
3FAEC
330
2
100
AcDbEntity
  8
HATCH
100
AcDbLine
 10
3.782014315774866
 20
4.022649074412584
 30
0.0
 11
3.807830030822522
 21
4.04846478946024
 31
0.0
1001
ACAD
1010
0.0
1020
0.0
1030
0.0
  0
LINE
  5
3FAED
330
2
100
AcDbEntity
  8
HATCH
100
AcDbLine
 10
3.782014315774866
 20
3.845872379115945
 30
0.0
 11
3.98460672611916
 21
4.048464789460233
 31
0.0
1001
ACAD
1010
0.0
1020
0.0
1030
0.0
  0
LINE
  5
3FAEE
330
2
100
AcDbEntity
  8
HATCH
100
AcDbLine
 10
3.782014315774872
 20
3.669095683819306
 30
0.0
 11
4.161383421415798
 21
4.048464789460233
 31
0.0
1001
ACAD
1010
0.0
1020
0.0
1030
0.0
  0
LINE
  5
3FAEF
330
2
100
AcDbEntity
  8
HATCH
100
AcDbLine
 10
3.83816011671243
 20
3.548464789460232
 30
0.0
 11
4.33816011671243
 21
4.048464789460233
 31
0.0
1001
ACAD
1010
0.0
1020
0.0
1030
0.0
  0
LINE
  5
3FAF0
330
2
100
AcDbEntity
  8
HATCH
100
AcDbLine
 10
4.014936812009068
 20
3.548464789460232
 30
0.0
 11
4.514936812009068
 21
4.048464789460233
 31
0.0
1001
ACAD
1010
0.0
1020
0.0
1030
0.0
  0
LINE
  5
3FAF1
330
2
100
AcDbEntity
  8
HATCH
100
AcDbLine
 10
4.191713507305705
 20
3.548464789460232
 30
0.0
 11
4.691713507305705
 21
4.048464789460233
 31
0.0
1001
ACAD
1010
0.0
1020
0.0
1030
0.0
  0
LINE
  5
3FAF2
330
2
100
AcDbEntity
  8
HATCH
100
AcDbLine
 10
4.368490202602345
 20
3.548464789460226
 30
0.0
 11
4.868490202602338
 21
4.048464789460226
 31
0.0
1001
ACAD
1010
0.0
1020
0.0
1030
0.0
  0
LINE
  5
3FAF3
330
2
100
AcDbEntity
  8
HATCH
100
AcDbLine
 10
4.545266897898977
 20
3.548464789460226
 30
0.0
 11
5.045266897898977
 21
4.048464789460218
 31
0.0
1001
ACAD
1010
0.0
1020
0.0
1030
0.0
  0
LINE
  5
3FAF4
330
2
100
AcDbEntity
  8
HATCH
100
AcDbLine
 10
4.722043593195612
 20
3.548464789460226
 30
0.0
 11
5.046481800942287
 21
3.8729029972069
 31
0.0
1001
ACAD
1010
0.0
1020
0.0
1030
0.0
  0
LINE
  5
3FAF5
330
2
100
AcDbEntity
  8
HATCH
100
AcDbLine
 10
4.898820288492252
 20
3.548464789460226
 30
0.0
 11
5.046481800942287
 21
3.696126301910261
 31
0.0
1001
ACAD
1010
0.0
1020
0.0
1030
0.0
  0
LWPOLYLINE
  5
3FAF6
330
2
100
AcDbEntity
  8
0
100
AcDbPolyline
 90
      100
 70
     1
 43
0.0
 10
7.083133957514518
 20
4.223464789460233
 10
7.09313395751451
 20
4.233464789460239
 10
7.083133957514518
 20
4.243464789460243
 10
7.09313395751451
 20
4.253464789460234
 10
7.083133957514518
 20
4.26346478946024
 10
7.09313395751451
 20
4.273464789460232
 10
7.083133957514518
 20
4.283464789460236
 10
7.09313395751451
 20
4.293464789460241
 10
7.083133957514518
 20
4.303464789460231
 10
7.09313395751451
 20
4.313464789460237
 10
7.083133957514518
 20
4.323464789460241
 10
7.09313395751451
 20
4.333464789460232
 10
7.083133957514518
 20
4.343464789460238
 10
7.09313395751451
 20
4.353464789460242
 10
7.083133957514518
 20
4.363464789460233
 10
7.09313395751451
 20
4.373464789460238
 10
7.083133957514518
 20
4.383464789460243
 10
7.09313395751451
 20
4.393464789460234
 10
7.083133957514518
 20
4.403464789460239
 10
7.09313395751451
 20
4.413464789460245
 10
7.083133957514518
 20
4.423464789460236
 10
7.09313395751451
 20
4.433464789460241
 10
7.083133957514518
 20
4.443464789460231
 10
7.09313395751451
 20
4.453464789460237
 10
7.083133957514518
 20
4.463464789460243
 10
7.09313395751451
 20
4.473464789460233
 10
7.083133957514518
 20
4.483464789460238
 10
7.09313395751451
 20
4.493464789460244
 10
7.083133957514518
 20
4.503464789460235
 10
7.09313395751451
 20
4.51346478946024
 10
7.083133957514518
 20
4.523464789460232
 10
7.133133957514472
 20
4.523464789460232
 10
7.133133957514472
 20
3.683464789460241
 10
7.123133957514482
 20
3.673464789460236
 10
7.133133957514472
 20
3.663464789460231
 10
7.133133957514472
 20
3.608464789460238
 10
7.073133957514526
 20
3.548464789460236
 10
6.733133957514382
 20
3.548464789460236
 10
6.733133957514382
 20
3.623464789460238
 10
6.783133957514337
 20
3.623464789460238
 10
6.783133957514337
 20
3.598464789460233
 10
6.908133957514337
 20
3.598464789460233
 10
6.908133957514337
 20
3.723464789460233
 10
6.783133957514337
 20
3.723464789460233
 10
6.783133957514337
 20
3.698464789460241
 10
6.733133957514382
 20
3.698464789460241
 10
6.733133957514382
 20
3.773464789460231
 10
6.958133957514518
 20
3.773464789460231
 10
6.958133957514518
 20
3.598464789460233
 10
7.052423279395724
 20
3.598464789460233
 10
7.083133957514518
 20
3.629175467578899
 10
7.083133957514518
 20
3.648464789460231
 10
7.09313395751451
 20
3.658464789460236
 10
7.083133957514518
 20
3.668464789460241
 10
7.083133957514518
 20
3.76346478946024
 10
7.09313395751451
 20
3.773464789460231
 10
7.083133957514518
 20
3.783464789460236
 10
7.09313395751451
 20
3.793464789460241
 10
7.083133957514518
 20
3.803464789460231
 10
7.09313395751451
 20
3.813464789460237
 10
7.083133957514518
 20
3.823464789460241
 10
7.09313395751451
 20
3.833464789460233
 10
7.083133957514518
 20
3.843464789460238
 10
7.09313395751451
 20
3.853464789460243
 10
7.083133957514518
 20
3.863464789460234
 10
7.09313395751451
 20
3.873464789460238
 10
7.083133957514518
 20
3.883464789460243
 10
7.09313395751451
 20
3.893464789460234
 10
7.083133957514518
 20
3.903464789460239
 10
7.09313395751451
 20
3.913464789460231
 10
7.083133957514518
 20
3.923464789460236
 10
7.09313395751451
 20
3.933464789460241
 10
7.083133957514518
 20
3.943464789460231
 10
7.09313395751451
 20
3.953464789460237
 10
7.083133957514518
 20
3.963464789460243
 10
7.09313395751451
 20
3.973464789460233
 10
7.083133957514518
 20
3.983464789460238
 10
7.09313395751451
 20
3.993464789460243
 10
7.083133957514518
 20
4.003464789460234
 10
7.09313395751451
 20
4.01346478946024
 10
7.083133957514518
 20
4.023464789460232
 10
7.09313395751451
 20
4.033464789460236
 10
7.083133957514518
 20
4.043464789460241
 10
7.09313395751451
 20
4.053464789460231
 10
7.083133957514518
 20
4.063464789460237
 10
7.09313395751451
 20
4.073464789460241
 10
7.083133957514518
 20
4.083464789460232
 10
7.09313395751451
 20
4.093464789460238
 10
7.083133957514518
 20
4.103464789460242
 10
7.09313395751451
 20
4.113464789460233
 10
7.083133957514518
 20
4.123464789460238
 10
7.09313395751451
 20
4.133464789460243
 10
7.083133957514518
 20
4.143464789460234
 10
7.09313395751451
 20
4.153464789460239
 10
7.083133957514518
 20
4.163464789460231
 10
7.09313395751451
 20
4.173464789460236
 10
7.083133957514518
 20
4.183464789460241
 10
7.09313395751451
 20
4.193464789460231
 10
7.083133957514518
 20
4.203464789460237
 10
7.09313395751451
 20
4.213464789460243
  0
LINE
  5
3FAF7
330
2
100
AcDbEntity
  8
IMAGE
100
AcDbLine
 10
6.022599792292608
 20
3.588464789460234
 30
0.0
 11
6.007599792292608
 21
4.048464789460236
 31
0.0
  0
LINE
  5
3FAF8
330
2
100
AcDbEntity
  8
IMAGE
100
AcDbLine
 10
6.007599792292608
 20
4.048464789460236
 30
0.0
 11
5.840165966164121
 21
4.048464789460236
 31
0.0
  0
LINE
  5
3FAF9
330
2
100
AcDbEntity
  8
IMAGE
100
AcDbLine
 10
5.840165966164121
 20
4.048464789460236
 30
0.0
 11
5.825165966164134
 21
3.588464789460234
 31
0.0
  0
LINE
  5
3FAFA
330
2
100
AcDbEntity
  8
IMAGE
100
AcDbLine
 10
5.825165966164134
 20
3.588464789460234
 30
0.0
 11
5.773882879228366
 21
3.588464789460234
 31
0.0
  0
LINE
  5
3FAFB
330
2
100
AcDbEntity
  8
IMAGE
100
AcDbLine
 10
5.773882879228366
 20
3.588464789460234
 30
0.0
 11
5.773882879228366
 21
3.680964789460237
 31
0.0
  0
LINE
  5
3FAFC
330
2
100
AcDbEntity
  8
IMAGE
100
AcDbLine
 10
5.773882879228366
 20
3.680964789460237
 30
0.0
 11
5.658882879228372
 21
3.680964789460237
 31
0.0
  0
LINE
  5
3FAFD
330
2
100
AcDbEntity
  8
IMAGE
100
AcDbLine
 10
5.658882879228372
 20
3.680964789460237
 30
0.0
 11
5.658882879228372
 21
3.723464789460233
 31
0.0
  0
LINE
  5
3FAFE
330
2
100
AcDbEntity
  8
IMAGE
100
AcDbLine
 10
5.658882879228372
 20
3.723464789460233
 30
0.0
 11
5.558882879228362
 21
3.685964789460238
 31
0.0
  0
LINE
  5
3FAFF
330
2
100
AcDbEntity
  8
IMAGE
100
AcDbLine
 10
5.558882879228362
 20
3.685964789460238
 30
0.0
 11
5.558882879228362
 21
3.635964789460234
 31
0.0
  0
LINE
  5
3FB00
330
2
100
AcDbEntity
  8
IMAGE
100
AcDbLine
 10
5.558882879228362
 20
3.635964789460234
 30
0.0
 11
5.658882879228372
 21
3.598464789460233
 31
0.0
  0
LINE
  5
3FB01
330
2
100
AcDbEntity
  8
IMAGE
100
AcDbLine
 10
5.658882879228372
 20
3.598464789460233
 30
0.0
 11
5.658882879228372
 21
3.640964789460237
 31
0.0
  0
LINE
  5
3FB02
330
2
100
AcDbEntity
  8
IMAGE
100
AcDbLine
 10
5.658882879228372
 20
3.640964789460237
 30
0.0
 11
5.733882879228374
 21
3.640964789460237
 31
0.0
  0
LINE
  5
3FB03
330
2
100
AcDbEntity
  8
IMAGE
100
AcDbLine
 10
5.733882879228374
 20
3.640964789460237
 30
0.0
 11
5.733882879228374
 21
3.548464789460236
 31
0.0
  0
LINE
  5
3FB04
330
2
100
AcDbEntity
  8
IMAGE
100
AcDbLine
 10
5.733882879228374
 20
3.548464789460236
 30
0.0
 11
5.86388287922837
 21
3.548464789460236
 31
0.0
  0
LINE
  5
3FB05
330
2
100
AcDbEntity
  8
IMAGE
100
AcDbLine
 10
5.86388287922837
 20
3.548464789460236
 30
0.0
 11
5.87888287922837
 21
4.008464789460236
 31
0.0
  0
LINE
  5
3FB06
330
2
100
AcDbEntity
  8
IMAGE
100
AcDbLine
 10
5.87888287922837
 20
4.008464789460236
 30
0.0
 11
5.968882879228361
 21
4.008464789460236
 31
0.0
  0
LINE
  5
3FB07
330
2
100
AcDbEntity
  8
IMAGE
100
AcDbLine
 10
5.968882879228361
 20
4.008464789460236
 30
0.0
 11
5.983882879228374
 21
3.548464789460236
 31
0.0
  0
LINE
  5
3FB08
330
2
100
AcDbEntity
  8
IMAGE
100
AcDbLine
 10
5.983882879228374
 20
3.548464789460236
 30
0.0
 11
6.163882879228366
 21
3.548464789460236
 31
0.0
  0
LINE
  5
3FB09
330
2
100
AcDbEntity
  8
IMAGE
100
AcDbLine
 10
6.163882879228366
 20
3.548464789460236
 30
0.0
 11
6.178882879228366
 21
4.008464789460236
 31
0.0
  0
LINE
  5
3FB0A
330
2
100
AcDbEntity
  8
IMAGE
100
AcDbLine
 10
6.178882879228366
 20
4.008464789460236
 30
0.0
 11
6.268882879228371
 21
4.008464789460236
 31
0.0
  0
LINE
  5
3FB0B
330
2
100
AcDbEntity
  8
IMAGE
100
AcDbLine
 10
6.268882879228371
 20
4.008464789460236
 30
0.0
 11
6.283882879228356
 21
3.548464789460236
 31
0.0
  0
LINE
  5
3FB0C
330
2
100
AcDbEntity
  8
IMAGE
100
AcDbLine
 10
6.283882879228356
 20
3.548464789460236
 30
0.0
 11
6.463882879228362
 21
3.548464789460236
 31
0.0
  0
LINE
  5
3FB0D
330
2
100
AcDbEntity
  8
IMAGE
100
AcDbLine
 10
6.463882879228362
 20
3.548464789460236
 30
0.0
 11
6.478882879228365
 21
4.008464789460236
 31
0.0
  0
LINE
  5
3FB0E
330
2
100
AcDbEntity
  8
IMAGE
100
AcDbLine
 10
6.478882879228365
 20
4.008464789460236
 30
0.0
 11
6.568882879228366
 21
4.008464789460236
 31
0.0
  0
LINE
  5
3FB0F
330
2
100
AcDbEntity
  8
IMAGE
100
AcDbLine
 10
6.568882879228366
 20
4.008464789460236
 30
0.0
 11
6.583882879228369
 21
3.548464789460236
 31
0.0
  0
LINE
  5
3FB10
330
2
100
AcDbEntity
  8
IMAGE
100
AcDbLine
 10
6.583882879228369
 20
3.548464789460236
 30
0.0
 11
6.713882879228362
 21
3.548464789460236
 31
0.0
  0
LINE
  5
3FB11
330
2
100
AcDbEntity
  8
IMAGE
100
AcDbLine
 10
6.713882879228362
 20
3.548464789460236
 30
0.0
 11
6.713882879228362
 21
3.640964789460237
 31
0.0
  0
LINE
  5
3FB12
330
2
100
AcDbEntity
  8
IMAGE
100
AcDbLine
 10
6.713882879228362
 20
3.640964789460237
 30
0.0
 11
6.788882879228366
 21
3.640964789460237
 31
0.0
  0
LINE
  5
3FB13
330
2
100
AcDbEntity
  8
IMAGE
100
AcDbLine
 10
6.788882879228366
 20
3.640964789460237
 30
0.0
 11
6.788882879228366
 21
3.598464789460233
 31
0.0
  0
LINE
  5
3FB14
330
2
100
AcDbEntity
  8
IMAGE
100
AcDbLine
 10
6.788882879228366
 20
3.598464789460233
 30
0.0
 11
6.888882879228361
 21
3.635964789460234
 31
0.0
  0
LINE
  5
3FB15
330
2
100
AcDbEntity
  8
IMAGE
100
AcDbLine
 10
6.888882879228361
 20
3.635964789460234
 30
0.0
 11
6.888882879228361
 21
3.685964789460238
 31
0.0
  0
LINE
  5
3FB16
330
2
100
AcDbEntity
  8
IMAGE
100
AcDbLine
 10
6.888882879228361
 20
3.685964789460238
 30
0.0
 11
6.788882879228366
 21
3.723464789460233
 31
0.0
  0
LINE
  5
3FB17
330
2
100
AcDbEntity
  8
IMAGE
100
AcDbLine
 10
6.788882879228366
 20
3.723464789460233
 30
0.0
 11
6.788882879228366
 21
3.680964789460237
 31
0.0
  0
LINE
  5
3FB18
330
2
100
AcDbEntity
  8
IMAGE
100
AcDbLine
 10
6.788882879228366
 20
3.680964789460237
 30
0.0
 11
6.673882879228372
 21
3.680964789460237
 31
0.0
  0
LINE
  5
3FB19
330
2
100
AcDbEntity
  8
IMAGE
100
AcDbLine
 10
6.673882879228372
 20
3.680964789460237
 30
0.0
 11
6.673882879228372
 21
3.588464789460234
 31
0.0
  0
LINE
  5
3FB1A
330
2
100
AcDbEntity
  8
IMAGE
100
AcDbLine
 10
6.673882879228372
 20
3.588464789460234
 30
0.0
 11
6.622599792292603
 21
3.588464789460234
 31
0.0
  0
LINE
  5
3FB1B
330
2
100
AcDbEntity
  8
IMAGE
100
AcDbLine
 10
6.622599792292603
 20
3.588464789460234
 30
0.0
 11
6.607599792292601
 21
4.048464789460236
 31
0.0
  0
LINE
  5
3FB1C
330
2
100
AcDbEntity
  8
IMAGE
100
AcDbLine
 10
6.607599792292601
 20
4.048464789460236
 30
0.0
 11
6.44016596616413
 21
4.048464789460236
 31
0.0
  0
LINE
  5
3FB1D
330
2
100
AcDbEntity
  8
IMAGE
100
AcDbLine
 10
6.44016596616413
 20
4.048464789460236
 30
0.0
 11
6.425165966164128
 21
3.588464789460234
 31
0.0
  0
LINE
  5
3FB1E
330
2
100
AcDbEntity
  8
IMAGE
100
AcDbLine
 10
6.425165966164128
 20
3.588464789460234
 30
0.0
 11
6.322599792292606
 21
3.588464789460234
 31
0.0
  0
LINE
  5
3FB1F
330
2
100
AcDbEntity
  8
IMAGE
100
AcDbLine
 10
6.322599792292606
 20
3.588464789460234
 30
0.0
 11
6.307599792292607
 21
4.048464789460236
 31
0.0
  0
LINE
  5
3FB20
330
2
100
AcDbEntity
  8
IMAGE
100
AcDbLine
 10
6.307599792292607
 20
4.048464789460236
 30
0.0
 11
6.140165966164132
 21
4.048464789460236
 31
0.0
  0
LINE
  5
3FB21
330
2
100
AcDbEntity
  8
IMAGE
100
AcDbLine
 10
6.140165966164132
 20
4.048464789460236
 30
0.0
 11
6.125165966164132
 21
3.588464789460234
 31
0.0
  0
LINE
  5
3FB22
330
2
100
AcDbEntity
  8
IMAGE
100
AcDbLine
 10
6.125165966164132
 20
3.588464789460234
 30
0.0
 11
6.022599792292608
 21
3.588464789460234
 31
0.0
  0
LINE
  5
3FB23
330
2
100
AcDbEntity
  8
HATCH
 62
     1
100
AcDbLine
 10
5.839111288229664
 20
4.016121332803573
 30
0.0
 11
5.871454744886326
 21
4.048464789460236
 31
0.0
  0
LINE
  5
3FB24
330
2
100
AcDbEntity
  8
HATCH
 62
     1
100
AcDbLine
 10
5.558882879228374
 20
3.647504576153963
 30
0.0
 11
5.620419220518411
 21
3.709040917444001
 31
0.0
  0
LINE
  5
3FB25
330
2
100
AcDbEntity
  8
HATCH
 62
     1
100
AcDbLine
 10
5.919843092534646
 20
4.008464789460236
 30
0.0
 11
5.959843092534646
 21
4.048464789460236
 31
0.0
  0
LINE
  5
3FB26
330
2
100
AcDbEntity
  8
HATCH
 62
     1
100
AcDbLine
 10
5.836131905724669
 20
3.924753602650258
 30
0.0
 11
5.877502197880968
 21
3.966123894806557
 31
0.0
  0
LINE
  5
3FB27
330
2
100
AcDbEntity
  8
HATCH
 62
     1
100
AcDbLine
 10
5.614772741740801
 20
3.615006091018072
 30
0.0
 11
5.680731440182962
 21
3.680964789460233
 31
0.0
  0
LINE
  5
3FB28
330
2
100
AcDbEntity
  8
HATCH
 62
     1
100
AcDbLine
 10
5.970125465363771
 20
3.970358814641041
 30
0.0
 11
6.00888289696283
 21
4.0091162462401
 31
0.0
  0
LINE
  5
3FB29
330
2
100
AcDbEntity
  8
HATCH
 62
     1
100
AcDbLine
 10
5.833152523219672
 20
3.833385872496943
 30
0.0
 11
5.874522815375968
 21
3.87475616465324
 31
0.0
  0
LINE
  5
3FB2A
330
2
100
AcDbEntity
  8
HATCH
 62
     1
100
AcDbLine
 10
5.729119787831286
 20
3.640964789460237
 30
0.0
 11
5.769119787831282
 21
3.680964789460233
 31
0.0
  0
LINE
  5
3FB2B
330
2
100
AcDbEntity
  8
HATCH
 62
     1
100
AcDbLine
 10
5.972916676342141
 20
3.884761677971091
 30
0.0
 11
6.011674107941201
 21
3.923519109570151
 31
0.0
  0
LINE
  5
3FB2C
330
2
100
AcDbEntity
  8
HATCH
 62
     1
100
AcDbLine
 10
5.830173140714677
 20
3.742018142343629
 30
0.0
 11
5.87154343287097
 21
3.783388434499921
 31
0.0
  0
LINE
  5
3FB2D
330
2
100
AcDbEntity
  8
HATCH
 62
     1
100
AcDbLine
 10
5.733882879228374
 20
3.557339533209006
 30
0.0
 11
5.773882879228366
 21
3.597339533208998
 31
0.0
  0
LINE
  5
3FB2E
330
2
100
AcDbEntity
  8
HATCH
 62
     1
100
AcDbLine
 10
6.185008135479604
 20
4.008464789460236
 30
0.0
 11
6.225008135479602
 21
4.048464789460235
 31
0.0
  0
LINE
  5
3FB2F
330
2
100
AcDbEntity
  8
HATCH
 62
     1
100
AcDbLine
 10
5.827193758209681
 20
3.650650412190314
 30
0.0
 11
5.868564050365969
 21
3.6920207043466
 31
0.0
  0
LINE
  5
3FB30
330
2
100
AcDbEntity
  8
HATCH
 62
     1
100
AcDbLine
 10
6.137306117760242
 20
3.960762771740872
 30
0.0
 11
6.178676409916527
 21
4.002133063897161
 31
0.0
  0
LINE
  5
3FB31
330
2
100
AcDbEntity
  8
HATCH
 62
     1
100
AcDbLine
 10
5.975707887320512
 20
3.799164541301143
 30
0.0
 11
6.014465318919566
 21
3.837921972900198
 31
0.0
  0
LINE
  5
3FB32
330
2
100
AcDbEntity
  8
HATCH
 62
     1
100
AcDbLine
 10
5.81339648312792
 20
3.548464789460237
 30
0.0
 11
5.865584667860969
 21
3.600652974193287
 31
0.0
  0
LINE
  5
3FB33
330
2
100
AcDbEntity
  8
HATCH
 62
     1
100
AcDbLine
 10
6.269025414088357
 20
4.004093720420674
 30
0.0
 11
6.307782845687404
 21
4.042851152019721
 31
0.0
  0
LINE
  5
3FB34
330
2
100
AcDbEntity
  8
HATCH
 62
     1
100
AcDbLine
 10
5.978499098298882
 20
3.713567404631198
 30
0.0
 11
6.017256529897934
 21
3.752324836230251
 31
0.0
  0
LINE
  5
3FB35
330
2
100
AcDbEntity
  8
HATCH
 62
     1
100
AcDbLine
 10
6.134326735255242
 20
3.869395041587558
 30
0.0
 11
6.175697027411528
 21
3.910765333743846
 31
0.0
  0
LINE
  5
3FB36
330
2
100
AcDbEntity
  8
HATCH
 62
     1
100
AcDbLine
 10
5.981290309277253
 20
3.627970267961249
 30
0.0
 11
6.020047740876304
 21
3.666727699560301
 31
0.0
  0
LINE
  5
3FB37
330
2
100
AcDbEntity
  8
HATCH
 62
     1
100
AcDbLine
 10
6.271816625066722
 20
3.918496583750721
 30
0.0
 11
6.310574056665775
 21
3.957254015349771
 31
0.0
  0
LINE
  5
3FB38
330
2
100
AcDbEntity
  8
HATCH
 62
     1
100
AcDbLine
 10
6.131347352750241
 20
3.77802731143424
 30
0.0
 11
6.17271764490653
 21
3.819397603590528
 31
0.0
  0
LINE
  5
3FB39
330
2
100
AcDbEntity
  8
HATCH
 62
     1
100
AcDbLine
 10
5.990173178424556
 20
3.548464789460234
 30
0.0
 11
6.030173178424554
 21
3.588464789460232
 31
0.0
  0
LINE
  5
3FB3A
330
2
100
AcDbEntity
  8
HATCH
 62
     1
100
AcDbLine
 10
6.4384803297958
 20
3.99677194083148
 30
0.0
 11
6.490173178424556
 21
4.048464789460235
 31
0.0
  0
LINE
  5
3FB3B
330
2
100
AcDbEntity
  8
HATCH
 62
     1
100
AcDbLine
 10
6.128367970245244
 20
3.686659581280921
 30
0.0
 11
6.16973826240153
 21
3.728029873437209
 31
0.0
  0
LINE
  5
3FB3C
330
2
100
AcDbEntity
  8
HATCH
 62
     1
100
AcDbLine
 10
6.274607836045088
 20
3.832899447080768
 30
0.0
 11
6.313365267644143
 21
3.871656878679821
 31
0.0
  0
LINE
  5
3FB3D
330
2
100
AcDbEntity
  8
HATCH
 62
     1
100
AcDbLine
 10
6.078561526072875
 20
3.548464789460234
 30
0.0
 11
6.118561526072872
 21
3.588464789460232
 31
0.0
  0
LINE
  5
3FB3E
330
2
100
AcDbEntity
  8
HATCH
 62
     1
100
AcDbLine
 10
6.538561526072877
 20
4.008464789460236
 30
0.0
 11
6.578561526072876
 21
4.048464789460235
 31
0.0
  0
LINE
  5
3FB3F
330
2
100
AcDbEntity
  8
HATCH
 62
     1
100
AcDbLine
 10
6.125388587740244
 20
3.595291851127603
 30
0.0
 11
6.166758879896532
 21
3.636662143283891
 31
0.0
  0
LINE
  5
3FB40
330
2
100
AcDbEntity
  8
HATCH
 62
     1
100
AcDbLine
 10
6.4355009472908
 20
3.905404210678161
 30
0.0
 11
6.47687123944709
 21
3.94677450283445
 31
0.0
  0
LINE
  5
3FB41
330
2
100
AcDbEntity
  8
HATCH
 62
     1
100
AcDbLine
 10
6.277399047023455
 20
3.747302310410812
 30
0.0
 11
6.316156478622509
 21
3.786059742009868
 31
0.0
  0
LINE
  5
3FB42
330
2
100
AcDbEntity
  8
HATCH
 62
     1
100
AcDbLine
 10
6.280190258001821
 20
3.661705173740863
 30
0.0
 11
6.318947689600879
 21
3.700462605339918
 31
0.0
  0
LINE
  5
3FB43
330
2
100
AcDbEntity
  8
HATCH
 62
     1
100
AcDbLine
 10
6.570716573791301
 20
3.952231489530339
 30
0.0
 11
6.60947400539035
 21
3.990988921129389
 31
0.0
  0
LINE
  5
3FB44
330
2
100
AcDbEntity
  8
HATCH
 62
     1
100
AcDbLine
 10
6.432521564785802
 20
3.814036480524841
 30
0.0
 11
6.473891856942088
 21
3.85540677268113
 31
0.0
  0
LINE
  5
3FB45
330
2
100
AcDbEntity
  8
HATCH
 62
     1
100
AcDbLine
 10
6.282981468980185
 20
3.57610803707091
 30
0.0
 11
6.321738900579243
 21
3.614865468669968
 31
0.0
  0
LINE
  5
3FB46
330
2
100
AcDbEntity
  8
HATCH
 62
     1
100
AcDbLine
 10
6.573507784769667
 20
3.866634352860391
 30
0.0
 11
6.612265216368715
 21
3.905391784459441
 31
0.0
  0
LINE
  5
3FB47
330
2
100
AcDbEntity
  8
HATCH
 62
     1
100
AcDbLine
 10
6.4295421822808
 20
3.722668750371526
 30
0.0
 11
6.470912474437088
 21
3.764039042527812
 31
0.0
  0
LINE
  5
3FB48
330
2
100
AcDbEntity
  8
HATCH
 62
     1
100
AcDbLine
 10
6.343726569017832
 20
3.548464789460237
 30
0.0
 11
6.383726569017831
 21
3.588464789460236
 31
0.0
  0
LINE
  5
3FB49
330
2
100
AcDbEntity
  8
HATCH
 62
     1
100
AcDbLine
 10
6.576298995748035
 20
3.781037216190441
 30
0.0
 11
6.615056427347085
 21
3.819794647789491
 31
0.0
  0
LINE
  5
3FB4A
330
2
100
AcDbEntity
  8
HATCH
 62
     1
100
AcDbLine
 10
6.426562799775803
 20
3.631301020218207
 30
0.0
 11
6.467933091932088
 21
3.672671312374495
 31
0.0
  0
LINE
  5
3FB4B
330
2
100
AcDbEntity
  8
HATCH
 62
     1
100
AcDbLine
 10
6.432114916666151
 20
3.548464789460236
 30
0.0
 11
6.464953709427089
 21
3.581303582221176
 31
0.0
  0
LINE
  5
3FB4C
330
2
100
AcDbEntity
  8
HATCH
 62
     1
100
AcDbLine
 10
6.579090206726405
 20
3.695440079520492
 30
0.0
 11
6.617847638325451
 21
3.734197511119538
 31
0.0
  0
LINE
  5
3FB4D
330
2
100
AcDbEntity
  8
HATCH
 62
     1
100
AcDbLine
 10
6.581881417704773
 20
3.60984294285054
 30
0.0
 11
6.620638849303822
 21
3.648600374449588
 31
0.0
  0
LINE
  5
3FB4E
330
2
100
AcDbEntity
  8
HATCH
 62
     1
100
AcDbLine
 10
6.608891611962786
 20
3.548464789460236
 30
0.0
 11
6.648891611962786
 21
3.588464789460232
 31
0.0
  0
LINE
  5
3FB4F
330
2
100
AcDbEntity
  8
HATCH
 62
     1
100
AcDbLine
 10
6.673882879228373
 20
3.613456056725821
 30
0.0
 11
6.741391611962787
 21
3.680964789460236
 31
0.0
  0
LINE
  5
3FB50
330
2
100
AcDbEntity
  8
HATCH
 62
     1
100
AcDbLine
 10
6.697279959611106
 20
3.548464789460237
 30
0.0
 11
6.713882879228362
 21
3.565067709077495
 31
0.0
  0
LINE
  5
3FB51
330
2
100
AcDbEntity
  8
HATCH
 62
     1
100
AcDbLine
 10
6.788882879228366
 20
3.640067709077498
 30
0.0
 11
6.849535301324903
 21
3.700720131174033
 31
0.0
  0
LINE
  5
3FB52
330
2
100
AcDbEntity
  8
HATCH
 62
     1
100
AcDbLine
 10
6.863739564078057
 20
3.626536046278872
 30
0.0
 11
6.888882879228361
 21
3.651679361429174
 31
0.0
  0
LINE
  5
3FB53
330
2
100
AcDbEntity
  8
HATCH
 62
     1
100
AcDbLine
 10
5.839483711042786
 20
4.027542299072738
 30
0.0
 11
5.860406201430287
 21
4.048464789460236
 31
0.0
  0
LINE
  5
3FB54
330
2
100
AcDbEntity
  8
HATCH
 62
     1
100
AcDbLine
 10
5.558882879228369
 20
3.658553119610001
 30
0.0
 11
5.602741550988749
 21
3.70241179137038
 31
0.0
  0
LINE
  5
3FB55
330
2
100
AcDbEntity
  8
HATCH
 62
     1
100
AcDbLine
 10
5.908794549078606
 20
4.008464789460236
 30
0.0
 11
5.948794549078606
 21
4.048464789460236
 31
0.0
  0
LINE
  5
3FB56
330
2
100
AcDbEntity
  8
HATCH
 62
     1
100
AcDbLine
 10
5.836504328537793
 20
3.936174568919423
 30
0.0
 11
5.877874620694092
 21
3.977544861075723
 31
0.0
  0
LINE
  5
3FB57
330
2
100
AcDbEntity
  8
HATCH
 62
     1
100
AcDbLine
 10
5.606737437409136
 20
3.618019330142448
 30
0.0
 11
5.669682896726924
 21
3.680964789460237
 31
0.0
  0
LINE
  5
3FB58
330
2
100
AcDbEntity
  8
HATCH
 62
     1
100
AcDbLine
 10
5.969776563991473
 20
3.981058456724785
 30
0.0
 11
6.008533995590534
 21
4.019815888323846
 31
0.0
  0
LINE
  5
3FB59
330
2
100
AcDbEntity
  8
HATCH
 62
     1
100
AcDbLine
 10
5.833524946032794
 20
3.844806838766107
 30
0.0
 11
5.874895238189092
 21
3.886177130922406
 31
0.0
  0
LINE
  5
3FB5A
330
2
100
AcDbEntity
  8
HATCH
 62
     1
100
AcDbLine
 10
5.718071244375244
 20
3.640964789460237
 30
0.0
 11
5.758071244375241
 21
3.680964789460236
 31
0.0
  0
LINE
  5
3FB5B
330
2
100
AcDbEntity
  8
HATCH
 62
     1
100
AcDbLine
 10
5.972567774969844
 20
3.895461320054838
 30
0.0
 11
6.011325206568902
 21
3.934218751653896
 31
0.0
  0
LINE
  5
3FB5C
330
2
100
AcDbEntity
  8
HATCH
 62
     1
100
AcDbLine
 10
5.830545563527799
 20
3.753439108612793
 30
0.0
 11
5.871915855684092
 21
3.794809400769087
 31
0.0
  0
LINE
  5
3FB5D
330
2
100
AcDbEntity
  8
HATCH
 62
     1
100
AcDbLine
 10
5.733882879228374
 20
3.568388076665048
 30
0.0
 11
5.773882879228366
 21
3.608388076665042
 31
0.0
  0
LINE
  5
3FB5E
330
2
100
AcDbEntity
  8
HATCH
 62
     1
100
AcDbLine
 10
6.137678540573365
 20
3.972183738010038
 30
0.0
 11
6.213959592023562
 21
4.048464789460236
 31
0.0
  0
LINE
  5
3FB5F
330
2
100
AcDbEntity
  8
HATCH
 62
     1
100
AcDbLine
 10
5.827566181022803
 20
3.662071378459478
 30
0.0
 11
5.868936473179093
 21
3.703441670615768
 31
0.0
  0
LINE
  5
3FB60
330
2
100
AcDbEntity
  8
HATCH
 62
     1
100
AcDbLine
 10
5.975358985948215
 20
3.80986418338489
 30
0.0
 11
6.01411641754727
 21
3.848621614983943
 31
0.0
  0
LINE
  5
3FB61
330
2
100
AcDbEntity
  8
HATCH
 62
     1
100
AcDbLine
 10
5.80234793967188
 20
3.548464789460238
 30
0.0
 11
5.865957090674092
 21
3.61207394046245
 31
0.0
  0
LINE
  5
3FB62
330
2
100
AcDbEntity
  8
HATCH
 62
     1
100
AcDbLine
 10
6.262347939671879
 20
4.008464789460236
 30
0.0
 11
6.30234793967188
 21
4.048464789460236
 31
0.0
  0
LINE
  5
3FB63
330
2
100
AcDbEntity
  8
HATCH
 62
     1
100
AcDbLine
 10
5.978150196926582
 20
3.724267046714941
 30
0.0
 11
6.016907628525637
 21
3.763024478313996
 31
0.0
  0
LINE
  5
3FB64
330
2
100
AcDbEntity
  8
HATCH
 62
     1
100
AcDbLine
 10
6.134699158068364
 20
3.880816007856723
 30
0.0
 11
6.176069450224652
 21
3.922186300013009
 31
0.0
  0
LINE
  5
3FB65
330
2
100
AcDbEntity
  8
HATCH
 62
     1
100
AcDbLine
 10
5.980941407904956
 20
3.638669910044995
 30
0.0
 11
6.019698839504005
 21
3.677427341644046
 31
0.0
  0
LINE
  5
3FB66
330
2
100
AcDbEntity
  8
HATCH
 62
     1
100
AcDbLine
 10
6.271467723694428
 20
3.929196225834466
 30
0.0
 11
6.310225155293476
 21
3.967953657433516
 31
0.0
  0
LINE
  5
3FB67
330
2
100
AcDbEntity
  8
HATCH
 62
     1
100
AcDbLine
 10
6.131719775563367
 20
3.789448277703406
 30
0.0
 11
6.173090067719654
 21
3.830818569859693
 31
0.0
  0
LINE
  5
3FB68
330
2
100
AcDbEntity
  8
HATCH
 62
     1
100
AcDbLine
 10
5.983732618883325
 20
3.553072773375046
 30
0.0
 11
6.022490050482372
 21
3.591830204974093
 31
0.0
  0
LINE
  5
3FB69
330
2
100
AcDbEntity
  8
HATCH
 62
     1
100
AcDbLine
 10
6.438852752608925
 20
4.008192907100645
 30
0.0
 11
6.479124634968518
 21
4.048464789460236
 31
0.0
  0
LINE
  5
3FB6A
330
2
100
AcDbEntity
  8
HATCH
 62
     1
100
AcDbLine
 10
6.128740393058366
 20
3.698080547550086
 30
0.0
 11
6.170110685214654
 21
3.739450839706376
 31
0.0
  0
LINE
  5
3FB6B
330
2
100
AcDbEntity
  8
HATCH
 62
     1
100
AcDbLine
 10
6.274258934672793
 20
3.843599089164513
 30
0.0
 11
6.313016366271845
 21
3.882356520763564
 31
0.0
  0
LINE
  5
3FB6C
330
2
100
AcDbEntity
  8
HATCH
 62
     1
100
AcDbLine
 10
6.067512982616833
 20
3.548464789460234
 30
0.0
 11
6.107512982616832
 21
3.588464789460234
 31
0.0
  0
LINE
  5
3FB6D
330
2
100
AcDbEntity
  8
HATCH
 62
     1
100
AcDbLine
 10
6.527512982616838
 20
4.008464789460236
 30
0.0
 11
6.567512982616832
 21
4.048464789460234
 31
0.0
  0
LINE
  5
3FB6E
330
2
100
AcDbEntity
  8
HATCH
 62
     1
100
AcDbLine
 10
6.125761010553366
 20
3.606712817396768
 30
0.0
 11
6.167131302709655
 21
3.648083109553056
 31
0.0
  0
LINE
  5
3FB6F
330
2
100
AcDbEntity
  8
HATCH
 62
     1
100
AcDbLine
 10
6.435873370103925
 20
3.916825176947326
 30
0.0
 11
6.477243662260214
 21
3.958195469103615
 31
0.0
  0
LINE
  5
3FB70
330
2
100
AcDbEntity
  8
HATCH
 62
     1
100
AcDbLine
 10
6.277050145651159
 20
3.758001952494558
 30
0.0
 11
6.315807577250215
 21
3.796759384093615
 31
0.0
  0
LINE
  5
3FB71
330
2
100
AcDbEntity
  8
HATCH
 62
     1
100
AcDbLine
 10
6.155901330265152
 20
3.548464789460234
 30
0.0
 11
6.164151920204655
 21
3.556715379399738
 31
0.0
  0
LINE
  5
3FB72
330
2
100
AcDbEntity
  8
HATCH
 62
     1
100
AcDbLine
 10
6.570367672419003
 20
3.962931131614084
 30
0.0
 11
6.609125104018052
 21
4.001688563213133
 31
0.0
  0
LINE
  5
3FB73
330
2
100
AcDbEntity
  8
HATCH
 62
     1
100
AcDbLine
 10
6.279841356629527
 20
3.672404815824607
 30
0.0
 11
6.31859878822858
 21
3.711162247423661
 31
0.0
  0
LINE
  5
3FB74
330
2
100
AcDbEntity
  8
HATCH
 62
     1
100
AcDbLine
 10
6.432893987598927
 20
3.825457446794008
 30
0.0
 11
6.474264279755214
 21
3.866827738950296
 31
0.0
  0
LINE
  5
3FB75
330
2
100
AcDbEntity
  8
HATCH
 62
     1
100
AcDbLine
 10
6.282632567607889
 20
3.586807679154654
 30
0.0
 11
6.321389999206949
 21
3.625565110753713
 31
0.0
  0
LINE
  5
3FB76
330
2
100
AcDbEntity
  8
HATCH
 62
     1
100
AcDbLine
 10
6.57315888339737
 20
3.877333994944136
 30
0.0
 11
6.611916314996419
 21
3.916091426543186
 31
0.0
  0
LINE
  5
3FB77
330
2
100
AcDbEntity
  8
HATCH
 62
     1
100
AcDbLine
 10
6.429914605093926
 20
3.734089716640691
 30
0.0
 11
6.471284897250212
 21
3.775460008796978
 31
0.0
  0
LINE
  5
3FB78
330
2
100
AcDbEntity
  8
HATCH
 62
     1
100
AcDbLine
 10
6.33267802556179
 20
3.548464789460237
 30
0.0
 11
6.372678025561789
 21
3.588464789460234
 31
0.0
  0
LINE
  5
3FB79
330
2
100
AcDbEntity
  8
HATCH
 62
     1
100
AcDbLine
 10
6.575950094375739
 20
3.791736858274187
 30
0.0
 11
6.614707525974787
 21
3.830494289873234
 31
0.0
  0
LINE
  5
3FB7A
330
2
100
AcDbEntity
  8
HATCH
 62
     1
100
AcDbLine
 10
6.426935222588925
 20
3.642721986487372
 30
0.0
 11
6.468305514745212
 21
3.684092278643659
 31
0.0
  0
LINE
  5
3FB7B
330
2
100
AcDbEntity
  8
HATCH
 62
     1
100
AcDbLine
 10
6.421066373210106
 20
3.548464789460236
 30
0.0
 11
6.465326132240213
 21
3.59272454849034
 31
0.0
  0
LINE
  5
3FB7C
330
2
100
AcDbEntity
  8
HATCH
 62
     1
100
AcDbLine
 10
6.578741305354107
 20
3.706139721604234
 30
0.0
 11
6.617498736953155
 21
3.744897153203283
 31
0.0
  0
LINE
  5
3FB7D
330
2
100
AcDbEntity
  8
HATCH
 62
     1
100
AcDbLine
 10
6.581532516332474
 20
3.620542584934283
 30
0.0
 11
6.620289947931526
 21
3.659300016533334
 31
0.0
  0
LINE
  5
3FB7E
330
2
100
AcDbEntity
  8
HATCH
 62
     1
100
AcDbLine
 10
6.597843068506747
 20
3.548464789460237
 30
0.0
 11
6.637843068506743
 21
3.588464789460234
 31
0.0
  0
LINE
  5
3FB7F
330
2
100
AcDbEntity
  8
HATCH
 62
     1
100
AcDbLine
 10
6.673882879228373
 20
3.624504600181863
 30
0.0
 11
6.730343068506747
 21
3.680964789460237
 31
0.0
  0
LINE
  5
3FB80
330
2
100
AcDbEntity
  8
HATCH
 62
     1
100
AcDbLine
 10
6.686231416155065
 20
3.548464789460238
 30
0.0
 11
6.713882879228362
 21
3.576116252533537
 31
0.0
  0
LINE
  5
3FB81
330
2
100
AcDbEntity
  8
HATCH
 62
     1
100
AcDbLine
 10
6.778731416155062
 20
3.640964789460238
 30
0.0
 11
6.841499996993237
 21
3.703733370298411
 31
0.0
  0
LINE
  5
3FB82
330
2
100
AcDbEntity
  8
HATCH
 62
     1
100
AcDbLine
 10
6.846061894548391
 20
3.619906920205246
 30
0.0
 11
6.88888287922836
 21
3.662727904885214
 31
0.0
  0
LINE
  5
3FB83
330
2
100
AcDbEntity
  8
HATCH
 62
     1
100
AcDbLine
 10
5.839856133855914
 20
4.038963265341898
 30
0.0
 11
5.849357657974254
 21
4.048464789460238
 31
0.0
  0
LINE
  5
3FB84
330
2
100
AcDbEntity
  8
HATCH
 62
     1
100
AcDbLine
 10
5.558882879228366
 20
3.669601663066031
 30
0.0
 11
5.585063881459096
 21
3.695782665296762
 31
0.0
  0
LINE
  5
3FB85
330
2
100
AcDbEntity
  8
HATCH
 62
     1
100
AcDbLine
 10
5.897746005622571
 20
4.008464789460238
 30
0.0
 11
5.937746005622571
 21
4.048464789460236
 31
0.0
  0
LINE
  5
3FB86
330
2
100
AcDbEntity
  8
HATCH
 62
     1
100
AcDbLine
 10
5.836876751350914
 20
3.947595535188582
 30
0.0
 11
5.878247043507218
 21
3.988965827344883
 31
0.0
  0
LINE
  5
3FB87
330
2
100
AcDbEntity
  8
HATCH
 62
     1
100
AcDbLine
 10
5.598702133077476
 20
3.621032569266823
 30
0.0
 11
5.658882879228372
 21
3.681213315417718
 31
0.0
  0
LINE
  5
3FB88
330
2
100
AcDbEntity
  8
HATCH
 62
     1
100
AcDbLine
 10
5.969427662619178
 20
3.991758098808523
 30
0.0
 11
6.008185094218238
 21
4.030515530407586
 31
0.0
  0
LINE
  5
3FB89
330
2
100
AcDbEntity
  8
HATCH
 62
     1
100
AcDbLine
 10
5.83389736884592
 20
3.856227805035267
 30
0.0
 11
5.875267661002218
 21
3.897598097191566
 31
0.0
  0
LINE
  5
3FB8A
330
2
100
AcDbEntity
  8
HATCH
 62
     1
100
AcDbLine
 10
5.70702270091921
 20
3.640964789460238
 30
0.0
 11
5.74702270091921
 21
3.680964789460237
 31
0.0
  0
LINE
  5
3FB8B
330
2
100
AcDbEntity
  8
HATCH
 62
     1
100
AcDbLine
 10
5.972218873597547
 20
3.906160962138575
 30
0.0
 11
6.010976305196606
 21
3.944918393737634
 31
0.0
  0
LINE
  5
3FB8C
330
2
100
AcDbEntity
  8
HATCH
 62
     1
100
AcDbLine
 10
5.830917986340924
 20
3.764860074881953
 30
0.0
 11
5.872288278497217
 21
3.806230367038245
 31
0.0
  0
LINE
  5
3FB8D
330
2
100
AcDbEntity
  8
HATCH
 62
     1
100
AcDbLine
 10
5.733882879228374
 20
3.57943662012108
 30
0.0
 11
5.773882879228366
 21
3.619436620121074
 31
0.0
  0
LINE
  5
3FB8E
330
2
100
AcDbEntity
  8
HATCH
 62
     1
100
AcDbLine
 10
6.138050963386493
 20
3.983604704279198
 30
0.0
 11
6.202911048567527
 21
4.048464789460236
 31
0.0
  0
LINE
  5
3FB8F
330
2
100
AcDbEntity
  8
HATCH
 62
     1
100
AcDbLine
 10
5.827938603835928
 20
3.673492344728638
 30
0.0
 11
5.869308895992218
 21
3.714862636884926
 31
0.0
  0
LINE
  5
3FB90
330
2
100
AcDbEntity
  8
HATCH
 62
     1
100
AcDbLine
 10
5.975010084575918
 20
3.820563825468627
 30
0.0
 11
6.013767516174977
 21
3.859321257067684
 31
0.0
  0
LINE
  5
3FB91
330
2
100
AcDbEntity
  8
HATCH
 62
     1
100
AcDbLine
 10
5.791299396215844
 20
3.548464789460238
 30
0.0
 11
5.866329513487217
 21
3.623494906731609
 31
0.0
  0
LINE
  5
3FB92
330
2
100
AcDbEntity
  8
HATCH
 62
     1
100
AcDbLine
 10
6.251299396215844
 20
4.008464789460236
 30
0.0
 11
6.291299396215846
 21
4.048464789460238
 31
0.0
  0
LINE
  5
3FB93
330
2
100
AcDbEntity
  8
HATCH
 62
     1
100
AcDbLine
 10
5.977801295554287
 20
3.73496668879868
 30
0.0
 11
6.016558727153342
 21
3.773724120397734
 31
0.0
  0
LINE
  5
3FB94
330
2
100
AcDbEntity
  8
HATCH
 62
     1
100
AcDbLine
 10
6.135071580881488
 20
3.892236974125881
 30
0.0
 11
6.176441873037776
 21
3.933607266282169
 31
0.0
  0
LINE
  5
3FB95
330
2
100
AcDbEntity
  8
HATCH
 62
     1
100
AcDbLine
 10
5.980592506532659
 20
3.649369552128732
 30
0.0
 11
6.019349938131711
 21
3.688126983727785
 31
0.0
  0
LINE
  5
3FB96
330
2
100
AcDbEntity
  8
HATCH
 62
     1
100
AcDbLine
 10
6.271118822322129
 20
3.939895867918203
 30
0.0
 11
6.309876253921181
 21
3.978653299517254
 31
0.0
  0
LINE
  5
3FB97
330
2
100
AcDbEntity
  8
HATCH
 62
     1
100
AcDbLine
 10
6.132092198376488
 20
3.800869243972563
 30
0.0
 11
6.173462490532778
 21
3.842239536128851
 31
0.0
  0
LINE
  5
3FB98
330
2
100
AcDbEntity
  8
HATCH
 62
     1
100
AcDbLine
 10
5.98338371751103
 20
3.563772415458785
 30
0.0
 11
6.02214114911008
 21
3.602529847057835
 31
0.0
  0
LINE
  5
3FB99
330
2
100
AcDbEntity
  8
HATCH
 62
     1
100
AcDbLine
 10
6.439225175422048
 20
4.019613873369803
 30
0.0
 11
6.468076091512481
 21
4.048464789460236
 31
0.0
  0
LINE
  5
3FB9A
330
2
100
AcDbEntity
  8
HATCH
 62
     1
100
AcDbLine
 10
6.12911281587149
 20
3.709501513819245
 30
0.0
 11
6.170483108027781
 21
3.750871805975536
 31
0.0
  0
LINE
  5
3FB9B
330
2
100
AcDbEntity
  8
HATCH
 62
     1
100
AcDbLine
 10
6.273910033300496
 20
3.854298731248251
 30
0.0
 11
6.312667464899548
 21
3.893056162847303
 31
0.0
  0
LINE
  5
3FB9C
330
2
100
AcDbEntity
  8
HATCH
 62
     1
100
AcDbLine
 10
6.056464439160801
 20
3.548464789460234
 30
0.0
 11
6.096464439160801
 21
3.588464789460236
 31
0.0
  0
LINE
  5
3FB9D
330
2
100
AcDbEntity
  8
HATCH
 62
     1
100
AcDbLine
 10
6.516464439160801
 20
4.008464789460236
 30
0.0
 11
6.5564644391608
 21
4.048464789460235
 31
0.0
  0
LINE
  5
3FB9E
330
2
100
AcDbEntity
  8
HATCH
 62
     1
100
AcDbLine
 10
6.126133433366491
 20
3.618133783665927
 30
0.0
 11
6.167503725522777
 21
3.659504075822215
 31
0.0
  0
LINE
  5
3FB9F
330
2
100
AcDbEntity
  8
HATCH
 62
     1
100
AcDbLine
 10
6.436245792917049
 20
3.928246143216484
 30
0.0
 11
6.477616085073338
 21
3.969616435372774
 31
0.0
  0
LINE
  5
3FBA0
330
2
100
AcDbEntity
  8
HATCH
 62
     1
100
AcDbLine
 10
6.276701244278862
 20
3.768701594578298
 30
0.0
 11
6.315458675877917
 21
3.807459026177353
 31
0.0
  0
LINE
  5
3FBA1
330
2
100
AcDbEntity
  8
HATCH
 62
     1
100
AcDbLine
 10
6.144852786809119
 20
3.548464789460234
 30
0.0
 11
6.164524343017782
 21
3.568136345668898
 31
0.0
  0
LINE
  5
3FBA2
330
2
100
AcDbEntity
  8
HATCH
 62
     1
100
AcDbLine
 10
6.570018771046706
 20
3.973630773697824
 30
0.0
 11
6.608776202645758
 21
4.012388205296872
 31
0.0
  0
LINE
  5
3FBA3
330
2
100
AcDbEntity
  8
HATCH
 62
     1
100
AcDbLine
 10
6.279492455257227
 20
3.683104457908345
 30
0.0
 11
6.318249886856286
 21
3.721861889507401
 31
0.0
  0
LINE
  5
3FBA4
330
2
100
AcDbEntity
  8
HATCH
 62
     1
100
AcDbLine
 10
6.43326641041205
 20
3.836878413063168
 30
0.0
 11
6.47463670256834
 21
3.878248705219457
 31
0.0
  0
LINE
  5
3FBA5
330
2
100
AcDbEntity
  8
HATCH
 62
     1
100
AcDbLine
 10
6.282283666235592
 20
3.597507321238392
 30
0.0
 11
6.321041097834654
 21
3.636264752837453
 31
0.0
  0
LINE
  5
3FBA6
330
2
100
AcDbEntity
  8
HATCH
 62
     1
100
AcDbLine
 10
6.572809982025074
 20
3.888033637027874
 30
0.0
 11
6.611567413624124
 21
3.926791068626924
 31
0.0
  0
LINE
  5
3FBA7
330
2
100
AcDbEntity
  8
HATCH
 62
     1
100
AcDbLine
 10
6.430287027907049
 20
3.745510682909851
 30
0.0
 11
6.471657320063339
 21
3.78688097506614
 31
0.0
  0
LINE
  5
3FBA8
330
2
100
AcDbEntity
  8
HATCH
 62
     1
100
AcDbLine
 10
6.321629482105755
 20
3.548464789460236
 30
0.0
 11
6.361629482105753
 21
3.588464789460234
 31
0.0
  0
LINE
  5
3FBA9
330
2
100
AcDbEntity
  8
HATCH
 62
     1
100
AcDbLine
 10
6.575601193003442
 20
3.802436500357924
 30
0.0
 11
6.61435862460249
 21
3.841193931956971
 31
0.0
  0
LINE
  5
3FBAA
330
2
100
AcDbEntity
  8
HATCH
 62
     1
100
AcDbLine
 10
6.42730764540205
 20
3.654142952756533
 30
0.0
 11
6.46867793755834
 21
3.695513244912821
 31
0.0
  0
LINE
  5
3FBAB
330
2
100
AcDbEntity
  8
HATCH
 62
     1
100
AcDbLine
 10
6.410017829754072
 20
3.548464789460234
 30
0.0
 11
6.465698555053339
 21
3.604145514759502
 31
0.0
  0
LINE
  5
3FBAC
330
2
100
AcDbEntity
  8
HATCH
 62
     1
100
AcDbLine
 10
6.578392403981811
 20
3.716839363687974
 30
0.0
 11
6.61714983558086
 21
3.755596795287022
 31
0.0
  0
LINE
  5
3FBAD
330
2
100
AcDbEntity
  8
HATCH
 62
     1
100
AcDbLine
 10
6.581183614960179
 20
3.631242227018023
 30
0.0
 11
6.61994104655923
 21
3.669999658617071
 31
0.0
  0
LINE
  5
3FBAE
330
2
100
AcDbEntity
  8
HATCH
 62
     1
100
AcDbLine
 10
6.586794525050712
 20
3.548464789460236
 30
0.0
 11
6.62679452505071
 21
3.588464789460234
 31
0.0
  0
LINE
  5
3FBAF
330
2
100
AcDbEntity
  8
HATCH
 62
     1
100
AcDbLine
 10
6.673882879228371
 20
3.635553143637896
 30
0.0
 11
6.719294525050712
 21
3.680964789460237
 31
0.0
  0
LINE
  5
3FBB0
330
2
100
AcDbEntity
  8
HATCH
 62
     1
100
AcDbLine
 10
6.675182872699027
 20
3.548464789460237
 30
0.0
 11
6.713882879228362
 21
3.587164795989571
 31
0.0
  0
LINE
  5
3FBB1
330
2
100
AcDbEntity
  8
HATCH
 62
     1
100
AcDbLine
 10
6.767682872699031
 20
3.640964789460237
 30
0.0
 11
6.833464692661573
 21
3.706746609422781
 31
0.0
  0
LINE
  5
3FBB2
330
2
100
AcDbEntity
  8
HATCH
 62
     1
100
AcDbLine
 10
6.828384225018734
 20
3.613277794131625
 30
0.0
 11
6.88888287922836
 21
3.673776448341249
 31
0.0
  0
LINE
  5
3FBB3
330
2
100
AcDbEntity
  8
HATCH
100
AcDbLine
 10
5.314631800942271
 20
4.49460638780016
 30
0.0
 11
5.343490202602332
 21
4.523464789460219
 31
0.0
1001
ACAD
1010
0.0
1020
0.0
1030
0.0
  0
LINE
  5
3FBB4
330
2
100
AcDbEntity
  8
HATCH
100
AcDbLine
 10
5.314631800942278
 20
4.450412213976001
 30
0.0
 11
5.356158088684387
 21
4.491938501718109
 31
0.0
1001
ACAD
1010
0.0
1020
0.0
1030
0.0
  0
LINE
  5
3FBB5
330
2
100
AcDbEntity
  8
HATCH
100
AcDbLine
 10
5.314631800942271
 20
4.40621804015184
 30
0.0
 11
5.35825517559646
 21
4.44984141480603
 31
0.0
1001
ACAD
1010
0.0
1020
0.0
1030
0.0
  0
LINE
  5
3FBB6
330
2
100
AcDbEntity
  8
HATCH
100
AcDbLine
 10
5.314631800942271
 20
4.362023866327688
 30
0.0
 11
5.360352262508527
 21
4.407744327893943
 31
0.0
1001
ACAD
1010
0.0
1020
0.0
1030
0.0
  0
LINE
  5
3FBB7
330
2
100
AcDbEntity
  8
HATCH
100
AcDbLine
 10
5.314631800942264
 20
4.317829692503514
 30
0.0
 11
5.362449349420606
 21
4.365647240981856
 31
0.0
1001
ACAD
1010
0.0
1020
0.0
1030
0.0
  0
LINE
  5
3FBB8
330
2
100
AcDbEntity
  8
HATCH
100
AcDbLine
 10
5.314631800942257
 20
4.273635518679347
 30
0.0
 11
5.364546436332709
 21
4.323550154069791
 31
0.0
1001
ACAD
1010
0.0
1020
0.0
1030
0.0
  0
LINE
  5
3FBB9
330
2
100
AcDbEntity
  8
HATCH
100
AcDbLine
 10
5.314631800942264
 20
4.229441344855202
 30
0.0
 11
5.356643523244769
 21
4.2714530671577
 31
0.0
1001
ACAD
1010
0.0
1020
0.0
1030
0.0
  0
LINE
  5
3FBBA
330
2
100
AcDbEntity
  8
HATCH
100
AcDbLine
 10
5.314631800942271
 20
4.185247171031051
 30
0.0
 11
5.358740610156849
 21
4.229355980245627
 31
0.0
1001
ACAD
1010
0.0
1020
0.0
1030
0.0
  0
LINE
  5
3FBBB
330
2
100
AcDbEntity
  8
HATCH
100
AcDbLine
 10
5.314631800942271
 20
4.141052997206884
 30
0.0
 11
5.360837697068935
 21
4.187258893333549
 31
0.0
1001
ACAD
1010
0.0
1020
0.0
1030
0.0
  0
LINE
  5
3FBBC
330
2
100
AcDbEntity
  8
HATCH
100
AcDbLine
 10
5.314631800942271
 20
4.096858823382731
 30
0.0
 11
5.362934783980995
 21
4.145161806421454
 31
0.0
1001
ACAD
1010
0.0
1020
0.0
1030
0.0
  0
LINE
  5
3FBBD
330
2
100
AcDbEntity
  8
HATCH
100
AcDbLine
 10
5.314631800942264
 20
4.052664649558571
 30
0.0
 11
5.355031870893093
 21
4.093064719509392
 31
0.0
1001
ACAD
1010
0.0
1020
0.0
1030
0.0
  0
LINE
  5
3FBBE
330
2
100
AcDbEntity
  8
HATCH
100
AcDbLine
 10
5.314631800942271
 20
4.008470475734411
 30
0.0
 11
5.357128957805172
 21
4.050967632597313
 31
0.0
1001
ACAD
1010
0.0
1020
0.0
1030
0.0
  0
LINE
  5
3FBBF
330
2
100
AcDbEntity
  8
HATCH
100
AcDbLine
 10
5.314631800942278
 20
3.964276301910246
 30
0.0
 11
5.359226044717252
 21
4.008870545685226
 31
0.0
1001
ACAD
1010
0.0
1020
0.0
1030
0.0
  0
LINE
  5
3FBC0
330
2
100
AcDbEntity
  8
HATCH
100
AcDbLine
 10
5.314631800942271
 20
3.920082128086093
 30
0.0
 11
5.361323131629318
 21
3.96677345877314
 31
0.0
1001
ACAD
1010
0.0
1020
0.0
1030
0.0
  0
LINE
  5
3FBC1
330
2
100
AcDbEntity
  8
HATCH
100
AcDbLine
 10
5.314631800942257
 20
3.875887954261926
 30
0.0
 11
5.363420218541398
 21
3.924676371861066
 31
0.0
1001
ACAD
1010
0.0
1020
0.0
1030
0.0
  0
LINE
  5
3FBC2
330
2
100
AcDbEntity
  8
HATCH
100
AcDbLine
 10
5.314631800942271
 20
3.831693780437774
 30
0.0
 11
5.355517305453488
 21
3.87257928494899
 31
0.0
1001
ACAD
1010
0.0
1020
0.0
1030
0.0
  0
LINE
  5
3FBC3
330
2
100
AcDbEntity
  8
HATCH
100
AcDbLine
 10
5.314631800942278
 20
3.787499606613606
 30
0.0
 11
5.357614392365562
 21
3.830482198036897
 31
0.0
1001
ACAD
1010
0.0
1020
0.0
1030
0.0
  0
LINE
  5
3FBC4
330
2
100
AcDbEntity
  8
HATCH
100
AcDbLine
 10
5.314631800942271
 20
3.743305432789455
 30
0.0
 11
5.359711479277641
 21
3.788385111124823
 31
0.0
1001
ACAD
1010
0.0
1020
0.0
1030
0.0
  0
LINE
  5
3FBC5
330
2
100
AcDbEntity
  8
HATCH
100
AcDbLine
 10
5.314631800942271
 20
3.699111258965294
 30
0.0
 11
5.364631800942233
 21
3.749111258965263
 31
0.0
1001
ACAD
1010
0.0
1020
0.0
1030
0.0
  0
LINE
  5
3FBC6
330
2
100
AcDbEntity
  8
HATCH
100
AcDbLine
 10
5.314631800942264
 20
3.654917085141129
 30
0.0
 11
5.364631800942233
 21
3.704917085141096
 31
0.0
1001
ACAD
1010
0.0
1020
0.0
1030
0.0
  0
LINE
  5
3FBC7
330
2
100
AcDbEntity
  8
HATCH
100
AcDbLine
 10
5.314631800942264
 20
3.610722911316961
 30
0.0
 11
5.358502740013888
 21
3.654593850388578
 31
0.0
1001
ACAD
1010
0.0
1020
0.0
1030
0.0
  0
LINE
  5
3FBC8
330
2
100
AcDbEntity
  8
HATCH
100
AcDbLine
 10
5.335599826925978
 20
3.587496763476521
 30
0.0
 11
5.370955165985306
 21
3.62285210253585
 31
0.0
1001
ACAD
1010
0.0
1020
0.0
1030
0.0
  0
LINE
  5
3FBC9
330
2
100
AcDbEntity
  8
HATCH
100
AcDbLine
 10
5.489631800942233
 20
3.741528737492778
 30
0.0
 11
5.52156785290969
 21
3.773464789460234
 31
0.0
1001
ACAD
1010
0.0
1020
0.0
1030
0.0
  0
LINE
  5
3FBCA
330
2
100
AcDbEntity
  8
HATCH
100
AcDbLine
 10
5.357696913838053
 20
3.565399676564446
 30
0.0
 11
5.393052252897418
 21
3.600755015623811
 31
0.0
1001
ACAD
1010
0.0
1020
0.0
1030
0.0
  0
LINE
  5
3FBCB
330
2
100
AcDbEntity
  8
HATCH
100
AcDbLine
 10
5.489631800942233
 20
3.697334563668626
 30
0.0
 11
5.565762026733849
 21
3.773464789460234
 31
0.0
1001
ACAD
1010
0.0
1020
0.0
1030
0.0
  0
LINE
  5
3FBCC
330
2
100
AcDbEntity
  8
HATCH
100
AcDbLine
 10
5.384956200558015
 20
3.548464789460239
 30
0.0
 11
5.434956200557998
 21
3.598464789460223
 31
0.0
1001
ACAD
1010
0.0
1020
0.0
1030
0.0
  0
LINE
  5
3FBCD
330
2
100
AcDbEntity
  8
HATCH
100
AcDbLine
 10
5.559956200557998
 20
3.723464789460223
 30
0.0
 11
5.609956200558001
 21
3.773464789460226
 31
0.0
1001
ACAD
1010
0.0
1020
0.0
1030
0.0
  0
LINE
  5
3FBCE
330
2
100
AcDbEntity
  8
HATCH
100
AcDbLine
 10
5.48963180094224
 20
3.653140389844458
 30
0.0
 11
5.539631800942423
 21
3.703140389844648
 31
0.0
1001
ACAD
1010
0.0
1020
0.0
1030
0.0
  0
LINE
  5
3FBCF
330
2
100
AcDbEntity
  8
HATCH
100
AcDbLine
 10
5.429150374382174
 20
3.548464789460232
 30
0.0
 11
5.479150374382171
 21
3.598464789460229
 31
0.0
1001
ACAD
1010
0.0
1020
0.0
1030
0.0
  0
LINE
  5
3FBD0
330
2
100
AcDbEntity
  8
HATCH
100
AcDbLine
 10
5.604150374382157
 20
3.723464789460216
 30
0.0
 11
5.654150374382162
 21
3.77346478946022
 31
0.0
1001
ACAD
1010
0.0
1020
0.0
1030
0.0
  0
LINE
  5
3FBD1
330
2
100
AcDbEntity
  8
HATCH
100
AcDbLine
 10
5.48963180094224
 20
3.608946216020298
 30
0.0
 11
5.539631800942423
 21
3.658946216020481
 31
0.0
1001
ACAD
1010
0.0
1020
0.0
1030
0.0
  0
LINE
  5
3FBD2
330
2
100
AcDbEntity
  8
HATCH
100
AcDbLine
 10
5.473344548206326
 20
3.548464789460239
 30
0.0
 11
5.539631800942416
 21
3.614752042196328
 31
0.0
1001
ACAD
1010
0.0
1020
0.0
1030
0.0
  0
LINE
  5
3FBD3
330
2
100
AcDbEntity
  8
HATCH
100
AcDbLine
 10
5.648344548206317
 20
3.723464789460229
 30
0.0
 11
5.698344548206313
 21
3.77346478946022
 31
0.0
1001
ACAD
1010
0.0
1020
0.0
1030
0.0
  0
LINE
  5
3FBD4
330
2
100
AcDbEntity
  8
HATCH
100
AcDbLine
 10
5.517538722030487
 20
3.548464789460239
 30
0.0
 11
5.567538722030483
 21
3.598464789460229
 31
0.0
1001
ACAD
1010
0.0
1020
0.0
1030
0.0
  0
LINE
  5
3FBD5
330
2
100
AcDbEntity
  8
HATCH
100
AcDbLine
 10
5.667538722030485
 20
3.698464789460238
 30
0.0
 11
5.714631800942369
 21
3.745557868372123
 31
0.0
1001
ACAD
1010
0.0
1020
0.0
1030
0.0
  0
LINE
  5
3FBD6
330
2
100
AcDbEntity
  8
HATCH
100
AcDbLine
 10
5.561732895854652
 20
3.548464789460239
 30
0.0
 11
5.611732895854643
 21
3.598464789460229
 31
0.0
1001
ACAD
1010
0.0
1020
0.0
1030
0.0
  0
LINE
  5
3FBD7
330
2
100
AcDbEntity
  8
HATCH
100
AcDbLine
 10
5.711732895854652
 20
3.698464789460231
 30
0.0
 11
5.714631800942377
 21
3.701363694547957
 31
0.0
1001
ACAD
1010
0.0
1020
0.0
1030
0.0
  0
LINE
  5
3FBD8
330
2
100
AcDbEntity
  8
HATCH
100
AcDbLine
 10
5.605927069678806
 20
3.548464789460239
 30
0.0
 11
5.655927069678802
 21
3.598464789460229
 31
0.0
1001
ACAD
1010
0.0
1020
0.0
1030
0.0
  0
LINE
  5
3FBD9
330
2
100
AcDbEntity
  8
HATCH
100
AcDbLine
 10
5.664631800942416
 20
3.60716952072385
 30
0.0
 11
5.680927069678808
 21
3.623464789460243
 31
0.0
1001
ACAD
1010
0.0
1020
0.0
1030
0.0
  0
LINE
  5
3FBDA
330
2
100
AcDbEntity
  8
HATCH
100
AcDbLine
 10
5.650121243502964
 20
3.548464789460247
 30
0.0
 11
5.714631800942369
 21
3.612975346899644
 31
0.0
1001
ACAD
1010
0.0
1020
0.0
1030
0.0
  0
LINE
  5
3FBDB
330
2
100
AcDbEntity
  8
HATCH
100
AcDbLine
 10
5.694315417327125
 20
3.548464789460239
 30
0.0
 11
5.714631800942369
 21
3.568781173075484
 31
0.0
1001
ACAD
1010
0.0
1020
0.0
1030
0.0
  0
VIEWPORT
  5
5D
102
{ACAD_XDICTIONARY
360
3FC52
102
}
330
D
100
AcDbEntity
 67
     1
  8
0
100
AcDbViewport
 10
5.102836672053318
 20
3.882552595148703
 30
0.0
 40
18.6064344288412
 41
7.825707361089838
 68
     1
 69
     1
 12
5.102836672053318
 22
3.882552595148703
 13
0.0
 23
0.0
 14
0.5
 24
0.5
 15
0.5
 25
0.5
 16
0.0
 26
0.0
 36
1.0
 17
0.0
 27
0.0
 37
0.0
 42
50.0
 43
0.0
 44
0.0
 45
7.825707361089838
 50
0.0
 51
0.0
 72
   100
 90
    32800
  1

281
     0
 71
     1
 74
     0
110
0.0
120
0.0
130
0.0
111
1.0
121
0.0
131
0.0
112
0.0
122
1.0
132
0.0
 79
     0
146
0.0
  0
ENDSEC
  0
SECTION
  2
OBJECTS
  0
DICTIONARY
  5
7
330
0
100
AcDbDictionary
281
     1
  3
ACAD_2007HEADERVARS_RT
350
3FC4D
  3
ACAD_COLOR
350
885
  3
ACAD_FIELDLIST
350
1393
  3
ACAD_GROUP
350
24
  3
ACAD_LAYOUT
350
C
  3
ACAD_MATERIAL
350
884
  3
ACAD_MLEADERSTYLE
350
3E306
  3
ACAD_MLINESTYLE
350
25
  3
ACAD_PLOTSETTINGS
350
26
  3
ACAD_PLOTSTYLENAME
350
6
  3
ACAD_SCALELIST
350
3E2F4
  3
ACAD_TABLESTYLE
350
886
  3
ACAD_VISUALSTYLE
350
10B2
  3
AcadDim
350
3D116
  3
ACDB_RECOMPOSE_DATA
350
3FC4B
  3
AcDbVariableDictionary
350
3AC
  3
AEC_CLASSIFICATION_SYSTEM_DEFS
350
A2E
  3
AEC_PROPERTY_SET_DEFS
350
318D1
  3
ASE_INDEX_DICTIONARY
350
3D160
  3
DWGPROPS
350
3FC4C
  0
DICTIONARY
  5
139C
330
1A
100
AcDbDictionary
280
     1
281
     1
  0
DICTIONARY
  5
899
330
11
100
AcDbDictionary
280
     1
281
     1
  3
ACAD_LAYERFILTERS
360
1092
  3
ACAD_LAYERSTATES
360
89A
  3
ACLYDICTIONARY
360
1091
  0
DICTIONARY
  5
3F8AB
330
4
100
AcDbDictionary
280
     1
281
     1
  3
ADSK_XREC_LAYER_RECONCILED
360
3F8AC
  0
DICTIONARY
  5
1A62
330
1A61
100
AcDbDictionary
280
     1
281
     1
  3
ADSK_XREC_LAYER_RECONCILED
360
1A63
  0
DICTIONARY
  5
1A6E
330
1A6D
100
AcDbDictionary
280
     1
281
     1
  3
ADSK_XREC_LAYER_RECONCILED
360
1A6F
  0
DICTIONARY
  5
1A71
330
1A70
100
AcDbDictionary
280
     1
281
     1
  3
ADSK_XREC_LAYER_RECONCILED
360
1A72
  0
DICTIONARY
  5
1A7A
330
1A79
100
AcDbDictionary
280
     1
281
     1
  3
ADSK_XREC_LAYER_RECONCILED
360
1A7B
  0
DICTIONARY
  5
1A80
330
1A7F
100
AcDbDictionary
280
     1
281
     1
  3
ADSK_XREC_LAYER_RECONCILED
360
1A81
  0
DICTIONARY
  5
2FE15
330
2
100
AcDbDictionary
280
     1
281
     1
  3
ACAD_SORTENTS
360
2FE16
  0
DICTIONARY
  5
1D72
330
D
100
AcDbDictionary
280
     1
281
     1
  3
ACAD_SORTENTS
360
1D73
  0
DICTIONARY
  5
3FC52
330
5D
100
AcDbDictionary
280
     1
281
     1
  3
ACAD_XREC_ROUNDTRIP
360
3FC53
  0
DICTIONARY
  5
3FC4D
102
{ACAD_REACTORS
330
7
102
}
330
7
100
AcDbDictionary
281
     1
  3
DIMARCSYM
350
3FC4E
  3
INTERFEREVPVS
350
3FC4F
  0
DICTIONARY
  5
885
102
{ACAD_REACTORS
330
7
102
}
330
7
100
AcDbDictionary
281
     1
  3
RAL CLASSIC$RAL 7035
350
358FF
  0
FIELDLIST
  5
1393
102
{ACAD_REACTORS
330
7
102
}
330
7
100
AcDbIdSet
 90
        0
100
AcDbFieldList
  0
DICTIONARY
  5
24
102
{ACAD_REACTORS
330
7
102
}
330
7
100
AcDbDictionary
281
     1
  3
*A1
350
27C
  3
*A2
350
27D
  3
*A3
350
398
  3
*A4
350
399
  0
DICTIONARY
  5
C
102
{ACAD_REACTORS
330
7
102
}
330
7
100
AcDbDictionary
281
     1
  3
Layout1
350
10
  3
Model
350
B
  0
DICTIONARY
  5
884
102
{ACAD_REACTORS
330
7
102
}
330
7
100
AcDbDictionary
281
     1
  3
ByBlock
350
10B0
  3
ByLayer
350
10AF
  3
Global
350
10B1
  0
DICTIONARY
  5
3E306
102
{ACAD_REACTORS
330
7
102
}
330
7
100
AcDbDictionary
281
     1
  3
Standard
350
3E307
  0
DICTIONARY
  5
25
102
{ACAD_REACTORS
330
7
102
}
330
7
100
AcDbDictionary
281
     1
  3
STANDARD
350
28
  0
DICTIONARY
  5
26
102
{ACAD_REACTORS
330
7
102
}
330
7
100
AcDbDictionary
281
     1
  3
5000N
350
1A1F
  3
Minolta
350
1A22
  3
MP80
350
294A3
  3
PDF
350
1A20
  0
ACDBDICTIONARYWDFLT
  5
6
102
{ACAD_REACTORS
330
7
102
}
330
7
100
AcDbDictionary
281
     1
  3
Normal
350
5
100
AcDbDictionaryWithDefault
340
5
  0
DICTIONARY
  5
3E2F4
102
{ACAD_REACTORS
330
7
102
}
330
7
100
AcDbDictionary
281
     1
  3
A0
350
3E2F5
  3
A1
350
3E2F6
  3
A2
350
3E2F7
  3
A3
350
3E2F8
  3
A4
350
3E2F9
  3
A5
350
3E2FA
  3
A6
350
3E2FB
  3
A7
350
3E2FC
  3
A8
350
3E2FD
  3
A9
350
3E2FE
  3
B0
350
3E2FF
  3
B1
350
3E300
  3
B2
350
3E301
  3
B3
350
3E302
  3
B4
350
3E303
  3
B5
350
3E304
  3
B6
350
3E305
  0
DICTIONARY
  5
886
102
{ACAD_REACTORS
330
7
102
}
330
7
100
AcDbDictionary
281
     1
  3
Standard
350
887
  0
DICTIONARY
  5
10B2
102
{ACAD_REACTORS
330
7
102
}
330
7
100
AcDbDictionary
281
     1
  3
2dWireframe
350
10B8
  3
3D Hidden
350
3E31F
  3
3dWireframe
350
1D50
  3
Basic
350
10B7
  3
Brighten
350
10BE
  3
ColorChange
350
10C2
  3
Conceptual
350
3E2EB
  3
Dim
350
10BD
  3
EdgeColorOff
350
3E2F3
  3
Facepattern
350
10C1
  3
Flat
350
10B3
  3
FlatWithEdges
350
10B4
  3
Gouraud
350
10B5
  3
GouraudWithEdges
350
10B6
  3
Hidden
350
3E2EA
  3
JitterOff
350
3E2F1
  3
Linepattern
350
10C0
  3
OverhangOff
350
3E2F2
  3
Realistic
350
1D52
  3
Shaded
350
3E2F0
  3
Shaded with edges
350
3E2EF
  3
Shades of Gray
350
3E2EC
  3
Sketchy
350
3E2ED
  3
Thicken
350
10BF
  3
Wireframe
350
3E2E9
  3
X-Ray
350
3E2EE
  0
XRECORD
  5
3D116
102
{ACAD_REACTORS
330
7
102
}
330
7
100
AcDbXrecord
280
     1
 90
   990106
  3

 60
     0
 61
     0
 62
     1
 63
     1
 64
     0
 65
     0
 66
     1
 67
     3
 68
     0
 69
     0
 70
     0
 71
     0
 72
     0
 40
0.0
170
     1
340
0
  0
XRECORD
  5
3FC4B
102
{ACAD_REACTORS
330
7
102
}
330
7
100
AcDbXrecord
280
     1
 90
        1
330
887
  0
DICTIONARY
  5
3AC
102
{ACAD_REACTORS
330
7
102
}
330
7
100
AcDbDictionary
281
     1
  3
CANNOSCALE
350
3F88A
  3
CMLEADERSTYLE
350
3F888
  3
CTABLESTYLE
350
89F
  3
DIMASSOC
350
3AD
  3
DRAWORDERCTL
350
3FC48
  3
INDEXCTL
350
3FBF0
  3
LAYEREVAL
350
3F88C
  3
LAYERNOTIFY
350
3F88D
  3
LIGHTINGUNITS
350
3F88B
  3
MSLTSCALE
350
3F889
  3
SORTENTS
350
3FBEF
  3
XCLIPFRAME
350
3FC49
  0
DICTIONARY
  5
A2E
102
{ACAD_REACTORS
330
7
102
}
330
7
100
AcDbDictionary
281
     1
  0
DICTIONARY
  5
318D1
102
{ACAD_REACTORS
330
7
102
}
330
7
100
AcDbDictionary
281
     1
  0
DICTIONARY
  5
3D160
102
{ACAD_REACTORS
330
7
102
}
330
7
100
AcDbDictionary
281
     1
  3
ASEBlockHierarchyIndexRecord
350
3D161
1001
DCO15
1040
1639394857.202
  0
XRECORD
  5
3FC4C
102
{ACAD_REACTORS
330
7
102
}
330
7
100
AcDbXrecord
280
     1
  1
DWGPROPS COOKIE
  2

  3

  4

  6

  7

  8
afrazier
  9

300
=
301
=
302
=
303
=
304
=
305
=
306
=
307
=
308
=
309
=
 40
1.639788576388888
 41
2451225.345284028
 42
2456317.600431701
  1

 90
        0
  0
DICTIONARY
  5
1092
102
{ACAD_REACTORS
330
899
102
}
330
899
100
AcDbDictionary
281
     1
  0
DICTIONARY
  5
89A
102
{ACAD_REACTORS
330
899
102
}
330
899
100
AcDbDictionary
281
     1
  0
DICTIONARY
  5
1091
102
{ACAD_REACTORS
330
899
102
}
330
899
100
AcDbDictionary
281
     1
1001
ACAD
1000
<All
  0
XRECORD
  5
3F8AC
102
{ACAD_REACTORS
330
3F8AB
102
}
330
3F8AB
100
AcDbXrecord
280
     1
290
     1
  0
XRECORD
  5
1A63
102
{ACAD_REACTORS
330
1A62
102
}
330
1A62
100
AcDbXrecord
280
     1
290
     1
  0
XRECORD
  5
1A6F
102
{ACAD_REACTORS
330
1A6E
102
}
330
1A6E
100
AcDbXrecord
280
     1
290
     1
  0
XRECORD
  5
1A72
102
{ACAD_REACTORS
330
1A71
102
}
330
1A71
100
AcDbXrecord
280
     1
290
     1
  0
XRECORD
  5
1A7B
102
{ACAD_REACTORS
330
1A7A
102
}
330
1A7A
100
AcDbXrecord
280
     1
290
     1
  0
XRECORD
  5
1A81
102
{ACAD_REACTORS
330
1A80
102
}
330
1A80
100
AcDbXrecord
280
     1
290
     1
  0
SORTENTSTABLE
  5
2FE16
102
{ACAD_REACTORS
330
2FE15
102
}
330
2FE15
100
AcDbSortentsTable
330
2
331
3E2CC
  5
3FA1A
331
3F92F
  5
3FA6B
331
3E2C8
  5
3FA16
331
3F9DF
  5
3E2DC
331
3E2C4
  5
3FA12
331
3F92B
  5
3FA67
331
3F9DB
  5
3E2D8
331
3E2C0
  5
3FA0E
331
3FABD
  5
3FABA
331
3F9D7
  5
3E2D4
331
3FA16
  5
3FB11
331
3FA12
  5
3FB0D
331
3FAF4
  5
3F9D1
331
3F9D3
  5
3E2D0
331
3FAF0
  5
3F9CD
331
3FB34
  5
3F91B
331
3FBAE
  5
3F996
331
3FB30
  5
3F917
331
3FB6F
  5
3F957
331
3FBAA
  5
3F992
331
3FBA6
  5
3F98E
331
3FB2C
  5
3F913
331
3FB6B
  5
3F953
331
3FBA2
  5
3F98A
331
3FB28
  5
3F90F
331
3F965
  5
3FAA1
331
3E1A1
  5
3FBD0
331
3E28C
  5
3FAF2
331
3F961
  5
3FA9D
331
3F95D
  5
3FA99
331
3F99C
  5
3E293
331
3E288
  5
3FAEE
331
3F959
  5
3FA95
331
3F998
  5
3E28F
331
3F927
  5
3FA63
331
3E2BC
  5
3FA0A
331
3F923
  5
3FA5F
331
3F91F
  5
3FA5B
331
3E2B8
  5
3FA06
331
3E2B4
  5
3FA02
331
3FA0E
  5
3FB09
331
3F91B
  5
3FA57
331
3F9CF
  5
3E2CC
331
3E2B0
  5
3F9FE
331
3F9CB
  5
3E2C8
331
3FA0A
  5
3FB05
331
3FA45
  5
3FB40
331
3FAEC
  5
3F9C9
331
3FAE8
  5
3FA51
331
3F9C7
  5
3E2C4
331
3FA06
  5
3FB01
331
3FA41
  5
3FB3C
331
3FA3D
  5
3FB38
331
3FAE4
  5
3FA4D
331
3F9C3
  5
3E2C0
331
3FA02
  5
3FAFD
331
3FA39
  5
3FB34
331
3FAE0
  5
3FA49
331
3FB67
  5
3F94F
331
3FB24
  5
3E2DF
331
3FB63
  5
3F94B
331
3FB9E
  5
3F986
331
3FBD9
  5
3E271
331
3FB20
  5
3F9C5
331
3FB5F
  5
3F947
331
3FB9A
  5
3F982
331
3FBD5
  5
3E26D
331
3FB1C
  5
3F9C1
331
3FB5B
  5
3F943
331
3FB96
  5
3F97E
331
3FB92
  5
3F97A
331
3FBD1
  5
3E269
331
3FB18
  5
3F9BD
331
3E284
  5
3FAEA
331
3E280
  5
3FAE6
331
3F955
  5
3FA91
331
3F994
  5
3E28B
331
3F990
  5
3E287
331
3E27C
  5
3FAE2
331
3F951
  5
3FA8D
331
3F94D
  5
3FA89
331
3F98C
  5
3E283
331
3E278
  5
3FADE
331
3F949
  5
3FA85
331
3F988
  5
3E27F
331
3F917
  5
3F9DF
331
3E2AC
  5
3F9FA
331
3F913
  5
3F9DA
331
3F90F
  5
3F9D5
331
3E2A8
  5
3F9F6
331
3F90B
  5
3F9D3
331
3F9FE
  5
3FBCF
331
3F9BF
  5
3E2BC
331
3E2A4
  5
3F9F2
331
3E2A0
  5
3F9EE
331
3F9BB
  5
3E2B8
331
3F9FA
  5
3FBCB
331
3FA35
  5
3FB30
331
3FADC
  5
3FA45
331
3FAD8
  5
3FA41
331
3F9B7
  5
3E2B0
331
3F9F6
  5
3FBC7
331
3FA31
  5
3FB2C
331
3FA2D
  5
3FB28
331
3FAD4
  5
3FA3D
331
3F9B3
  5
3E2AC
331
3F9F2
  5
3FBC3
331
3FA29
  5
3FB24
331
3FAD0
  5
3FA39
331
3FB57
  5
3F93F
331
3FB14
  5
3F9B9
331
3FB53
  5
3F93B
331
3FB8E
  5
3F976
331
3FBCD
  5
3E265
331
3FB10
  5
3F9B5
331
3FB4F
  5
3F936
331
3FB8A
  5
3F972
331
3FBC9
  5
3E261
331
3FBC5
  5
3E25D
331
3FB0C
  5
3F9B1
331
3FB4B
  5
3F932
331
3FB86
  5
3F96E
331
3FB82
  5
3F96A
331
3FBC1
  5
3E200
331
3FB08
  5
3F9AD
331
3E274
  5
3FADA
331
3E270
  5
3FAD6
331
3F945
  5
3FA81
331
3F984
  5
3E27B
331
3F980
  5
3E277
331
3E26C
  5
3FAD2
331
3F941
  5
3FA7D
331
3F93D
  5
3FA79
331
3F97C
  5
3FAB8
331
3E268
  5
3FACE
331
3F939
  5
3FA75
331
3F978
  5
3FAB4
331
3E29C
  5
3F9EA
331
3E2DB
  5
3FA29
331
3E298
  5
3F9E6
331
3E2D7
  5
3FA25
331
3E2D3
  5
3FA21
331
3F9EE
  5
3FBBF
331
3F9AF
  5
3E2A7
331
3E294
  5
3F9E2
331
3E290
  5
3FAF6
331
3F9AB
  5
3E2A3
331
3F9EA
  5
3FBBB
331
3FA25
  5
3FB20
331
3FACC
  5
3FA35
331
3FAC8
  5
3FA31
331
3F9A7
  5
3E29F
331
3F9E6
  5
3FBD9
331
3FA21
  5
3FB1C
331
3FAC4
  5
3FA2D
331
3F9A3
  5
3E29B
331
3F9E2
  5
3FBD5
331
3FA1D
  5
3FB18
331
3FA19
  5
3FB14
331
3FAC0
  5
3FABD
331
3FB47
  5
3F92E
331
3FB43
  5
3F92A
331
3FB7E
  5
3F966
331
3FBBD
  5
3E1A1
331
3FB04
  5
3F9A9
331
3FB00
  5
3F9A5
331
3FB3F
  5
3F926
331
3FB7A
  5
3F962
331
3FBB9
  5
3E18C
331
3FBB5
  5
3E184
331
3FAFC
  5
3F9A1
331
3FB3B
  5
3F922
331
3FB76
  5
3F95E
331
3FB72
  5
3F95A
331
3FBB1
  5
3F999
331
3FAF8
  5
3F99C
331
3E264
  5
3FACA
331
3F935
  5
3FA71
331
3F974
  5
3FAB0
331
3E260
  5
3FAC6
331
3F970
  5
3FAAC
331
3E25C
  5
3FAC2
331
3F931
  5
3FA6D
331
3F96C
  5
3FAA8
331
3F968
  5
3FAA4
331
3E2CF
  5
3FA1D
331
3E2CB
  5
3FA19
331
3F92E
  5
3FA6A
331
3E2C7
  5
3FA15
331
3F9DE
  5
3E2DB
331
3E2C3
  5
3FA11
331
3F92A
  5
3FA66
331
3F9DA
  5
3E2D7
331
3FAF7
  5
3F99B
331
3F9D6
  5
3E2D3
331
3FA15
  5
3FB10
331
3FA11
  5
3FB0C
331
3FAF3
  5
3F9D0
331
3F9D2
  5
3E2CF
331
3FA48
  5
3FB43
331
3FB37
  5
3F91E
331
3FB33
  5
3F91A
331
3FBAD
  5
3F995
331
3FB2F
  5
3F916
331
3FB6E
  5
3F956
331
3FBA9
  5
3F991
331
3FBA5
  5
3F98D
331
3FB2B
  5
3F912
331
3FB6A
  5
3F952
331
3FBA1
  5
3F989
331
3E1A4
  5
3FBD3
331
3E28F
  5
3FAF5
331
3F964
  5
3FAA0
331
3F99F
  5
3E296
331
3E28B
  5
3FAF1
331
3F960
  5
3FA9C
331
3F95C
  5
3FA98
331
3F99B
  5
3E292
331
3F958
  5
3FA94
331
3E2BF
  5
3FA0D
331
3F926
  5
3FA62
331
3E2BB
  5
3FA09
331
3F922
  5
3FA5E
331
3F91E
  5
3FA5A
331
3E2B7
  5
3FA05
331
3E2B3
  5
3FA01
331
3F9CE
  5
3E2CB
331
3FA0D
  5
3FB08
331
3F91A
  5
3FA56
331
3FAEF
  5
3F9CC
331
3F9CA
  5
3E2C7
331
3FA09
  5
3FB04
331
3FA44
  5
3FB3F
331
3FAEB
  5
3FA54
331
3FAE7
  5
3FA50
331
3F9C6
  5
3E2C3
331
3FA05
  5
3FB00
331
3FA40
  5
3FB3B
331
3FA01
  5
3FAFC
331
3FA3C
  5
3FB37
331
3FAE3
  5
3FA4C
331
3F9C2
  5
3E2BF
331
3FA38
  5
3FB33
331
3FB66
  5
3F94E
331
3FB27
  5
3F90E
331
3FB23
  5
3E2DE
331
3FB62
  5
3F94A
331
3FB9D
  5
3F985
331
3FBD8
  5
3E270
331
3FB1F
  5
3F9C4
331
3FB5E
  5
3F946
331
3FB99
  5
3F981
331
3FB95
  5
3F97D
331
3FBD4
  5
3E26C
331
3FB1B
  5
3F9C0
331
3E287
  5
3FAED
331
3FB5A
  5
3F942
331
3FB91
  5
3F979
331
3FBD0
  5
3E268
331
3F997
  5
3E28E
331
3E283
  5
3FAE9
331
3E27F
  5
3FAE5
331
3F954
  5
3FA90
331
3F993
  5
3E28A
331
3E184
  5
3F9C8
331
3F98F
  5
3E286
331
3E27B
  5
3FAE1
331
3F950
  5
3FA8C
331
3F94C
  5
3FA88
331
3F98B
  5
3E282
331
3F948
  5
3FA84
331
3E2AF
  5
3F9FD
331
3F916
  5
3F9DE
331
3E2AB
  5
3F9F9
331
3F912
  5
3F9D8
331
3F90E
  5
3F9D4
331
3E2A7
  5
3F9F5
331
3E2A3
  5
3F9F1
331
3F9FD
  5
3FBCE
331
3FADF
  5
3FA48
331
3F9BE
  5
3E2BB
331
3F9BA
  5
3E2B7
331
3F9F9
  5
3FBCA
331
3FA34
  5
3FB2F
331
3FADB
  5
3FA44
331
3FAD7
  5
3FA40
331
3F9B6
  5
3E2AF
331
3F9F5
  5
3FBC6
331
3FA30
  5
3FB2B
331
3FA2C
  5
3FB27
331
3FAD3
  5
3FA3C
331
3F9B2
  5
3E2AB
331
3F9F1
  5
3FBC2
331
3FA28
  5
3FB23
331
3FB56
  5
3F93E
331
3FB17
  5
3F9BC
331
3FB13
  5
3F9B8
331
3FB52
  5
3F93A
331
3FB8D
  5
3F975
331
3FBCC
  5
3E264
331
3FBC8
  5
3E260
331
3FB0F
  5
3F9B4
331
3FB4E
  5
3F935
331
3FB89
  5
3F971
331
3FBC4
  5
3E25C
331
3FB0B
  5
3F9B0
331
3FB4A
  5
3F931
331
3E277
  5
3FADD
331
3FB85
  5
3F96D
331
3FB81
  5
3F969
331
3FBC0
  5
3E1A4
331
3F987
  5
3E27E
331
3E273
  5
3FAD9
331
3E26F
  5
3FAD5
331
3F944
  5
3FA80
331
3F983
  5
3E27A
331
3F97F
  5
3E276
331
3E26B
  5
3FAD1
331
3F940
  5
3FA7C
331
3F93C
  5
3FA78
331
3F97B
  5
3FAB7
331
3F938
  5
3FA74
331
3E29F
  5
3F9ED
331
3E29B
  5
3F9E9
331
3E2DA
  5
3FA28
331
3E2D6
  5
3FA24
331
3E297
  5
3F9E5
331
3E2D2
  5
3FA20
331
3F9ED
  5
3FBBE
331
3FACF
  5
3FA38
331
3F9AE
  5
3E2A6
331
3E293
  5
3FAF9
331
3F9AA
  5
3E2A2
331
3F9E9
  5
3FBBA
331
3FA24
  5
3FB1F
331
3FACB
  5
3FA34
331
3FAC7
  5
3FA30
331
3F9A6
  5
3E29E
331
3F9E5
  5
3FBD8
331
3FA20
  5
3FB1B
331
3FA1C
  5
3FB17
331
3FAC3
  5
3FA2C
331
3F9A2
  5
3E299
331
3F9E1
  5
3FBD4
331
3FA18
  5
3FB13
331
3FB46
  5
3F92D
331
3FB07
  5
3F9AC
331
3FB03
  5
3F9A8
331
3FB42
  5
3F929
331
3FB7D
  5
3F965
331
3FBBC
  5
3E1A0
331
3FAFF
  5
3F9A4
331
3FB3E
  5
3F925
331
3FB79
  5
3F961
331
3FBB8
  5
3E18B
331
3FBB4
  5
3E183
331
3FAFB
  5
3F9A0
331
3FB3A
  5
3F921
331
3E267
  5
3FACD
331
3FB75
  5
3F95D
331
3FB71
  5
3F959
331
3FBB0
  5
3F998
331
3F977
  5
3FAB3
331
3E263
  5
3FAC9
331
3E25F
  5
3FAC5
331
3F934
  5
3FA70
331
3F973
  5
3FAAF
331
3F96F
  5
3FAAB
331
3E25B
  5
3FAC1
331
3F930
  5
3FA6C
331
3F96B
  5
3FAA7
331
3E2CE
  5
3FA1C
331
3E2CA
  5
3FA18
331
3F92D
  5
3FA69
331
3E2C6
  5
3FA14
331
3F9DD
  5
3E2DA
331
3E2C2
  5
3FA10
331
3F929
  5
3FA65
331
3FABF
  5
3FABC
331
3F9D9
  5
3E2D6
331
3FAF6
  5
3FBDB
331
3F9D5
  5
3E2D2
331
3FA14
  5
3FB0F
331
3FA10
  5
3FB0B
331
3FAF2
  5
3F9CF
331
3F9D1
  5
3E2CE
331
3FB36
  5
3F91D
331
3FB32
  5
3F919
331
3FBAC
  5
3F994
331
3FB2E
  5
3F915
331
3FB6D
  5
3F955
331
3FBA8
  5
3F990
331
3FB69
  5
3F951
331
3FBA4
  5
3F98C
331
3FB2A
  5
3F911
331
3FBA0
  5
3F988
331
3F967
  5
3FAA3
331
3E1A3
  5
3FBD2
331
3E28E
  5
3FAF4
331
3F963
  5
3FA9F
331
3E19F
  5
3FBB8
331
3F95F
  5
3FA9B
331
3F99E
  5
3E295
331
3E28A
  5
3FAF0
331
3F95B
  5
3FA97
331
3F99A
  5
3E291
331
3E2BE
  5
3FA0C
331
3F925
  5
3FA61
331
3E2BA
  5
3FA08
331
3F921
  5
3FA5D
331
3F91D
  5
3FA59
331
3E2B6
  5
3FA04
331
3E2B2
  5
3FA00
331
3F9CD
  5
3E2CA
331
3FA0C
  5
3FB07
331
3F919
  5
3FA55
331
3FA47
  5
3FB42
331
3FAEE
  5
3F9CB
331
3FAEA
  5
3FA53
331
3F9C9
  5
3E2C6
331
3FA08
  5
3FB03
331
3FA43
  5
3FB3E
331
3FAE6
  5
3FA4F
331
3F9C5
  5
3E2C2
331
3FA04
  5
3FAFF
331
3FA3F
  5
3FB3A
331
3FA00
  5
3FAFB
331
3FA3B
  5
3FB36
331
3FAE2
  5
3FA4B
331
3F9C1
  5
3E2BE
331
3FB65
  5
3F94D
331
3FB26
  5
3F90B
331
3FB22
  5
3F9C7
331
3FB61
  5
3F949
331
3FB9C
  5
3F984
331
3FBDB
  5
3E273
331
3FBD7
  5
3E26F
331
3FB1E
  5
3F9C3
331
3FB5D
  5
3F945
331
3FB98
  5
3F980
331
3FB94
  5
3F97C
331
3FBD3
  5
3E26B
331
3FB1A
  5
3F9BF
331
3E286
  5
3FAEC
331
3FB59
  5
3F941
331
3FB90
  5
3F978
331
3E18B
  5
3FAB9
331
3F957
  5
3FA93
331
3F996
  5
3E28D
331
3E282
  5
3FAE8
331
3F992
  5
3E289
331
3E27E
  5
3FAE4
331
3F953
  5
3FA8F
331
3F98E
  5
3E285
331
3E27A
  5
3FAE0
331
3F94F
  5
3FA8B
331
3F94B
  5
3FA87
331
3F98A
  5
3E281
331
3E2AE
  5
3F9FC
331
3F915
  5
3F9DD
331
3E2AA
  5
3F9F8
331
3F911
  5
3F9D7
331
3E2A6
  5
3F9F4
331
3E2A2
  5
3F9F0
331
3F9BD
  5
3E2BA
331
3F9FC
  5
3FBCD
331
3FA37
  5
3FB32
331
3FADE
  5
3FA47
331
3F9B9
  5
3E2B6
331
3F9F8
  5
3FBC9
331
3FA33
  5
3FB2E
331
3FADA
  5
3FA43
331
3FAD6
  5
3FA3F
331
3F9B5
  5
3E2AE
331
3F9F4
  5
3FBC5
331
3FA2F
  5
3FB2A
331
3F9F0
  5
3FBC1
331
3FA2B
  5
3FB26
331
3FAD2
  5
3FA3B
331
3F9B1
  5
3E2AA
331
3FB55
  5
3F93D
331
3FBCF
  5
3E267
331
3FB16
  5
3F9BB
331
3FB12
  5
3F9B7
331
3FB51
  5
3F939
331
3FB8C
  5
3F974
331
3FBCB
  5
3E263
331
3FBC7
  5
3E25F
331
3FB0E
  5
3F9B3
331
3FB4D
  5
3F934
331
3FB88
  5
3F970
331
3FB84
  5
3F96C
331
3FBC3
  5
3E25B
331
3FB0A
  5
3F9AF
331
3E276
  5
3FADC
331
3FB49
  5
3F930
331
3FB80
  5
3F968
331
3F947
  5
3FA83
331
3F986
  5
3E27D
331
3E272
  5
3FAD8
331
3E26E
  5
3FAD4
331
3F943
  5
3FA7F
331
3F982
  5
3E279
331
3F97E
  5
3E275
331
3E26A
  5
3FAD0
331
3F93F
  5
3FA7B
331
3F93B
  5
3FA77
331
3F97A
  5
3FAB6
331
3E29E
  5
3F9EC
331
3E2DD
  5
3FA2B
331
3E29A
  5
3F9E8
331
3E2D9
  5
3FA27
331
3E2D5
  5
3FA23
331
3E296
  5
3F9E4
331
3E292
  5
3FAF8
331
3F9EC
  5
3FBBD
331
3E2D1
  5
3FA1F
331
3FA27
  5
3FB22
331
3FACE
  5
3FA37
331
3F9AD
  5
3E2A5
331
3F9A9
  5
3E2A1
331
3F9E8
  5
3FBB9
331
3FA23
  5
3FB1E
331
3FACA
  5
3FA33
331
3FAC6
  5
3FA2F
331
3F9A5
  5
3E29D
331
3F9E4
  5
3FBD7
331
3FA1F
  5
3FB1A
331
3FA1B
  5
3FB16
331
3FAC2
  5
3FABF
331
3F9A1
  5
3E298
331
3F9E0
  5
3E2DD
331
3FB45
  5
3F92C
331
3FBBF
  5
3E1A3
331
3FB06
  5
3F9AB
331
3FB02
  5
3F9A7
331
3FB41
  5
3F928
331
3FB7C
  5
3F964
331
3FBBB
  5
3E19F
331
3FBB7
  5
3E186
331
3FAFE
  5
3F9A3
331
3FB3D
  5
3F924
331
3FB78
  5
3F960
331
3FBB3
  5
3E182
331
3FAFA
  5
3F99F
331
3FB39
  5
3F920
331
3E266
  5
3FACC
331
3FB74
  5
3F95C
331
3FB70
  5
3F958
331
3F937
  5
3FA73
331
3F976
  5
3FAB2
331
3E262
  5
3FAC8
331
3E25E
  5
3FAC4
331
3F933
  5
3FA6F
331
3F972
  5
3FAAE
331
3F96E
  5
3FAAA
331
3E25A
  5
3FAC0
331
3F96A
  5
3FAA6
331
3E2CD
  5
3FA1B
331
3E2C9
  5
3FA17
331
3E2C5
  5
3FA13
331
3F92C
  5
3FA68
331
3F9DC
  5
3E2D9
331
3E2C1
  5
3FA0F
331
3F928
  5
3FA64
331
3FABE
  5
3FABB
331
3F9D8
  5
3E2D5
331
3FA17
  5
3FB12
331
3FAF5
  5
3F9D2
331
3F9D4
  5
3E2D1
331
3FA13
  5
3FB0E
331
3FAF1
  5
3F9CE
331
3F9D0
  5
3E2CD
331
3FB35
  5
3F91C
331
3FBAF
  5
3F997
331
3FB31
  5
3F918
331
3FBAB
  5
3F993
331
3FB2D
  5
3F914
331
3FB6C
  5
3F954
331
3FBA7
  5
3F98F
331
3FB68
  5
3F950
331
3FBA3
  5
3F98B
331
3FB29
  5
3F910
331
3F966
  5
3FAA2
331
3E1A2
  5
3FBD1
331
3E28D
  5
3FAF3
331
3F962
  5
3FA9E
331
3F95E
  5
3FA9A
331
3F99D
  5
3E294
331
3E289
  5
3FAEF
331
3F95A
  5
3FA96
331
3F999
  5
3E290
331
3E2BD
  5
3FA0B
331
3F924
  5
3FA60
331
3F920
  5
3FA5C
331
3E2B9
  5
3FA07
331
3F91C
  5
3FA58
331
3FA0F
  5
3FB0A
331
3E2B5
  5
3FA03
331
3E2B1
  5
3F9FF
331
3F9CC
  5
3E2C9
331
3FA0B
  5
3FB06
331
3F918
  5
3F9E1
331
3FA46
  5
3FB41
331
3FAED
  5
3F9CA
331
3FAE9
  5
3FA52
331
3F9C8
  5
3E2C5
331
3FA07
  5
3FB02
331
3FA42
  5
3FB3D
331
3FA3E
  5
3FB39
331
3FAE5
  5
3FA4E
331
3F9C4
  5
3E2C1
331
3FA03
  5
3FAFE
331
3FA3A
  5
3FB35
331
3FAE1
  5
3FA4A
331
3F9C0
  5
3E2BD
331
3FB25
  5
3E2E0
331
3FB64
  5
3F94C
331
3FB9F
  5
3F987
331
3FB21
  5
3F9C6
331
3FB60
  5
3F948
331
3FB9B
  5
3F983
331
3FBDA
  5
3E272
331
3FBD6
  5
3E26E
331
3FB1D
  5
3F9C2
331
3FB5C
  5
3F944
331
3FB97
  5
3F97F
331
3FB58
  5
3F940
331
3FB93
  5
3F97B
331
3FBD2
  5
3E26A
331
3FB19
  5
3F9BE
331
3E285
  5
3FAEB
331
3E281
  5
3FAE7
331
3F956
  5
3FA92
331
3F995
  5
3E28C
331
3F991
  5
3E288
331
3E27D
  5
3FAE3
331
3F952
  5
3FA8E
331
3F94E
  5
3FA8A
331
3F98D
  5
3E284
331
3E279
  5
3FADF
331
3F94A
  5
3FA86
331
3F989
  5
3E280
331
3E2AD
  5
3F9FB
331
3F914
  5
3F9DC
331
3E2A9
  5
3F9F7
331
3F910
  5
3F9D6
331
3F9FF
  5
3FAFA
331
3E2A5
  5
3F9F3
331
3E2A1
  5
3F9EF
331
3F9BC
  5
3E2B9
331
3F9FB
  5
3FBCC
331
3FA36
  5
3FB31
331
3FADD
  5
3FA46
331
3FAD9
  5
3FA42
331
3F9B8
  5
3E2B4
331
3F9F7
  5
3FBC8
331
3FA32
  5
3FB2D
331
3FAD5
  5
3FA3E
331
3F9B4
  5
3E2AD
331
3F9F3
  5
3FBC4
331
3FA2E
  5
3FB29
331
3FA2A
  5
3FB25
331
3FAD1
  5
3FA3A
331
3F9B0
  5
3E2A9
331
3FB54
  5
3F93C
331
3FB8F
  5
3F977
331
3FBCE
  5
3E266
331
3FB15
  5
3F9BA
331
3FB11
  5
3F9B6
331
3FB50
  5
3F937
331
3FB8B
  5
3F973
331
3FBCA
  5
3E262
331
3FBC6
  5
3E25E
331
3FB0D
  5
3F9B2
331
3FB4C
  5
3F933
331
3FB87
  5
3F96F
331
3FB83
  5
3F96B
331
3FBC2
  5
3E25A
331
3FB09
  5
3F9AE
331
3E275
  5
3FADB
331
3FB48
  5
3F92F
331
3F946
  5
3FA82
331
3F985
  5
3E27C
331
3E271
  5
3FAD7
331
3F981
  5
3E278
331
3E26D
  5
3FAD3
331
3F942
  5
3FA7E
331
3F97D
  5
3E274
331
3E269
  5
3FACF
331
3F93E
  5
3FA7A
331
3F93A
  5
3FA76
331
3F979
  5
3FAB5
331
3E29D
  5
3F9EB
331
3E2DC
  5
3FA2A
331
3E299
  5
3F9E7
331
3E2D8
  5
3FA26
331
3E2D4
  5
3FA22
331
3F9EF
  5
3FBC0
331
3E295
  5
3F9E3
331
3E291
  5
3FAF7
331
3F9AC
  5
3E2A4
331
3F9EB
  5
3FBBC
331
3E2D0
  5
3FA1E
331
3FA26
  5
3FB21
331
3FACD
  5
3FA36
331
3F9A8
  5
3E2A0
331
3F9E7
  5
3FBDA
331
3FA22
  5
3FB1D
331
3FAC9
  5
3FA32
331
3FAC5
  5
3FA2E
331
3F9A4
  5
3E29C
331
3F9E3
  5
3FBD6
331
3FA1E
  5
3FB19
331
3FA1A
  5
3FB15
331
3FAC1
  5
3FABE
331
3F9A0
  5
3E297
331
3FB44
  5
3F92B
331
3FB7F
  5
3F967
331
3FBBE
  5
3E1A2
331
3FB05
  5
3F9AA
331
3FB01
  5
3F9A6
331
3FB40
  5
3F927
331
3FB7B
  5
3F963
331
3FBBA
  5
3E19E
331
3FBB6
  5
3E185
331
3FAFD
  5
3F9A2
331
3FB3C
  5
3F923
331
3FB77
  5
3F95F
331
3FB73
  5
3F95B
331
3FBB2
  5
3F99A
331
3FAF9
  5
3F99D
331
3E265
  5
3FACB
331
3FB38
  5
3F91F
331
3F936
  5
3FA72
331
3F975
  5
3FAB1
331
3E261
  5
3FAC7
331
3E25D
  5
3FAC3
331
3F932
  5
3FA6E
331
3F971
  5
3FAAD
331
3F96D
  5
3FAA9
331
3F969
  5
3FAA5
  0
SORTENTSTABLE
  5
1D73
102
{ACAD_REACTORS
330
1D72
102
}
330
1D72
100
AcDbSortentsTable
330
D
331
5D
  5
5D
  0
XRECORD
  5
3FC53
102
{ACAD_REACTORS
330
3FC52
102
}
330
3FC52
100
AcDbXrecord
280
     1
102
SHADEPLOT
 70
     0
  0
XRECORD
  5
3FC4E
102
{ACAD_REACTORS
330
3FC4D
102
}
330
3FC4D
100
AcDbXrecord
280
     1
 70
     1
  0
XRECORD
  5
3FC4F
102
{ACAD_REACTORS
330
3FC4D
102
}
330
3FC4D
100
AcDbXrecord
280
     1
340
1D50
  0
DBCOLOR
  5
358FF
102
{ACAD_REACTORS
330
885
102
}
330
885
100
AcDbColor
  0
GROUP
  5
27C
102
{ACAD_REACTORS
330
24
102
}
330
24
100
AcDbGroup
300

 70
     3
 71
     1
  0
GROUP
  5
27D
102
{ACAD_REACTORS
330
24
102
}
330
24
100
AcDbGroup
300

 70
     3
 71
     1
  0
GROUP
  5
398
102
{ACAD_REACTORS
330
24
102
}
330
24
100
AcDbGroup
300

 70
     3
 71
     1
  0
GROUP
  5
399
102
{ACAD_REACTORS
330
24
102
}
330
24
100
AcDbGroup
300

 70
     3
 71
     1
  0
LAYOUT
  5
10
102
{ACAD_XDICTIONARY
360
89C
102
}
102
{ACAD_REACTORS
330
C
102
}
330
C
100
AcDbPlotSettings
  1
5000N
  2
HP 5000 N
  4
Letter
  6

 40
4.233333110809326
 41
4.233341693878172
 42
4.233322143554686
 43
4.23333740234375
 44
215.8999938964844
 45
279.3999938964844
 46
5.103963199587251
 47
5.863157400131249
 48
0.0
 49
0.0
140
10.205
141
7.764780009564798
142
1.0
143
1.0
 70
   692
 72
     0
 73
     1
 74
     4
  7
GORDON-BLK.ctb
 75
    16
147
1.0
148
0.0
149
0.0
100
AcDbLayout
  1
Layout1
 70
     1
 71
     1
 10
-0.2079161059762549
 20
-0.2079166691697489
 11
10.79208365372785
 21
8.29208309053436
 12
0.0
 22
0.0
 32
0.0
 14
0.0
 24
0.0
 34
0.0
 15
10.205
 25
7.764780009564798
 35
0.0
146
0.0
 13
0.0
 23
0.0
 33
0.0
 16
1.0
 26
0.0
 36
0.0
 17
0.0
 27
1.0
 37
0.0
 76
     0
330
D
331
5D
1001
ACAD_PSEXT
1000
HP 5000 N
1000
HP LaserJet 5100 PCL 6
1000
IP_192.168.100.208
1000

1070
     0
  0
LAYOUT
  5
B
102
{ACAD_XDICTIONARY
360
3FBE3
102
}
102
{ACAD_REACTORS
330
C
102
}
330
C
100
AcDbPlotSettings
  1

  2
HP 5000 N
  4
Letter
  6

 40
4.233333110809326
 41
4.233341693878172
 42
4.233322143554686
 43
4.23333740234375
 44
215.8999938964844
 45
279.3999938964844
 46
0.0
 47
0.0
 48
84.98235853963416
 49
22.7152768375583
140
100.3250891901834
141
34.6700903705237
142
1.0
143
1.463854680858243
 70
 11952
 72
     0
 73
     1
 74
     4
  7
5000N-BLACK.ctb
 75
     0
147
0.6831279177340947
148
-2158.551906906708
149
-576.9680316739806
100
AcDbLayout
  1
Model
 70
     1
 71
     0
 10
0.0
 20
0.0
 11
12.0
 21
9.0
 12
0.0
 22
0.0
 32
0.0
 14
0.0
 24
0.0
 34
0.0
 15
0.0
 25
0.0
 35
0.0
146
0.0
 13
0.0
 23
0.0
 33
0.0
 16
1.0
 26
0.0
 36
0.0
 17
0.0
 27
1.0
 37
0.0
 76
     0
330
2
331
882
1001
ACAD_PSEXT
1000
HP 5000 N
1000
HP LaserJet 5100 PCL 6
1000
IP_192.168.100.208
1000

1070
     0
  0
MATERIAL
  5
10B0
102
{ACAD_XDICTIONARY
360
3FC00
102
}
102
{ACAD_REACTORS
330
884
102
}
330
884
100
AcDbMaterial
  1
ByBlock
 73
     1
 78
     1
172
     1
176
     1
270
     1
274
     1
  0
MATERIAL
  5
10AF
102
{ACAD_XDICTIONARY
360
3FBFE
102
}
102
{ACAD_REACTORS
330
884
102
}
330
884
100
AcDbMaterial
  1
ByLayer
 73
     1
 78
     1
172
     1
176
     1
270
     1
274
     1
  0
MATERIAL
  5
10B1
102
{ACAD_XDICTIONARY
360
3FC02
102
}
102
{ACAD_REACTORS
330
884
102
}
330
884
100
AcDbMaterial
  1
Global
 73
     1
 78
     1
172
     1
176
     1
270
     1
274
     1
  0
MLEADERSTYLE
  5
3E307
102
{ACAD_REACTORS
330
3E306
102
}
330
3E306
100
AcDbMLeaderStyle
170
     2
171
     1
172
     0
 90
        2
 40
0.0
 41
0.0
173
     1
 91
-1056964608
340
16
 92
       -2
290
     1
 42
0.09
291
     1
 43
0.36
  3
Standard
 44
0.18
300

342
13
174
     1
178
     6
175
     1
176
     0
 93
-1056964608
 45
0.18
292
     0
297
     0
 46
0.18
 94
-1056964608
 47
1.0
 49
1.0
140
1.0
293
     1
141
0.0
294
     1
177
     0
142
1.0
295
     0
296
     0
143
0.125
1001
ACAD_MLEADERVER
1070
     2
  0
MLINESTYLE
  5
28
102
{ACAD_REACTORS
330
25
102
}
330
25
100
AcDbMlineStyle
  2
STANDARD
 70
     0
  3

 62
   256
 51
90.0
 52
90.0
 71
     2
 49
0.5
 62
   256
  6
BYLAYER
 49
-0.5
 62
   256
  6
BYLAYER
  0
PLOTSETTINGS
  5
1A1F
102
{ACAD_XDICTIONARY
360
3FC6D
102
}
102
{ACAD_REACTORS
330
26
102
}
330
26
100
AcDbPlotSettings
  1
5000N
  2
HP 5000 N
  4
Letter
  6

 40
4.233333110809326
 41
4.233341693878172
 42
4.233322143554686
 43
4.23333740234375
 44
215.8999938964844
 45
279.3999938964844
 46
5.103963199587251
 47
5.863157400131249
 48
0.0
 49
0.0
140
10.205
141
7.764780009564798
142
1.0
143
1.0
 70
  2740
 72
     0
 73
     1
 74
     4
  7
GORDON-BLK.ctb
 75
    16
147
1.0
148
0.0
149
0.0
1001
ACAD_PSEXT
1000
HP 5000 N
1000
HP LaserJet 5100 PCL 6
1000
IP_192.168.100.208
1000

1070
     0
  0
PLOTSETTINGS
  5
1A22
102
{ACAD_XDICTIONARY
360
3FC71
102
}
102
{ACAD_REACTORS
330
26
102
}
330
26
100
AcDbPlotSettings
  1
Minolta
  2
\\User-server\Minolta
  4
Letter
  6

 40
6.085416316986081
 41
6.085421085357666
 42
6.085403442382812
 43
6.085418701171875
 44
215.8999938964844
 45
279.3999938964844
 46
3.251880947084776
 47
4.011077054977445
 48
0.0
 49
0.0
140
10.205
141
7.764780009564798
142
1.0
143
1.0
 70
  2740
 72
     0
 73
     1
 74
     4
  7
GORDON-BLK.ctb
 75
    16
147
1.0
148
0.0
149
0.0
1001
ACAD_PSEXT
1000
\\User-server\Minolta
1000
CopierBW Ver 1.1
1000
\\User-server
1000

1070
     0
  0
PLOTSETTINGS
  5
294A3
102
{ACAD_XDICTIONARY
360
3FC77
102
}
102
{ACAD_REACTORS
330
26
102
}
330
26
100
AcDbPlotSettings
  1
MP80
  2
\\exchange-server\MP80
  4
Letter
  6

 40
5.027082920074462
 41
5.027085781097412
 42
5.027069091796875
 43
5.027069091796875
 44
215.8999938964844
 45
279.3999938964844
 46
4.310214820833584
 47
5.069419511795068
 48
0.0
 49
0.0
140
10.205
141
7.764780009564798
142
1.0
143
1.0
 70
  2740
 72
     0
 73
     1
 74
     4
  7
GORDON-BLK.ctb
 75
    16
147
1.0
148
0.0
149
0.0
1001
ACAD_PSEXT
1000
\\exchange-server\MP80
1000
LANIER MP 8000/LD280 PCL 6
1000
\\exchange-server
1000

1070
     0
  0
PLOTSETTINGS
  5
1A20
102
{ACAD_XDICTIONARY
360
3FC6F
102
}
102
{ACAD_REACTORS
330
26
102
}
330
26
100
AcDbPlotSettings
  1
PDF
  2
Acrobat PDFWriter
  4
Letter
  6

 40
3.174999952316283
 41
3.174999952316283
 42
3.175003051757812
 43
3.17498779296875
 44
215.8999938964844
 45
279.3999938964844
 46
6.162289324732188
 47
6.921503075599713
 48
0.0
 49
0.0
140
10.205
141
7.764780009564798
142
1.0
143
1.0
 70
  2740
 72
     0
 73
     1
 74
     4
  7
GORDON-BLK.ctb
 75
    16
147
1.0
148
0.0
149
0.0
1001
ACAD_PSEXT
1000
Acrobat PDFWriter
1000
Adobe PDF Converter
1000
My Documents
1000
Creates Adobe PDF
1070
     0
  0
ACDBPLACEHOLDER
  5
5
102
{ACAD_REACTORS
330
6
102
}
330
6
  0
SCALE
  5
3E2F5
102
{ACAD_REACTORS
330
3E2F4
102
}
330
3E2F4
100
AcDbScale
 70
     0
300
1:1
140
1.0
141
1.0
290
     1
  0
SCALE
  5
3E2F6
102
{ACAD_REACTORS
330
3E2F4
102
}
330
3E2F4
100
AcDbScale
 70
     0
300
1/128" = 1'-0"
140
0.0078125
141
12.0
290
     0
  0
SCALE
  5
3E2F7
102
{ACAD_REACTORS
330
3E2F4
102
}
330
3E2F4
100
AcDbScale
 70
     0
300
1/64" = 1'-0"
140
0.015625
141
12.0
290
     0
  0
SCALE
  5
3E2F8
102
{ACAD_REACTORS
330
3E2F4
102
}
330
3E2F4
100
AcDbScale
 70
     0
300
1/32" = 1'-0"
140
0.03125
141
12.0
290
     0
  0
SCALE
  5
3E2F9
102
{ACAD_REACTORS
330
3E2F4
102
}
330
3E2F4
100
AcDbScale
 70
     0
300
1/16" = 1'-0"
140
0.0625
141
12.0
290
     0
  0
SCALE
  5
3E2FA
102
{ACAD_REACTORS
330
3E2F4
102
}
330
3E2F4
100
AcDbScale
 70
     0
300
3/32" = 1'-0"
140
0.09375
141
12.0
290
     0
  0
SCALE
  5
3E2FB
102
{ACAD_REACTORS
330
3E2F4
102
}
330
3E2F4
100
AcDbScale
 70
     0
300
1/8" = 1'-0"
140
0.125
141
12.0
290
     0
  0
SCALE
  5
3E2FC
102
{ACAD_REACTORS
330
3E2F4
102
}
330
3E2F4
100
AcDbScale
 70
     0
300
3/16" = 1'-0"
140
0.1875
141
12.0
290
     0
  0
SCALE
  5
3E2FD
102
{ACAD_REACTORS
330
3E2F4
102
}
330
3E2F4
100
AcDbScale
 70
     0
300
1/4" = 1'-0"
140
0.25
141
12.0
290
     0
  0
SCALE
  5
3E2FE
102
{ACAD_REACTORS
330
3E2F4
102
}
330
3E2F4
100
AcDbScale
 70
     0
300
3/8" = 1'-0"
140
0.375
141
12.0
290
     0
  0
SCALE
  5
3E2FF
102
{ACAD_REACTORS
330
3E2F4
102
}
330
3E2F4
100
AcDbScale
 70
     0
300
1/2" = 1'-0"
140
0.5
141
12.0
290
     0
  0
SCALE
  5
3E300
102
{ACAD_REACTORS
330
3E2F4
102
}
330
3E2F4
100
AcDbScale
 70
     0
300
3/4" = 1'-0"
140
0.75
141
12.0
290
     0
  0
SCALE
  5
3E301
102
{ACAD_REACTORS
330
3E2F4
102
}
330
3E2F4
100
AcDbScale
 70
     0
300
1" = 1'-0"
140
1.0
141
12.0
290
     0
  0
SCALE
  5
3E302
102
{ACAD_REACTORS
330
3E2F4
102
}
330
3E2F4
100
AcDbScale
 70
     0
300
1-1/2" = 1'-0"
140
1.5
141
12.0
290
     0
  0
SCALE
  5
3E303
102
{ACAD_REACTORS
330
3E2F4
102
}
330
3E2F4
100
AcDbScale
 70
     0
300
3" = 1'-0"
140
3.0
141
12.0
290
     0
  0
SCALE
  5
3E304
102
{ACAD_REACTORS
330
3E2F4
102
}
330
3E2F4
100
AcDbScale
 70
     0
300
6" = 1'-0"
140
6.0
141
12.0
290
     0
  0
SCALE
  5
3E305
102
{ACAD_REACTORS
330
3E2F4
102
}
330
3E2F4
100
AcDbScale
 70
     0
300
1'-0" = 1'-0"
140
12.0
141
12.0
290
     0
  0
TABLESTYLE
  5
887
102
{ACAD_XDICTIONARY
360
3FBF2
102
}
102
{ACAD_REACTORS
330
886
102
}
330
886
100
AcDbTableStyle
  3
Standard
 70
     0
 71
     0
 40
0.06
 41
0.06
280
     0
281
     0
  7
STANDARD
140
0.18
170
     2
 62
     0
 63
     7
283
     0
274
    -2
284
     1
 64
     0
275
    -2
285
     1
 65
     0
276
    -2
286
     1
 66
     0
277
    -2
287
     1
 67
     0
278
    -2
288
     1
 68
     0
279
    -2
289
     1
 69
     0
  7
STANDARD
140
0.25
170
     5
 62
     0
 63
     7
283
     0
274
    -2
284
     1
 64
     0
275
    -2
285
     1
 65
     0
276
    -2
286
     1
 66
     0
277
    -2
287
     1
 67
     0
278
    -2
288
     1
 68
     0
279
    -2
289
     1
 69
     0
  7
STANDARD
140
0.18
170
     5
 62
     0
 63
     7
283
     0
274
    -2
284
     1
 64
     0
275
    -2
285
     1
 65
     0
276
    -2
286
     1
 66
     0
277
    -2
287
     1
 67
     0
278
    -2
288
     1
 68
     0
279
    -2
289
     1
 69
     0
  0
VISUALSTYLE
  5
10B8
102
{ACAD_XDICTIONARY
360
3FC5F
102
}
102
{ACAD_REACTORS
330
10B2
102
}
330
10B2
100
AcDbVisualStyle
  2

 70
     4
 71
     0
 72
     2
 73
     0
 90
        0
 40
-0.6
 41
-30.0
 62
     5
 63
     7
 74
     1
 91
        4
 64
     7
 65
   257
 75
     1
175
     1
 42
1.0
 92
        0
 66
   257
 43
1.0
 76
     1
 77
     6
 78
     2
 67
     7
 79
     5
170
     0
171
     0
290
     0
174
     0
 93
        1
 44
0.0
173
     0
291
     0
 45
0.0
1001
ACAD
1000
AcDbSavedByObjectVersion
1070
     0
  0
VISUALSTYLE
  5
3E31F
102
{ACAD_XDICTIONARY
360
3FC8F
102
}
102
{ACAD_REACTORS
330
10B2
102
}
330
10B2
100
AcDbVisualStyle
  2

 70
     6
 71
     1
 72
     2
 73
     2
 90
        0
 40
-0.6
 41
-30.0
 62
     5
 63
     7
 74
     2
 91
        2
 64
     7
 65
   257
 75
     2
175
     1
 42
40.0
 92
        0
 66
   257
 43
1.0
 76
     1
 77
     6
 78
     2
 67
     7
 79
     3
170
     0
171
     0
290
     0
174
     0
 93
        1
 44
0.0
173
     0
291
     0
 45
0.0
1001
ACAD
1000
AcDbSavedByObjectVersion
1070
     0
  0
VISUALSTYLE
  5
1D50
102
{ACAD_XDICTIONARY
360
3FC73
102
}
102
{ACAD_REACTORS
330
10B2
102
}
330
10B2
100
AcDbVisualStyle
  2

 70
     5
 71
     0
 72
     2
 73
     0
 90
        0
 40
-0.6
 41
-30.0
 62
     5
 63
     7
 74
     1
 91
        4
 64
     7
 65
   257
 75
     1
175
     1
 42
1.0
 92
        0
 66
   257
 43
1.0
 76
     1
 77
     6
 78
     2
 67
     7
 79
     5
170
     0
171
     0
290
     0
174
     0
 93
        1
 44
0.0
173
     0
291
     0
 45
0.0
1001
ACAD
1000
AcDbSavedByObjectVersion
1070
     0
  0
VISUALSTYLE
  5
10B7
102
{ACAD_XDICTIONARY
360
3FC5D
102
}
102
{ACAD_REACTORS
330
10B2
102
}
330
10B2
100
AcDbVisualStyle
  2

 70
     7
 71
     1
 72
     0
 73
     1
 90
        0
 40
-0.6
 41
-30.0
 62
     5
 63
     7
 74
     0
 91
        4
 64
     7
 65
   257
 75
     1
175
     1
 42
1.0
 92
        8
 66
     7
 43
1.0
 76
     1
 77
     6
 78
     2
 67
     7
 79
     5
170
     0
171
     0
290
     0
174
     0
 93
        1
 44
0.0
173
     0
291
     1
 45
0.0
1001
ACAD
1000
AcDbSavedByObjectVersion
1070
     0
  0
VISUALSTYLE
  5
10BE
102
{ACAD_XDICTIONARY
360
3FC63
102
}
102
{ACAD_REACTORS
330
10B2
102
}
330
10B2
100
AcDbVisualStyle
  2

 70
    12
 71
     2
 72
     2
 73
     0
 90
        0
 40
-0.6
 41
-30.0
 62
     5
 63
     7
 74
     1
 91
        4
 64
     7
 65
   257
 75
     1
175
     1
 42
1.0
 92
        8
 66
     7
 43
1.0
 76
     1
 77
     6
 78
     2
 67
     7
 79
     5
170
     0
171
     0
290
     0
174
     0
 93
        1
 44
50.0
173
     0
291
     1
 45
0.0
1001
ACAD
1000
AcDbSavedByObjectVersion
1070
     0
  0
VISUALSTYLE
  5
10C2
102
{ACAD_XDICTIONARY
360
3FC6B
102
}
102
{ACAD_REACTORS
330
10B2
102
}
330
10B2
100
AcDbVisualStyle
  2

 70
    16
 71
     2
 72
     2
 73
     3
 90
        0
 40
-0.6
 41
-30.0
 62
     5
 63
     8
 74
     1
 91
        4
 64
     7
 65
   257
 75
     1
175
     1
 42
1.0
 92
        8
 66
     8
 43
1.0
 76
     1
 77
     6
 78
     2
 67
     7
 79
     5
170
     0
171
     0
290
     0
174
     0
 93
        1
 44
0.0
173
     0
291
     1
 45
0.0
1001
ACAD
1000
AcDbSavedByObjectVersion
1070
     0
  0
VISUALSTYLE
  5
3E2EB
102
{ACAD_XDICTIONARY
360
3FC7D
102
}
102
{ACAD_REACTORS
330
10B2
102
}
330
10B2
100
AcDbVisualStyle
  2

 70
     9
 71
     3
 72
     2
 73
     0
 90
        0
 40
-0.6
 41
-30.0
 62
     5
 63
     7
 74
     2
 91
        2
 64
     7
 65
   257
 75
     1
175
     1
 42
179.0
 92
        8
 66
     7
 43
1.0
 76
     1
 77
     6
 78
     2
 67
     7
 79
     3
170
     0
171
     0
290
     0
174
     0
 93
        1
 44
0.0
173
     0
291
     0
 45
0.0
1001
ACAD
1000
AcDbSavedByObjectVersion
1070
     0
  0
VISUALSTYLE
  5
10BD
102
{ACAD_XDICTIONARY
360
3FC61
102
}
102
{ACAD_REACTORS
330
10B2
102
}
330
10B2
100
AcDbVisualStyle
  2

 70
    11
 71
     2
 72
     2
 73
     0
 90
        0
 40
-0.6
 41
-30.0
 62
     5
 63
     7
 74
     1
 91
        4
 64
     7
 65
   257
 75
     1
175
     1
 42
1.0
 92
        8
 66
     7
 43
1.0
 76
     1
 77
     6
 78
     2
 67
     7
 79
     5
170
     0
171
     0
290
     0
174
     0
 93
        1
 44
-50.0
173
     0
291
     1
 45
0.0
1001
ACAD
1000
AcDbSavedByObjectVersion
1070
     0
  0
VISUALSTYLE
  5
3E2F3
102
{ACAD_XDICTIONARY
360
3FC8D
102
}
102
{ACAD_REACTORS
330
10B2
102
}
330
10B2
100
AcDbVisualStyle
  2

 70
    22
 71
     2
 72
     2
 73
     0
 90
        0
 40
-0.6
 41
-30.0
 62
     5
 63
     7
 74
     1
 91
        4
 64
     7
 65
   257
 75
     1
175
     1
 42
1.0
 92
        8
 66
     7
 43
1.0
 76
     1
 77
     6
 78
     2
 67
     7
 79
     5
170
     0
171
     0
290
     0
174
     0
 93
        1
 44
0.0
173
     0
291
     1
 45
0.0
1001
ACAD
1000
AcDbSavedByObjectVersion
1070
     0
  0
VISUALSTYLE
  5
10C1
102
{ACAD_XDICTIONARY
360
3FC69
102
}
102
{ACAD_REACTORS
330
10B2
102
}
330
10B2
100
AcDbVisualStyle
  2

 70
    15
 71
     2
 72
     2
 73
     0
 90
        0
 40
-0.6
 41
-30.0
 62
     5
 63
     7
 74
     1
 91
        4
 64
     7
 65
   257
 75
     1
175
     1
 42
1.0
 92
        8
 66
     7
 43
1.0
 76
     1
 77
     6
 78
     2
 67
     7
 79
     5
170
     0
171
     0
290
     0
174
     0
 93
        1
 44
0.0
173
     0
291
     1
 45
0.0
1001
ACAD
1000
AcDbSavedByObjectVersion
1070
     0
  0
VISUALSTYLE
  5
10B3
102
{ACAD_XDICTIONARY
360
3FC55
102
}
102
{ACAD_REACTORS
330
10B2
102
}
330
10B2
100
AcDbVisualStyle
  2

 70
     0
 71
     2
 72
     1
 73
     1
 90
        2
 40
-0.6
 41
30.0
 62
     5
 63
     7
 74
     0
 91
        4
 64
     7
 65
   257
 75
     1
175
     1
 42
1.0
 92
        8
 66
     7
 43
1.0
 76
     1
 77
     6
 78
     2
 67
     7
 79
     5
170
     0
171
     0
290
     0
174
     0
 93
       13
 44
0.0
173
     0
291
     1
 45
0.0
1001
ACAD
1000
AcDbSavedByObjectVersion
1070
     0
  0
VISUALSTYLE
  5
10B4
102
{ACAD_XDICTIONARY
360
3FC57
102
}
102
{ACAD_REACTORS
330
10B2
102
}
330
10B2
100
AcDbVisualStyle
  2

 70
     1
 71
     2
 72
     1
 73
     1
 90
        2
 40
-0.6
 41
30.0
 62
     5
 63
     7
 74
     1
 91
        4
 64
     7
 65
   257
 75
     1
175
     1
 42
1.0
 92
        0
 66
   257
 43
1.0
 76
     1
 77
     6
 78
     2
 67
     7
 79
     5
170
     0
171
     0
290
     0
174
     0
 93
       13
 44
0.0
173
     0
291
     1
 45
0.0
1001
ACAD
1000
AcDbSavedByObjectVersion
1070
     0
  0
VISUALSTYLE
  5
10B5
102
{ACAD_XDICTIONARY
360
3FC59
102
}
102
{ACAD_REACTORS
330
10B2
102
}
330
10B2
100
AcDbVisualStyle
  2

 70
     2
 71
     2
 72
     2
 73
     1
 90
        2
 40
-0.6
 41
30.0
 62
     5
 63
     7
 74
     0
 91
        4
 64
     7
 65
   257
 75
     1
175
     1
 42
1.0
 92
        0
 66
     7
 43
1.0
 76
     1
 77
     6
 78
     2
 67
     7
 79
     5
170
     0
171
     0
290
     0
174
     0
 93
       13
 44
0.0
173
     0
291
     1
 45
0.0
1001
ACAD
1000
AcDbSavedByObjectVersion
1070
     0
  0
VISUALSTYLE
  5
10B6
102
{ACAD_XDICTIONARY
360
3FC5B
102
}
102
{ACAD_REACTORS
330
10B2
102
}
330
10B2
100
AcDbVisualStyle
  2

 70
     3
 71
     2
 72
     2
 73
     1
 90
        2
 40
-0.6
 41
30.0
 62
     5
 63
     7
 74
     1
 91
        4
 64
     7
 65
   257
 75
     1
175
     1
 42
1.0
 92
        0
 66
   257
 43
1.0
 76
     1
 77
     6
 78
     2
 67
     7
 79
     5
170
     0
171
     0
290
     0
174
     0
 93
       13
 44
0.0
173
     0
291
     1
 45
0.0
1001
ACAD
1000
AcDbSavedByObjectVersion
1070
     0
  0
VISUALSTYLE
  5
3E2EA
102
{ACAD_XDICTIONARY
360
3FC7B
102
}
102
{ACAD_REACTORS
330
10B2
102
}
330
10B2
100
AcDbVisualStyle
  2

 70
     6
 71
     1
 72
     2
 73
     2
 90
        0
 40
-0.6
 41
-30.0
 62
     5
 63
     7
 74
     2
 91
        2
 64
     7
 65
   257
 75
     2
175
     1
 42
40.0
 92
        0
 66
   257
 43
1.0
 76
     1
 77
     6
 78
     2
 67
     7
 79
     3
170
     0
171
     0
290
     0
174
     0
 93
        1
 44
0.0
173
     0
291
     0
 45
0.0
1001
ACAD
1000
AcDbSavedByObjectVersion
1070
     0
  0
VISUALSTYLE
  5
3E2F1
102
{ACAD_XDICTIONARY
360
3FC89
102
}
102
{ACAD_REACTORS
330
10B2
102
}
330
10B2
100
AcDbVisualStyle
  2

 70
    20
 71
     2
 72
     2
 73
     0
 90
        0
 40
-0.6
 41
-30.0
 62
     5
 63
     7
 74
     1
 91
        4
 64
     7
 65
   257
 75
     1
175
     1
 42
1.0
 92
       10
 66
     7
 43
1.0
 76
     1
 77
     6
 78
     2
 67
     7
 79
     5
170
     0
171
     0
290
     0
174
     0
 93
        1
 44
0.0
173
     0
291
     1
 45
0.0
1001
ACAD
1000
AcDbSavedByObjectVersion
1070
     0
  0
VISUALSTYLE
  5
10C0
102
{ACAD_XDICTIONARY
360
3FC67
102
}
102
{ACAD_REACTORS
330
10B2
102
}
330
10B2
100
AcDbVisualStyle
  2

 70
    14
 71
     2
 72
     2
 73
     0
 90
        0
 40
-0.6
 41
-30.0
 62
     5
 63
     7
 74
     1
 91
        4
 64
     7
 65
   257
 75
     7
175
     7
 42
1.0
 92
        8
 66
     7
 43
1.0
 76
     1
 77
     6
 78
     2
 67
     7
 79
     5
170
     0
171
     0
290
     0
174
     0
 93
        1
 44
0.0
173
     0
291
     1
 45
0.0
1001
ACAD
1000
AcDbSavedByObjectVersion
1070
     0
  0
VISUALSTYLE
  5
3E2F2
102
{ACAD_XDICTIONARY
360
3FC8B
102
}
102
{ACAD_REACTORS
330
10B2
102
}
330
10B2
100
AcDbVisualStyle
  2

 70
    21
 71
     2
 72
     2
 73
     0
 90
        0
 40
-0.6
 41
-30.0
 62
     5
 63
     7
 74
     1
 91
        4
 64
     7
 65
   257
 75
     1
175
     1
 42
1.0
 92
        9
 66
     7
 43
1.0
 76
     1
 77
     6
 78
     2
 67
     7
 79
     5
170
     0
171
     0
290
     0
174
     0
 93
        1
 44
0.0
173
     0
291
     1
 45
0.0
1001
ACAD
1000
AcDbSavedByObjectVersion
1070
     0
  0
VISUALSTYLE
  5
1D52
102
{ACAD_XDICTIONARY
360
3FC75
102
}
102
{ACAD_REACTORS
330
10B2
102
}
330
10B2
100
AcDbVisualStyle
  2

 70
     8
 71
     2
 72
     2
 73
     0
 90
        0
 40
-0.6
 41
-30.0
 62
     5
 63
     7
 74
     1
 91
        0
 64
     7
 65
   257
 75
     1
175
     1
 42
1.0
 92
        8
 66
     8
 43
1.0
 76
     1
 77
     6
 78
     2
 67
     7
 79
     5
170
     0
171
     0
290
     0
174
     0
 93
       13
 44
0.0
173
     0
291
     0
 45
0.0
1001
ACAD
1000
AcDbSavedByObjectVersion
1070
     0
  0
VISUALSTYLE
  5
3E2F0
102
{ACAD_XDICTIONARY
360
3FC87
102
}
102
{ACAD_REACTORS
330
10B2
102
}
330
10B2
100
AcDbVisualStyle
  2

 70
    27
 71
     2
 72
     2
 73
     1
 90
        2
 40
-0.6
 41
30.0
 62
     5
 63
     7
 74
     0
 91
        4
 64
     7
 65
   257
 75
     1
175
     1
 42
1.0
 92
        8
 66
   257
 43
1.0
 76
     1
 77
     6
 78
     2
 67
     8
 79
     3
170
     0
171
     0
290
     0
174
     0
 93
        5
 44
0.0
173
     0
291
     0
 45
0.0
1001
ACAD
1000
AcDbSavedByObjectVersion
1070
     0
  0
VISUALSTYLE
  5
3E2EF
102
{ACAD_XDICTIONARY
360
3FC85
102
}
102
{ACAD_REACTORS
330
10B2
102
}
330
10B2
100
AcDbVisualStyle
  2

 70
    26
 71
     2
 72
     2
 73
     1
 90
        2
 40
-0.6
 41
30.0
 62
     5
 63
     7
 74
     1
 91
       10
 64
     7
 65
   257
 75
     2
175
     1
 42
1.0
 92
        8
 66
   257
 43
1.0
 76
     1
 77
     6
 78
     2
 67
     7
 79
     3
170
     0
171
     0
290
     0
174
     0
 93
        5
 44
0.0
173
     0
291
     0
 45
0.0
1001
ACAD
1000
AcDbSavedByObjectVersion
1070
     0
  0
VISUALSTYLE
  5
3E2EC
102
{ACAD_XDICTIONARY
360
3FC7F
102
}
102
{ACAD_REACTORS
330
10B2
102
}
330
10B2
100
AcDbVisualStyle
  2

 70
    23
 71
     2
 72
     2
 73
     3
 90
        0
 40
-0.6
 41
-30.0
 62
     5
 63
     7
 74
     2
 91
        2
 64
     7
 65
     7
 75
     1
175
     1
 42
40.0
 92
        8
 66
     7
 43
1.0
 76
     1
 77
     6
 78
     2
 67
     7
 79
     3
170
     0
171
     0
290
     0
174
     0
 93
        1
 44
0.0
173
     0
291
     0
 45
0.0
1001
ACAD
1000
AcDbSavedByObjectVersion
1070
     0
  0
VISUALSTYLE
  5
3E2ED
102
{ACAD_XDICTIONARY
360
3FC81
102
}
102
{ACAD_REACTORS
330
10B2
102
}
330
10B2
100
AcDbVisualStyle
  2

 70
    24
 71
     1
 72
     2
 73
     2
 90
        0
 40
-0.6
 41
-30.0
 62
     5
 63
     7
 74
     2
 91
        2
 64
     7
 65
     7
 75
     1
175
     1
 42
40.0
 92
       11
 66
     7
 43
1.0
 76
     1
 77
     6
 78
     2
 67
     7
 79
     6
170
     0
171
     0
290
     0
174
     0
 93
        1
 44
0.0
173
     0
291
     0
 45
0.0
1001
ACAD
1000
AcDbSavedByObjectVersion
1070
     0
  0
VISUALSTYLE
  5
10BF
102
{ACAD_XDICTIONARY
360
3FC65
102
}
102
{ACAD_REACTORS
330
10B2
102
}
330
10B2
100
AcDbVisualStyle
  2

 70
    13
 71
     2
 72
     2
 73
     0
 90
        0
 40
-0.6
 41
-30.0
 62
     5
 63
     7
 74
     1
 91
        4
 64
     7
 65
   257
 75
     1
175
     1
 42
1.0
 92
       12
 66
     7
 43
1.0
 76
     1
 77
     6
 78
     2
 67
     7
 79
     5
170
     0
171
     0
290
     0
174
     0
 93
        1
 44
0.0
173
     0
291
     1
 45
0.0
1001
ACAD
1000
AcDbSavedByObjectVersion
1070
     0
  0
VISUALSTYLE
  5
3E2E9
102
{ACAD_XDICTIONARY
360
3FC79
102
}
102
{ACAD_REACTORS
330
10B2
102
}
330
10B2
100
AcDbVisualStyle
  2

 70
     5
 71
     0
 72
     2
 73
     0
 90
        0
 40
-0.6
 41
-30.0
 62
     5
 63
     7
 74
     1
 91
        4
 64
     7
 65
   257
 75
     1
175
     1
 42
1.0
 92
        0
 66
   257
 43
1.0
 76
     1
 77
     6
 78
     2
 67
     7
 79
     3
170
     0
171
     0
290
     0
174
     0
 93
        1
 44
0.0
173
     0
291
     0
 45
0.0
1001
ACAD
1000
AcDbSavedByObjectVersion
1070
     0
  0
VISUALSTYLE
  5
3E2EE
102
{ACAD_XDICTIONARY
360
3FC83
102
}
102
{ACAD_REACTORS
330
10B2
102
}
330
10B2
100
AcDbVisualStyle
  2

 70
    25
 71
     2
 72
     2
 73
     1
 90
        1
 40
0.5
 41
-30.0
 62
     5
 63
     7
 74
     1
 91
        0
 64
     7
 65
   257
 75
     1
175
     1
 42
1.0
 92
        8
 66
     7
 43
1.0
 76
     1
 77
     6
 78
     2
 67
     7
 79
     3
170
     0
171
     0
290
     0
174
     0
 93
       13
 44
0.0
173
     0
291
     0
 45
0.0
1001
ACAD
1000
AcDbSavedByObjectVersion
1070
     0
  0
DICTIONARYVAR
  5
3F88A
102
{ACAD_REACTORS
330
3AC
102
}
330
3AC
100
DictionaryVariables
280
     0
  1
1:1
  0
DICTIONARYVAR
  5
3F888
102
{ACAD_REACTORS
330
3AC
102
}
330
3AC
100
DictionaryVariables
280
     0
  1
STANDARD
  0
DICTIONARYVAR
  5
89F
102
{ACAD_REACTORS
330
3AC
102
}
330
3AC
100
DictionaryVariables
280
     0
  1
STANDARD
  0
DICTIONARYVAR
  5
3AD
102
{ACAD_REACTORS
330
3AC
102
}
330
3AC
100
DictionaryVariables
280
     0
  1
1
  0
DICTIONARYVAR
  5
3FC48
102
{ACAD_REACTORS
330
3AC
102
}
330
3AC
100
DictionaryVariables
280
     0
  1
0
  0
DICTIONARYVAR
  5
3FBF0
102
{ACAD_REACTORS
330
3AC
102
}
330
3AC
100
DictionaryVariables
280
     0
  1
0
  0
DICTIONARYVAR
  5
3F88C
102
{ACAD_REACTORS
330
3AC
102
}
330
3AC
100
DictionaryVariables
280
     0
  1
1
  0
DICTIONARYVAR
  5
3F88D
102
{ACAD_REACTORS
330
3AC
102
}
330
3AC
100
DictionaryVariables
280
     0
  1
15
  0
DICTIONARYVAR
  5
3F88B
102
{ACAD_REACTORS
330
3AC
102
}
330
3AC
100
DictionaryVariables
280
     0
  1
0
  0
DICTIONARYVAR
  5
3F889
102
{ACAD_REACTORS
330
3AC
102
}
330
3AC
100
DictionaryVariables
280
     0
  1
0
  0
DICTIONARYVAR
  5
3FBEF
102
{ACAD_REACTORS
330
3AC
102
}
330
3AC
100
DictionaryVariables
280
     0
  1
127
  0
DICTIONARYVAR
  5
3FC49
102
{ACAD_REACTORS
330
3AC
102
}
330
3AC
100
DictionaryVariables
280
     0
  1
2
  0
XRECORD
  5
3D161
102
{ACAD_REACTORS
330
3D160
102
}
330
3D160
100
AcDbXrecord
280
     1
330
0
330
0
330
290FE
330
0
330
0
330
0
330
0
330
0
330
0
  0
DICTIONARY
  5
89C
330
10
100
AcDbDictionary
280
     1
281
     1
  3
ACAD_XREC_ROUNDTRIP
360
3FC51
  3
ADSK_XREC_LAYOUTTHUMBNAIL
360
89D
  0
DICTIONARY
  5
3FBE3
330
B
100
AcDbDictionary
280
     1
281
     1
  3
ACAD_XREC_ROUNDTRIP
360
3FC50
  3
ADSK_XREC_LAYOUTTHUMBNAIL
360
3FBE4
  0
DICTIONARY
  5
3FC00
330
10B0
100
AcDbDictionary
280
     1
281
     1
  3
ACAD_XREC_ROUNDTRIP
360
3FC01
  0
DICTIONARY
  5
3FBFE
330
10AF
100
AcDbDictionary
280
     1
281
     1
  3
ACAD_XREC_ROUNDTRIP
360
3FBFF
  0
DICTIONARY
  5
3FC02
330
10B1
100
AcDbDictionary
280
     1
281
     1
  3
ACAD_XREC_ROUNDTRIP
360
3FC03
  0
DICTIONARY
  5
3FC6D
330
1A1F
100
AcDbDictionary
280
     1
281
     1
  3
ACAD_XREC_ROUNDTRIP
360
3FC6E
  0
DICTIONARY
  5
3FC71
330
1A22
100
AcDbDictionary
280
     1
281
     1
  3
ACAD_XREC_ROUNDTRIP
360
3FC72
  0
DICTIONARY
  5
3FC77
330
294A3
100
AcDbDictionary
280
     1
281
     1
  3
ACAD_XREC_ROUNDTRIP
360
3FC78
  0
DICTIONARY
  5
3FC6F
330
1A20
100
AcDbDictionary
280
     1
281
     1
  3
ACAD_XREC_ROUNDTRIP
360
3FC70
  0
DICTIONARY
  5
3FBF2
330
887
100
AcDbDictionary
280
     1
281
     1
  3
ACAD_ROUNDTRIP_2008_TABLESTYLE_CELLSTYLEMAP
360
3FC4A
  3
ACAD_XREC_ROUNDTRIP
360
3FC54
  0
DICTIONARY
  5
3FC5F
330
10B8
100
AcDbDictionary
280
     1
281
     1
  3
ACAD_XREC_ROUNDTRIP
360
3FC60
  0
DICTIONARY
  5
3FC8F
330
3E31F
100
AcDbDictionary
280
     1
281
     1
  3
ACAD_XREC_ROUNDTRIP
360
3FC90
  0
DICTIONARY
  5
3FC73
330
1D50
100
AcDbDictionary
280
     1
281
     1
  3
ACAD_XREC_ROUNDTRIP
360
3FC74
  0
DICTIONARY
  5
3FC5D
330
10B7
100
AcDbDictionary
280
     1
281
     1
  3
ACAD_XREC_ROUNDTRIP
360
3FC5E
  0
DICTIONARY
  5
3FC63
330
10BE
100
AcDbDictionary
280
     1
281
     1
  3
ACAD_XREC_ROUNDTRIP
360
3FC64
  0
DICTIONARY
  5
3FC6B
330
10C2
100
AcDbDictionary
280
     1
281
     1
  3
ACAD_XREC_ROUNDTRIP
360
3FC6C
  0
DICTIONARY
  5
3FC7D
330
3E2EB
100
AcDbDictionary
280
     1
281
     1
  3
ACAD_XREC_ROUNDTRIP
360
3FC7E
  0
DICTIONARY
  5
3FC61
330
10BD
100
AcDbDictionary
280
     1
281
     1
  3
ACAD_XREC_ROUNDTRIP
360
3FC62
  0
DICTIONARY
  5
3FC8D
330
3E2F3
100
AcDbDictionary
280
     1
281
     1
  3
ACAD_XREC_ROUNDTRIP
360
3FC8E
  0
DICTIONARY
  5
3FC69
330
10C1
100
AcDbDictionary
280
     1
281
     1
  3
ACAD_XREC_ROUNDTRIP
360
3FC6A
  0
DICTIONARY
  5
3FC55
330
10B3
100
AcDbDictionary
280
     1
281
     1
  3
ACAD_XREC_ROUNDTRIP
360
3FC56
  0
DICTIONARY
  5
3FC57
330
10B4
100
AcDbDictionary
280
     1
281
     1
  3
ACAD_XREC_ROUNDTRIP
360
3FC58
  0
DICTIONARY
  5
3FC59
330
10B5
100
AcDbDictionary
280
     1
281
     1
  3
ACAD_XREC_ROUNDTRIP
360
3FC5A
  0
DICTIONARY
  5
3FC5B
330
10B6
100
AcDbDictionary
280
     1
281
     1
  3
ACAD_XREC_ROUNDTRIP
360
3FC5C
  0
DICTIONARY
  5
3FC7B
330
3E2EA
100
AcDbDictionary
280
     1
281
     1
  3
ACAD_XREC_ROUNDTRIP
360
3FC7C
  0
DICTIONARY
  5
3FC89
330
3E2F1
100
AcDbDictionary
280
     1
281
     1
  3
ACAD_XREC_ROUNDTRIP
360
3FC8A
  0
DICTIONARY
  5
3FC67
330
10C0
100
AcDbDictionary
280
     1
281
     1
  3
ACAD_XREC_ROUNDTRIP
360
3FC68
  0
DICTIONARY
  5
3FC8B
330
3E2F2
100
AcDbDictionary
280
     1
281
     1
  3
ACAD_XREC_ROUNDTRIP
360
3FC8C
  0
DICTIONARY
  5
3FC75
330
1D52
100
AcDbDictionary
280
     1
281
     1
  3
ACAD_XREC_ROUNDTRIP
360
3FC76
  0
DICTIONARY
  5
3FC87
330
3E2F0
100
AcDbDictionary
280
     1
281
     1
  3
ACAD_XREC_ROUNDTRIP
360
3FC88
  0
DICTIONARY
  5
3FC85
330
3E2EF
100
AcDbDictionary
280
     1
281
     1
  3
ACAD_XREC_ROUNDTRIP
360
3FC86
  0
DICTIONARY
  5
3FC7F
330
3E2EC
100
AcDbDictionary
280
     1
281
     1
  3
ACAD_XREC_ROUNDTRIP
360
3FC80
  0
DICTIONARY
  5
3FC81
330
3E2ED
100
AcDbDictionary
280
     1
281
     1
  3
ACAD_XREC_ROUNDTRIP
360
3FC82
  0
DICTIONARY
  5
3FC65
330
10BF
100
AcDbDictionary
280
     1
281
     1
  3
ACAD_XREC_ROUNDTRIP
360
3FC66
  0
DICTIONARY
  5
3FC79
330
3E2E9
100
AcDbDictionary
280
     1
281
     1
  3
ACAD_XREC_ROUNDTRIP
360
3FC7A
  0
DICTIONARY
  5
3FC83
330
3E2EE
100
AcDbDictionary
280
     1
281
     1
  3
ACAD_XREC_ROUNDTRIP
360
3FC84
  0
XRECORD
  5
3FC51
102
{ACAD_REACTORS
330
89C
102
}
330
89C
100
AcDbXrecord
280
     1
102
SHADEPLOT
 70
     0
102
SHADEPLOTRESLEVEL
 70
     2
102
SHADEPLOTCUSTOMDPI
 70
   300
  0
XRECORD
  5
89D
102
{ACAD_REACTORS
330
89C
102
}
330
89C
100
AcDbXrecord
280
     1
310
28000000B40000008B0000000100080000000000BC610000000000000000000000010000000000000000000000000000FFFFFF000000000000000000000000000000000000000000000000000000000000000000330000006600000099000000CC000000FF00000000330000333300006633000099330000CC330000FF3300
310
0000660000336600006666000099660000CC660000FF66000000990000339900006699000099990000CC990000FF99000000CC000033CC000066CC000099CC0000CCCC0000FFCC000000FF000033FF000066FF000099FF0000CCFF0000FFFF000000003300330033006600330099003300CC003300FF003300003333003333
310
33006633330099333300CC333300FF33330000663300336633006666330099663300CC663300FF66330000993300339933006699330099993300CC993300FF99330000CC330033CC330066CC330099CC3300CCCC3300FFCC330000FF330033FF330066FF330099FF3300CCFF3300FFFF330000006600330066006600660099
310
006600CC006600FF00660000336600333366006633660099336600CC336600FF33660000666600336666006666660099666600CC666600FF66660000996600339966006699660099996600CC996600FF99660000CC660033CC660066CC660099CC6600CCCC6600FFCC660000FF660033FF660066FF660099FF6600CCFF6600
310
FFFF660000009900330099006600990099009900CC009900FF00990000339900333399006633990099339900CC339900FF33990000669900336699006666990099669900CC669900FF66990000999900339999006699990099999900CC999900FF99990000CC990033CC990066CC990099CC9900CCCC9900FFCC990000FF99
310
0033FF990066FF990099FF9900CCFF9900FFFF99000000CC003300CC006600CC009900CC00CC00CC00FF00CC000033CC003333CC006633CC009933CC00CC33CC00FF33CC000066CC003366CC006666CC009966CC00CC66CC00FF66CC000099CC003399CC006699CC009999CC00CC99CC00FF99CC0000CCCC0033CCCC0066CC
310
CC0099CCCC00CCCCCC00FFCCCC0000FFCC0033FFCC0066FFCC0099FFCC00CCFFCC00FFFFCC000000FF003300FF006600FF009900FF00CC00FF00FF00FF000033FF003333FF006633FF009933FF00CC33FF00FF33FF000066FF003366FF006666FF009966FF00CC66FF00FF66FF000099FF003399FF006699FF009999FF00CC
310
99FF00FF99FF0000CCFF0033CCFF0066CCFF0099CCFF00CCCCFF00FFCCFF0000FFFF0033FFFF0066FFFF0099FFFF00CCFFFF00FFFFFF00000000000D0D0D001A1A1A00282828003535350043434300505050005D5D5D006B6B6B00787878008686860093939300A1A1A100AEAEAE00BBBBBB00C9C9C900D6D6D600E4E4E400
310
F1F1F100FFFFFF000000000000000000000000000000000000000000000000000000000000000000000000000000000000000000000000000000000000000000000000000000000000000000000000000000000000000000000000000000000000000000000000000000000000000000000000000000000000000000000000
310
00000000000000000000000000000000000000000000000000000000000000000000000000000000000000000000000000000000000000000000000000000000000000000000000000000000000000000000000000000000000000000000000000000000000000000000000000000000000000000000000000000000000000
310
00000000000000000000000000000000000000000000000000000000000000000000000000000000000000000000000000000000000000000000000000000000000000000000000000000000000000000000000000000000000000000000000000000000000000000000000000000000000000000000000000000000000000
310
00000000000000000000000000000000000000000000000000000000000000000000000000000000000000000000000000000000000000000000000000000000000000000000000000000000000000000000000000000000000000000000000000000000000000000000000000000000000000000000000000000000000000
310
00000000000000000000000000000000000000000000000000000000000000000000000000000000000000000000000000000000000000000000000000000000000000000000000000000000000000000000000000000000000000000000000000000000000000000000000000000000000000000000000000000000000000
310
00000000000000000000000000000000000000000000000000000000000000000000000000000000000000000000000000000000000000000000000000000000000000000000000000000000000000000000000000000000000000000000000000000000000000000000000000000000000000000000000000000000000000
310
00000000000000000000000000000000000000000000000000000000000000000000000000000000000000000000000000000000000000000000000000000000000000000000000000000000000000000000000000000000000000000000000000000000000000000000000000000000000000000000000000000000000000
310
00000000000000000000000000000000000000000000000000000000000000000000000000000000000000000000000000000000000000000000000000000000000000000000000000000000000000000000000000000000000000000000000000000000000000000000000000000000000000000000000000000000000000
310
00000000000000000000000000000000000000000000000000000000000000000000000000000000000000000000000000000000000000000000000000000000000000000000000000000000000000000000000000000000000000000000000000000000000000000000000000000000000000000000000000000000000000
310
00000000000000000000000000000000000000000000000000000000000000000000000000000000000000000000000000000000000000000000000000000000000000000000000000000000000000000000000000000000000000000000000000000000000000000000000000000000000000000000000000000000000000
310
00000000000000000000000000000000000000000000000000000000000000000000000000000000000000000000000000000000000000000000000000000000000000000000000000000000000000000000000000000000000000000000000000000000000000000000000000000000000000000000000000000000000000
310
00000000000000000000000000000000000000000000000000000000000000000000000000000000000000000000000000000000000000000000000000000000000000000000000000000000000000000000000000000000000000000000000000000000000000000000000000000000000000000000000000000000000000
310
00000000000000000000000000000000000000000000000000000000000000000000000000000000000000000000000000000000000000000000000000000000000000000000000000000000000000000000000000000000000000000000000000000000000000000000000000000000000000000000000000000000000000
310
00000000000000000000000000000000000000000000000000000000000000000000000000000000000000000000000000000000000000000000000000000000000000000000000000000000000000000000000000000000000000000000000000000000000000000000000000000000000000000000000000000000000000
310
00000000000000000000000000000000000000000000000000000000000000000000000000000000000000000000000000000000000000000000000000000000000000000000000000000000000000000000000000000000000000000000000000000000000000000000000000000000000000000000000000000000000000
310
00000000000000000000000000000000000000000000000000000000000000000000000000000000000000000000000000000000000000000000000000000000000000000000000000000000000000000000000000000000000000000000000000000000000000000000000000000000000000000000000000000000000000
310
00000000000000000000000000000000000000000000000000000000000000000000000000000000000000000000000000000000000000000000000000000000000000000000000000000000000000000000000000000000000000000000000000000000000000000000000000000000000000000000000000000000000000
310
00000000000000000000000000000000000000000000000000000000000000000000000000000000000000000000000000000000000000000000000000000000000000000000000000000000000000000000000000000000000000000000000000000000000000000000000000000000000000000000000000000000000000
310
00000000000000000000000000000000000000000000000000000000000000000000000000000000000000000000000000000000000000000000000000000000000000000000000000000000000000000000000000000000000000000000000000000000000000000000000000000000000000000000000000000000000000
310
00000000000000000000000000000000000000000000000000000000000000000000000000000000000000000000000000000000000000000000000000000000000000000000000000000000000000000000000000000000000000000000000000000000000000000000000000000000000000000000000000000000000000
310
00000000000000000000000000000000000000000000000000000000000000000000000000000000000000000000000000000000000000000000000000000000000000000000000000000000000000000000000000000000000000000000000000000000000000000000000000000000000000000000000000000000000000
310
00000000000000000000000000000000000000000000000000000000000000000000000000000000000000000000000000000000000000000000000000000000000000000000000000000000000000000000000000000000000000000000000000000000000000000000000000000000000000000000000000000000000000
310
00000000000000000000000000000000000000000000000000000000000000000000000000000000000000000000000000000000000000000000000000000000000000000000000000000000000000000000000000000000000000000000000000000000000000000000000000000000000000000000000000000000000000
310
00000000000000000000000000000000000000000000000000000000000000000000000000000000000000000000000000000000000000000000000000000000000000000000000000000000000000000000000000000000000000000000000000000000000000000000000000000000000000000000000000000000000000
310
00000000000000000000000000000000000000000000000000000000000000000000000000000000000000000000000000000000000000000000000000000000000000000000000000000000000000000000000000000000000000000000000000000000000000000000000000000000000000000000000000000000000000
310
00000000000000000000000000000000000000000000000000000000000000000000000000000000000000000000000000000000000000000000000000000000000000000000000000000000000000000000000000000000000000000000000000000000000000000000000000000000000000000000000000000000000000
310
00000000000000000000000000000000000000000000000000000000000000000000000000000000000000000000000000000000000000000000000000000000000000000000000000000000000000000000000000000000000000000000000000000000000000000000000000000000000000000000000000000000000000
310
00000000000000000000000000000000000000000000000000000000000000000000000000000000000000000000000000000000000000000000000000000000000000000000000000000000000000000000000000000000000000000000000000000000000000000000000000000000000000000000000000000000000000
310
00000000000000000000000000000000000000000000000000000000000000000000000000000000000000000000000000000000000000000000000000000000000000000000000000000000000000000000000000000000000000000000000000000000000000000000000000000000000000000000000000000000000000
310
00000000000000000000000000000000000000000000000000000000000000000000000000000000000000000000000000000000000000000000000000000000000000000000000000000000000000000000000000000000000000000000000000000000000000000000000000000000000000000000000000000000000000
310
00000000000000000000000000000000000000000000000000000000000000000000000000000000000000000000000000000000000000000000000000000000000000000000000000000000000000000000000000000000000000000000000000000000000000000000000000000000000000000000000000000000000000
310
00000000000000000000000000000000000000000000000000000000000000000000000000000000000000000000000000000000000000000000000000000000000000000000000000000000000000000000000000000000000000000000000000000000000000000000000000000000000000000000000000000000000000
310
00000000000000000000000000000000000000000000000000000000000000000000000000000000000000000000000000000000000000000000000000000000000000000000000000000000000000000000000000000000000000000000000000000000000000000000000000000000000000000000000000000000000000
310
00000000000000000000000000000000000000000000000000000000000000000000000000000000000000000000000000000000000000000000000000000000000000000000000000000000000000000000000000000000000000000000000000000000000000000000000000000000000000000000000000000000000000
310
00000000000000000000000000000000000000000000000000000000000000000000000000000000000000000000000000000000000000000000000000000000000000000000000000000000000000000000000000000000000000000000000000000000000000000000000000000000000000000000000000000000000000
310
00000000000000000000000000000000000000000000000000000000000000000000000000000000000000000000000000000000000000000000000000000000000000000000000000000000000000000000000000000000000000000000000000000000000000000000000000000000000000000000000000000000000000
310
00000000000000000000000000000000000000000000000000000000000000000000000000000000000000000000000000000000000000000000000000000000000000000000000000000000000000000000000000000000000000000000000000000000000000000000000000000000000000000000000000000000000000
310
00000000000000000000000000000000000000000000000000000000000000000000000000000000000000000000000000000000000000000000000000000000000000000000000000000000000000000000000000000000000000000000000000000000000000000000000000000000000000000000000000000000000000
310
00000000000000000000000000000000000000000000000000000000000000000000000000000000000000000000000000000000000000000000000000000000000000000000000000000000000000000000000000000000000000000000000000000000000000000000000000000000000000000000000000000000000000
310
00000000000000000000000000000000000000000000000000000000000000000000000000000000000000000000000000000000000000000000000000000000000000000000000000000000000000000000000000000000000000000000000000000000000000000000000000000000000000000000000000000000000000
310
00000000000000000000000000000000000000000000000000000000000000000000000000000000000000000000000000000000000000000000000000000000000000000000000000000000000000000000000000000000000000000000000000000000000000000000000000000000000000000000000000000000000000
310
00000000000000000000000000000000000000000000000000000000000000000000000000000000000000000000000000000000000000000000000000000000000000000000000000000000000000000000000000000000000000000000000000000000000000000000000000000000000000000000000000000000000000
310
00000000000000000000000000000000000000000000000000000000000000000000000000000000000000000000000000000000000000000000000000000000000000000000000000000000000000000000000000000000000000000000000000000000000000000000000000000000000000000000000000000000000000
310
00000000000000000000000000000000000000000000000000000000000000000000000000000000000000000000000000000000000000000000000000000000000000000000000000000000000000000000000000000000000000000000000000000000000000000000000000000000000000000000000000000000000000
310
00000000000000000000000000000000000000000000000000000000000000000000000000000000000000000000000000000000000000000000000000000000000000000000000000000000000000000000000000000000000000000000000000000000000000000000000000000000000000000000000000000000000000
310
00000000000000000000000000000000000000000000000000000000000000000000000000000000000000000000000000000000000000000000000000000000000000000000000000000000000000000000000000000000000000000000000000000000000000000000000000000000000000000000000000000000000000
310
00000000000000000000000000000000000000000000000000000000000000000000000000000000000000000000000000000000000000000000000000000000000000000000000000000000000000000000000000000000000000000000000000000000000000000000000000000000000000000000000000000000000000
310
00000000000000000000000000000000000000000000000000000000000000000000000000000000000000000000000000000000000000000000000000000000000000000000000000000000000000000000000000000000000000000000000000000000000000000000000000000000000000000000000000000000000000
310
00000000000000000000000000000000000000000000000000000000000000000000000000000000000000000000000000000000000000000000000000000000000000000000000000000000000000000000000000000000000000000000000000000000000000000000000000000000000000000000000000000000000000
310
00000000000000000000000000000000000000000000000000000000000000000000000000000000000000000000000000000000000000000000000000000000000000000000000000000000000000000000000000000000000000000000000000000000000000000000000000000000000000000000000000000000000000
310
00000000000000000000000000000000000000000000000000000000000000000000000000000000000000000000000000000000000000000000000000000000000000000000000000000000000000000000000000000000000000000000000000000000000000000000000000000000000000000000000000000000000000
310
00000000000000000000000000000000000000000000000000000000000000000000000000000000000000000000000000000000000000000000000000000000000000000000000000000000000000000000000000000000000000000000000000000000000000000000000000000000000000000000000000000000000000
310
00000000000000000000000000000000000000000000000000000000000000000000000000000000000000000000000000000000000000000000000000000000000000000000000000000000000000000000000000000000000000000000000000000000000000000000000000000000000000000000000000000000000000
310
00000000000000000000000000000000000000000000000000000000000000000000000000000000000000000000000000000000000000000000000000000000000000000000000000000000000000000000000000000000000000000000000000000000000000000000000000000000000000000000000000000000000000
310
00000000000000000000000000000000000000000000000000000000000000000000000000000000000000000000000000000000000000000000000000000000000000000000000000000000000000000000000000000000000000000000000000000000000000000000000000000000000000000000000000000000000000
310
00000000000000000000000000000000000000000000000000000000000000000000000000000000000000000000000000000000000000000000000000000000000000000000000000000000000000000000000000000000000000000000000000000000000000000000000000000000000000000000000000000000000000
310
00000000000000000000000000000000000000000000000000000000000000000000000000000000000000000000000000000000000000000000000000000000000000000000000000000000000000000000000000000000000000000000000000000000000000000000000000000000000000000000000000000000000000
310
00000000000000000000000000000000000000000000000000000000000000000000000000000000000000000000000000000000000000000000000000000000000000000000000000000000000000000000000000000000000000000000000000000000000000000000000000000000000000000000000000000000000000
310
00000000000000000000000000000000000000000000000000000000000000000000000000000000000000000000000000000000000000000000000000000000000000000000000000000000000000000000000000000000000000000000000000000000000000000000000000000000000000000000000000000000000000
310
00000000000000000000000000000000000000000000000000000000000000000000000000000000000000000000000000000000000000000000000000000000000000000000000000000000000000000000000000000000000000000000000000000000000000000000000000000000000000000000000000000000000000
310
00000000000000000000000000000000000000000000000000000000000000000000000000000000000000000000000000000000000000000000000000000000000000000000000000000000000000000000000000000000000000000000000000000000000000000000000000000000000000000000000000000000000000
310
00000000000000000000000000000000000000000000000000000000000000000000000000000000000000000000000000000000000000000000000000000000000000000000000000000000000000000000000000000000000000000000000000000000000000000000000000000000000000000000000000000000000000
310
00000000000000000000000000000000000000000000000000000000000000000000000000000000000000000000000000000000000000000000000000000000000000000000000000000000000000000000000000000000000000000000000000000000000000000000000000000000000000000000000000000000000000
310
00000000000000000000000000000000000000000000000000000000000000000000000000000000000000000000000000000000000000000000000000000000000000000000000000000000000000000000000000000000000000000000000000000000000000000000000000000000000000000000000000000000000000
310
00000000000000000000000000000000000000000000000000000000000000000000000000000000000000000000000000000000000000000000000000000000000000000000000000000000000000000000000000000000000000000000000000000000000000000000000000000000000000000000000000000000000000
310
00000000000000000000000000000000000000000000000000000000000000000000000000000000000000000000000000000000000000000000000000000000000000000000000000000000000000000000000000000000000000000000000000000000000000000000000000000000000000000000000000000000000000
310
00000000000000000000000000000000000000000000000000000000000000000000000000000000000000000000000000000000000000000000000000000000000000000000000000000000000000000000000000000000000000000000000000000000000000000000000000000000000000000000000000000000000000
310
00000000000000000000000000000000000000000000000000000000000000000000000000000000000000000000000000000000000000000000000000000000000000000000000000000000000000000000000000000000000000000000000000000000000000000000000000000000000000000000000000000000000000
310
00000000000000000000000000000000000000000000000000000000000000000000000000000000000000000000000000000000000000000000000000000000000000000000000000000000000000000000000000000000000000000000000000000000000000000000000000000000000000000000000000000000000000
310
00000000000000000000000000000000000000000000000000000000000000000000000000000000000000000000000000000000000000000000000000000000000000000000000000000000000000000000000000000000000000000000000000000000000000000000000000000000000000000000000000000000000000
310
00000000000000000000000000000000000000000000000000000000000000000000000000000000000000000000000000000000000000000000000000000000000000000000000000000000000000000000000000000000000000000000000000000000000000000000000000000000000000000000000000000000000000
310
00000000000000000000000000000000000000000000000000000000000000000000000000000000000000000000000000000000000000000000000000000000000000000000000000000000000000000000000000000000000000000000000000000000000000000000000000000000000000000000000000000000000000
310
00000000000000000000000000000000000000000000000000000000000000000000000000000000000000000000000000000000000000000000000000000000000000000000000000000000000000000000000000000000000000000000000000000000000000000000000000000000000000000000000000000000000000
310
00000000000000000000000000000000000000000000000000000000000000000000000000000000000000000000000000000000000000000000000000000000000000000000000000000000000000000000000000000000000000000000000000000000000000000000000000000000000000000000000000000000000000
310
00000000000000000000000000000000000000000000000000000000000000000000000000000000000000000000000000000000000000000000000000000000000000000000000000000000000000000000000000000000000000000000000000000000000000000000000000000000000000000000000000000000000000
310
00000000000000000000000000000000000000000000000000000000000000000000000000000000000000000000000000000000000000000000000000000000000000000000000000000000000000000000000000000000000000000000000000000000000000000000000000000000000000000000000000000000000000
310
00000000000000000000000000000000000000000000000000000000000000000000000000000000000000000000000000000000000000000000000000000000000000000000000000000000000000000000000000000000000000000000000000000000000000000000000000000000000000000000000000000000000000
310
00000000000000000000000000000000000000000000000000000000000000000000000000000000000000000000000000000000000000000000000000000000000000000000000000000000000000000000000000000000000000000000000000000000000000000000000000000000000000000000000000000000000000
310
00000000000000000000000000000000000000000000000000000000000000000000000000000000000000000000000000000000000000000000000000000000000000000000000000000000000000000000000000000000000000000000000000000000000000000000000000000000000000000000000000000000000000
310
00000000000000000000000000000000000000000000000000000000000000000000000000000000000000000000000000000000000000000000000000000000000000000000000000000000000000000000000000000000000000000000000000000000000000000000000000000000000000000000000000000000000000
310
00000000000000000000000000000000000000000000000000000000000000000000000000000000000000000000000000000000000000000000000000000000000000000000000000000000000000000000000000000000000000000000000000000000000000000000000000000000000000000000000000000000000000
310
00000000000000000000000000000000000000000000000000000000000000000000000000000000000000000000000000000000000000000000000000000000000000000000000000000000000000000000000000000000000000000000000000000000000000000000000000000000000000000000000000000000000000
310
00000000000000000000000000000000000000000000000000000000000000000000000000000000000000000000000000000000000000000000000000000000000000000000000000000000000000000000000000000000000000000000000000000000000000000000000000000000000000000000000000000000000000
310
00000000000000000000000000000000000000000000000000000000000000000000000000000000000000000000000000000000000000000000000000000000000000000000000000000000000000000000000000000000000000000000000000000000000000000000000000000000000000000000000000000000000000
310
00000000000000000000000000000000000000000000000000000000000000000000000000000000000000000000000000000000000000000000000000000000000000000000000000000000000000000000000000000000000000000000000000000000000000000000000000000000000000000000000000000000000000
310
00000000000000000000000000000000000000000000000000000000000000000000000000000000000000000000000000000000000000000000000000000000000000000000000000000000000000000000000000000000000000000000000000000000000000000000000000000000000000000000000000000000000000
310
00000000000000000000000000000000000000000000000000000000000000000000000000000000000000000000000000000000000000000000000000000000000000000000000000000000000000000000000000000000000000000000000000000000000000000000000000000000000000000000000000000000000000
310
00000000000000000000000000000000000000000000000000000000000000000000000000000000000000000000000000000000000000000000000000000000000000000000000000000000000000000000000000000000000000000000000000000000000000000000000000000000000000000000000000000000000000
310
00000000000000000000000000000000000000000000000000000000000000000000000000000000000000000000000000000000000000000000000000000000000000000000000000000000000000000000000000000000000000000000000000000000000000000000000000000000000000000000000000000000000000
310
00000000000000000000000000000000000000000000000000000000000000000000000000000000000000000000000000000000000000000000000000000000000000000000000000000000000000000000000000000000000000000000000000000000000000000000000000000000000000000000000000000000000000
310
00000000000000000000000000000000000000000000000000000000000000000000000000000000000000000000000000000000000000000000000000000000000000000000000000000000000000000000000000000000000000000000000000000000000000000000000000000000000000000000000000000000000000
310
00000000000000000000000000000000000000000000000000000000000000000000000000000000000000000000000000000000000000000000000000000000000000000000000000000000000000000000000000000000000000000000000000000000000000000000000000000000000000000000000000000000000000
310
00000000000000000000000000000000000000000000000000000000000000000000000000000000000000000000000000000000000000000000000000000000000000000000000000000000000000000000000000000000000000000000000000000000000000000000000000000000000000000000000000000000000000
310
00000000000000000000000000000000000000000000000000000000000000000000000000000000000000000000000000000000000000000000000000000000000000000000000000000000000000000000000000000000000000000000000000000000000000000000000000000000000000000000000000000000000000
310
00000000000000000000000000000000000000000000000000000000000000000000000000000000000000000000000000000000000000000000000000000000000000000000000000000000000000000000000000000000000000000000000000000000000000000000000000000000000000000000000000000000000000
310
00000000000000000000000000000000000000000000000000000000000000000000000000000000000000000000000000000000000000000000000000000000000000000000000000000000000000000000000000000000000000000000000000000000000000000000000000000000000000000000000000000000000000
310
00000000000000000000000000000000000000000000000000000000000000000000000000000000000000000000000000000000000000000000000000000000000000000000000000000000000000000000000000000000000000000000000000000000000000000000000000000000000000000000000000000000000000
310
00000000000000000000000000000000000000000000000000000000000000000000000000000000000000000000000000000000000000000000000000000000000000000000000000000000000000000000000000000000000000000000000000000000000000000000000000000000000000000000000000000000000000
310
00000000000000000000000000000000000000000000000000000000000000000000000000000000000000000000000000000000000000000000000000000000000000000000000000000000000000000000000000000000000000000000000000000000000000000000000000000000000000000000000000000000000000
310
00000000000000000000000000000000000000000000000000000000000000000000000000000000000000000000000000000000000000000000000000000000000000000000000000000000000000000000000000000000000000000000000000000000000000000000000000000000000000000000000000000000000000
310
00000000000000000000000000000000000000000000000000000000000000000000000000000000000000000000000000000000000000000000000000000000000000000000000000000000000000000000000000000000000000000000000000000000000000000000000000000000000000000000000000000000000000
310
00000000000000000000000000000000000000000000000000000000000000000000000000000000000000000000000000000000000000000000000000000000000000000000000000000000000000000000000000000000000000000000000000000000000000000000000000000000000000000000000000000000000000
310
00000000000000000000000000000000000000000000000000000000000000000000000000000000000000000000000000000000000000000000000000000000000000000000000000000000000000000000000000000000000000000000000000000000000000000000000000000000000000000000000000000000000000
310
00000000000000000000000000000000000000000000000000000000000000000000000000000000000000000000000000000000000000000000000000000000000000000000000000000000000000000000000000000000000000000000000000000000000000000000000000000000000000000000000000000000000000
310
00000000000000000000000000000000000000000000000000000000000000000000000000000000000000000000000000000000000000000000000000000000000000000000000000000000000000000000000000000000000000000000000000000000000000000000000000000000000000000000000000000000000000
310
00000000000000000000000000000000000000000000000000000000000000000000000000000000000000000000000000000000000000000000000000000000000000000000000000000000000000000000000000000000000000000000000000000000000000000000000000000000000000000000000000000000000000
310
00000000000000000000000000000000000000000000000000000000000000000000000000000000000000000000000000000000000000000000000000000000000000000000000000000000000000000000000000000000000000000000000000000000000000000000000000000000000000000000000000000000000000
310
00000000000000000000000000000000000000000000000000000000000000000000000000000000000000000000000000000000000000000000000000000000000000000000000000000000000000000000000000000000000000000000000000000000000000000000000000000000000000000000000000000000000000
310
00000000000000000000000000000000000000000000000000000000000000000000000000000000000000000000000000000000000000000000000000000000000000000000000000000000000000000000000000000000000000000000000000000000000000000000000000000000000000000000000000000000000000
310
00000000000000000000000000000000000000000000000000000000000000000000000000000000000000000000000000000000000000000000000000000000000000000000000000000000000000000000000000000000000000000000000000000000000000000000000000000000000000000000000000000000000000
310
00000000000000000000000000000000000000000000000000000000000000000000000000000000000000000000000000000000000000000000000000000000000000000000000000000000000000000000000000000000000000000000000000000000000000000000000000000000000000000000000000000000000000
310
00000000000000000000000000000000000000000000000000000000000000000000000000000000000000000000000000000000000000000000000000000000000000000000000000000000000000000000000000000000000000000000000000000000000000000000000000000000000000000000000000000000000000
310
00000000000000000000000000000000000000000000000000000000000000000000000000000000000000000000000000000000000000000000000000000000000000000000000000000000000000000000000000000000000000000000000000000000000000000000000000000000000000000000000000000000000000
310
00000000000000000000000000000000000000000000000000000000000000000000000000000000000000000000000000000000000000000000000000000000000000000000000000000000000000000000000000000000000000000000000000000000000000000000000000000000000000000000000000000000000000
310
00000000000000000000000000000000000000000000000000000000000000000000000000000000000000000000000000000000000000000000000000000000000000000000000000000000000000000000000000000000000000000000000000000000000000000000000000000000000000000000000000000000000000
310
00000000000000000000000000000000000000000000000000000000000000000000000000000000000000000000000000000000000000000000000000000000000000000000000000000000000000000000000000000000000000000000000000000000000000000000000000000000000000000000000000000000000000
310
00000000000000000000000000000000000000000000000000000000000000000000000000000000000000000000000000000000000000000000000000000000000000000000000000000000000000000000000000000000000000000000000000000000000000000000000000000000000000000000000000000000000000
310
00000000000000000000000000000000000000000000000000000000000000000000000000000000000000000000000000000000000000000000000000000000000000000000000000000000000000000000000000000000000000000000000000000000000000000000000000000000000000000000000000000000000000
310
00000000000000000000000000000000000000000000000000000000000000000000000000000000000000000000000000000000000000000000000000000000000000000000000000000000000000000000000000000000000000000000000000000000000000000000000000000000000000000000000000000000000000
310
00000000000000000000000000000000000000000000000000000000000000000000000000000000000000000000000000000000000000000000000000000000000000000000000000000000000000000000000000000000000000000000000000000000000000000000000000000000000000000000000000000000000000
310
00000000000000000000000000000000000000000000000000000000000000000000000000000000000000000000000000000000000000000000000000000000000000000000000000000000000000000000000000000000000000000000000000000000000000000000000000000000000000000000000000000000000000
310
00000000000000000000000000000000000000000000000000000000000000000000000000000000000000000000000000000000000000000000000000000000000000000000000000000000000000000000000000000000000000000000000000000000000000000000000000000000000000000000000000000000000000
310
00000000000000000000000000000000000000000000000000000000000000000000000000000000000000000000000000000000000000000000000000000000000000000000000000000000000000000000000000000000000000000000000000000000000000000000000000000000000000000000000000000000000000
310
00000000000000000000000000000000000000000000000000000000000000000000000000000000000000000000000000000000000000000000000000000000000000000000000000000000000000000000000000000000000000000000000000000000000000000000000000000000000000000000000000000000000000
310
00000000000000000000000000000000000000000000000000000000000000000000000000000000000000000000000000000000000000000000000000000000000000000000000000000000000000000000000000000000000000000000000000000000000000000000000000000000000000000000000000000000000000
310
00000000000000000000000000000000000000000000000000000000000000000000000000000000000000000000000000000000000000000000000000000000000000000000000000000000000000000000000000000000000000000000000000000000000000000000000000000000000000000000000000000000000000
310
00000000000000000000000000000000000000000000000000000000000000000000000000000000000000000000000000000000000000000000000000000000000000000000000000000000000000000000000000000000000000000000000000000000000000000000000000000000000000000000000000000000000000
310
00000000000000000000000000000000000000000000000000000000000000000000000000000000000000000000000000000000000000000000000000000000000000000000000000000000000000000000000000000000000000000000000000000000000000000000000000000000000000000000000000000000000000
310
00000000000000000000000000000000000000000000000000000000000000000000000000000000000000000000000000000000000000000000000000000000000000000000000000000000000000000000000000000000000000000000000000000000000000000000000000000000000000000000000000000000000000
310
00000000000000000000000000000000000000000000000000000000000000000000000000000000000000000000000000000000000000000000000000000000000000000000000000000000000000000000000000000000000000000000000000000000000000000000000000000000000000000000000000000000000000
310
00000000000000000000000000000000000000000000000000000000000000000000000000000000000000000000000000000000000000000000000000000000000000000000000000000000000000000000000000000000000000000000000000000000000000000000000000000000000000000000000000000000000000
310
00000000000000000000000000000000000000000000000000000000000000000000000000000000000000000000000000000000000000000000000000000000000000000000000000000000000000000000000000000000000000000000000000000000000000000000000000000000000000000000000000000000000000
310
00000000000000000000000000000000000000000000000000000000000000000000000000000000000000000000000000000000000000000000000000000000000000000000000000000000000000000000000000000000000000000000000000000000000000000000000000000000000000000000000000000000000000
310
00000000000000000000000000000000000000000000000000000000000000000000000000000000000000000000000000000000000000000000000000000000000000000000000000000000000000000000000000000000000000000000000000000000000000000000000000000000000000000000000000000000000000
310
00000000000000000000000000000000000000000000000000000000000000000000000000000000000000000000000000000000000000000000000000000000000000000000000000000000000000000000000000000000000000000000000000000000000000000000000000000000000000000000000000000000000000
310
00000000000000000000000000000000000000000000000000000000000000000000000000000000000000000000000000000000000000000000000000000000000000000000000000000000000000000000000000000000000000000000000000000000000000000000000000000000000000000000000000000000000000
310
00000000000000000000000000000000000000000000000000000000000000000000000000000000000000000000000000000000000000000000000000000000000000000000000000000000000000000000000000000000000000000000000000000000000000000000000000000000000000000000000000000000000000
310
00000000000000000000000000000000000000000000000000000000000000000000000000000000000000000000000000000000000000000000000000000000000000000000000000000000000000000000000000000000000000000000000000000000000000000000000000000000000000000000000000000000000000
310
00000000000000000000000000000000000000000000000000000000000000000000000000000000000000000000000000000000000000000000000000000000000000000000000000000000000000000000000000000000000000000000000000000000000000000000000000000000000000000000000000000000000000
310
00000000000000000000000000000000000000000000000000000000000000000000000000000000000000000000000000000000000000000000000000000000000000000000000000000000000000000000000000000000000000000000000000000000000000000000000000000000000000000000000000000000000000
310
00000000000000000000000000000000000000000000000000000000000000000000000000000000000000000000000000000000000000000000000000000000000000000000000000000000000000000000000000000000000000000000000000000000000000000000000000000000000000000000000000000000000000
310
00000000000000000000000000000000000000000000000000000000000000000000000000000000000000000000000000000000000000000000000000000000000000000000000000000000000000000000000000000000000000000000000000000000000000000000000000000000000000000000000000000000000000
310
00000000000000000000000000000000000000000000000000000000000000000000000000000000000000000000000000000000000000000000000000000000000000000000000000000000000000000000000000000000000000000000000000000000000000000000000000000000000000000000000000000000000000
310
00000000000000000000000000000000000000000000000000000000000000000000000000000000000000000000000000000000000000000000000000000000000000000000000000000000000000000000000000000000000000000000000000000000000000000000000000000000000000000000000000000000000000
310
00000000000000000000000000000000000000000000000000000000000000000000000000000000000000000000000000000000000000000000000000000000000000000000000000000000000000000000000000000000000000000000000000000000000000000000000000000000000000000000000000000000000000
310
00000000000000000000000000000000000000000000000000000000000000000000000000000000000000000000000000000000000000000000000000000000000000000000000000000000000000000000000000000000000000000000000000000000000000000000000000000000000000000000000000000000000000
310
00000000000000000000000000000000000000000000000000000000000000000000000000000000000000000000000000000000000000000000000000000000000000000000000000000000000000000000000000000000000000000000000000000000000000000000000000000000000000000000000000000000000000
310
00000000000000000000000000000000000000000000000000000000000000000000000000000000000000000000000000000000000000000000000000000000000000000000000000000000000000000000000000000000000000000000000000000000000000000000000000000000000000000000000000000000000000
310
00000000000000000000000000000000000000000000000000000000000000000000000000000000000000000000000000000000000000000000000000000000000000000000000000000000000000000000000000000000000000000000000000000000000000000000000000000000000000000000000000000000000000
310
00000000000000000000000000000000000000000000000000000000000000000000000000000000000000000000000000000000000000000000000000000000000000000000000000000000000000000000000000000000000000000000000000000000000000000000000000000000000000000000000000000000000000
310
00000000000000000000000000000000000000000000000000000000000000000000000000000000000000000000000000000000000000000000000000000000000000000000000000000000000000000000000000000000000000000000000000000000000000000000000000000000000000000000000000000000000000
310
00000000000000000000000000000000000000000000000000000000000000000000000000000000000000000000000000000000000000000000000000000000000000000000000000000000000000000000000000000000000000000000000000000000000000000000000000000000000000000000000000000000000000
310
00000000000000000000000000000000000000000000000000000000000000000000000000000000000000000000000000000000000000000000000000000000000000000000000000000000000000000000000000000000000000000000000000000000000000000000000000000000000000000000000000000000000000
310
00000000000000000000000000000000000000000000000000000000000000000000000000000000000000000000000000000000000000000000000000000000000000000000000000000000000000000000000000000000000000000000000000000000000000000000000000000000000000000000000000000000000000
310
00000000000000000000000000000000000000000000000000000000000000000000000000000000000000000000000000000000000000000000000000000000000000000000000000000000000000000000000000000000000000000000000000000000000000000000000000000000000000000000000000000000000000
310
00000000000000000000000000000000000000000000000000000000000000000000000000000000000000000000000000000000000000000000000000000000000000000000000000000000000000000000000000000000000000000000000000000000000000000000000000000000000000000000000000000000000000
310
00000000000000000000000000000000000000000000000000000000000000000000000000000000000000000000000000000000000000000000000000000000000000000000000000000000000000000000000000000000000000000000000000000000000000000000000000000000000000000000000000000000000000
310
00000000000000000000000000000000000000000000000000000000000000000000000000000000000000000000000000000000000000000000000000000000000000000000000000000000000000000000000000000000000000000000000000000000000000000000000000000000000000000000000000000000000000
310
00000000000000000000000000000000000000000000000000000000000000000000000000000000000000000000000000000000000000000000000000000000000000000000000000000000000000000000000000000000000000000000000000000000000000000000000000000000000000000000000000000000000000
310
00000000000000000000000000000000000000000000000000000000000000000000000000000000000000000000000000000000000000000000000000000000000000000000000000000000000000000000000000000000000000000000000000000000000000000000000000000000000000000000000000000000000000
310
00000000000000000000000000000000000000000000000000000000000000000000000000000000000000000000000000000000000000000000000000000000000000000000000000000000000000000000000000000000000000000000000000000000000000000000000000000000000000000000000000000000000000
310
00000000000000000000000000000000000000000000000000000000000000000000000000000000000000000000000000000000000000000000000000000000000000000000000000000000000000000000000000000000000000000000000000000000000000000000000000000000000000000000000000000000000000
310
00000000000000000000000000000000000000000000000000000000000000000000000000000000000000000000000000000000000000000000000000000000000000000000000000000000000000000000000000000000000000000000000000000000000000000000000000000000000000000000000000000000000000
310
00000000000000000000000000000000000000000000000000000000000000000000000000000000000000000000000000000000000000000000000000000000000000000000000000000000000000000000000000000000000000000000000000000000000000000000000000000000000000000000000000000000000000
310
00000000000000000000000000000000000000000000000000000000000000000000000000000000000000000000000000000000000000000000000000000000000000000000000000000000000000000000000000000000000000000000000000000000000000000000000000000000000000000000000000000000000000
310
00000000000000000000000000000000000000000000000000000000000000000000000000000000000000000000000000000000000000000000000000000000000000000000000000000000000000000000000000000000000000000000000000000000000000000000000000000000000000000000000000000000000000
310
00000000000000000000000000000000000000000000000000000000000000000000000000000000000000000000000000000000000000000000000000000000000000000000000000000000000000000000000000000000000000000000000000000000000000000000000000000000000000000000000000000000000000
310
00000000000000000000000000000000000000000000000000000000000000000000000000000000000000000000000000000000000000000000000000000000000000000000000000000000000000000000000000000000000000000000000000000000000000000000000000000000000000000000000000000000000000
310
00000000000000000000000000000000000000000000000000000000000000000000000000000000000000000000000000000000000000000000000000000000000000000000000000000000000000000000000000000000000000000000000000000000000000000000000000000000000000000000000000000000000000
310
00000000000000000000000000000000000000000000000000000000000000000000000000000000000000000000000000000000000000000000000000000000000000000000000000000000000000000000000000000000000000000000000000000000000000000000000000000000000000000000000000000000000000
310
00000000000000000000000000000000000000000000000000000000000000000000000000000000000000000000000000000000000000000000000000000000000000000000000000000000000000000000000000000000000000000000000000000000000000000000000000000000000000000000000000000000000000
310
00000000000000000000000000000000000000000000000000000000000000000000000000000000000000000000000000000000000000000000000000000000000000000000000000000000000000000000000000000000000000000000000000000000000000000000000000000000000000000000000000000000000000
310
00000000000000000000000000000000000000000000000000000000000000000000000000000000000000000000000000000000000000000000000000000000000000000000000000000000000000000000000000000000000000000000000000000000000000000000000000000000000000000000000000000000000000
310
00000000000000000000000000000000000000000000000000000000000000000000000000000000000000000000000000000000000000000000000000000000000000000000000000000000000000000000000000000000000000000000000000000000000000000000000000000000000000000000000000000000000000
310
00000000000000000000000000000000000000000000000000000000000000000000000000000000000000000000000000000000000000000000000000000000000000000000000000000000000000000000000000000000000000000000000000000000000000000000000000000000000000000000000000000000000000
310
00000000000000000000000000000000000000000000000000000000000000000000000000000000000000000000000000000000000000000000000000000000000000000000000000000000000000000000000000000000000000000000000000000000000000000000000000000000000000000000000000000000000000
310
00000000000000000000000000000000000000000000000000000000000000000000000000000000000000000000000000000000000000000000000000000000000000000000000000000000000000000000000000000000000000000000000000000000000000000000000000000000000000000000000000000000000000
310
00000000000000000000000000000000000000000000000000000000000000000000000000000000000000000000000000000000000000000000000000000000000000000000000000000000000000000000000000000000000000000000000000000000000000000000000000000000000000000000000000000000000000
310
00000000000000000000000000000000000000000000000000000000000000000000000000000000000000000000000000000000000000000000000000000000000000000000000000000000000000000000000000000000000000000000000000000000000000000000000000000000000000000000000000000000000000
310
00000000000000000000000000000000000000000000000000000000000000000000000000000000000000000000000000000000000000000000000000000000000000000000000000000000000000000000000000000000000000000000000000000000000000000000000000000000000000000000000000000000000000
310
00000000000000000000000000000000000000000000000000000000000000000000000000000000000000000000000000000000000000000000000000000000000000000000000000000000000000000000000000000000000000000000000000000000000000000000000000000000000000000000000000000000000000
310
00000000000000000000000000000000000000000000000000000000000000000000000000000000000000000000000000000000000000000000000000000000000000000000000000000000000000000000000000000000000000000000000000000000000000000000000000000000000000000000000000000000000000
310
00000000000000000000000000000000000000000000000000000000000000000000000000000000000000000000000000000000000000000000000000000000000000000000000000000000000000000000000000000000000000000000000000000000000000000000000000000000000000000000000000000000000000
310
00000000000000000000000000000000000000000000000000000000000000000000000000000000000000000000000000000000000000000000000000000000000000000000000000000000000000000000000000000000000000000000000000000000000000000000000000000000000000000000000000000000000000
310
00000000000000000000000000000000000000000000000000000000000000000000000000000000000000000000000000000000000000000000000000000000000000000000000000000000000000000000000000000000000000000000000000000000000000000000000000000000000000000000000000000000000000
310
00000000000000000000000000000000000000000000000000000000000000000000000000000000000000000000000000000000000000000000000000000000000000000000000000000000000000000000000000000000000000000000000000000000000000000000000000000000000000000000000000000000000000
310
00000000000000000000000000000000000000000000000000000000000000000000000000000000000000000000000000000000000000000000000000000000000000000000000000000000000000000000000000000000000000000000000000000000000000000000000000000000000000000000000000000000000000
310
00000000000000000000000000000000000000000000000000000000000000000000000000000000000000000000000000000000000000000000000000000000000000000000000000000000000000000000000000000000000000000000000000000000000000000000000000000000000000000000000000000000000000
310
00000000000000000000000000000000000000000000000000000000000000000000000000000000000000000000000000000000000000000000000000000000000000000000000000000000000000000000000000000000000000000000000000000000000000000000000000000000000000000000000000000000000000
310
00000000000000000000000000000000000000000000000000000000000000000000000000000000000000000000000000000000000000000000000000000000000000000000000000000000000000000000000000000000000000000000000000000000000000000000000000000000000000000000000000000000000000
310
00000000000000000000000000000000000000000000000000000000000000000000000000000000000000000000000000000000000000000000000000000000000000000000000000000000000000000000000000000000000000000000000000000000000000000000000000000000000000000000000000000000000000
310
00000000000000000000000000000000000000000000000000000000000000000000000000000000000000000000000000000000000000000000000000000000000000000000000000000000000000000000000000000000000000000000000000000000000000000000000000000000000000000000000000000000000000
310
00000000000000000000000000000000000000000000000000000000000000000000000000000000000000000000000000000000000000000000000000000000000000000000000000000000000000000000000000000000000000000000000000000000000000000000000000000000000000000000000000000000000000
310
00000000000000000000000000000000000000000000000000000000000000000000000000000000000000000000000000000000000000000000000000000000000000000000000000000000000000000000000000000000000000000000000000000000000000000000000000000000000000000000000000000000000000
310
00000000000000000000000000000000000000000000000000000000000000000000000000000000000000000000000000000000000000000000000000000000000000000000000000000000000000000000000000000000000000000000000000000000000000000000000000000000000000000000000000000000000000
310
00000000000000000000000000000000000000000000000000000000000000000000000000000000000000000000000000000000000000000000000000000000000000000000000000000000000000000000000000000000000000000000000000000000000000000000000000000000000000000000000000000000000000
310
00000000000000000000000000000000000000000000000000000000000000000000000000000000000000000000000000000000000000000000000000000000000000000000000000000000000000000000000000000000000000000000000000000000000000000000000000000000000000000000000000000000000000
310
00000000000000000000000000000000000000000000000000000000000000000000000000000000000000000000000000
  0
XRECORD
  5
3FC50
102
{ACAD_REACTORS
330
3FBE3
102
}
330
3FBE3
100
AcDbXrecord
280
     1
102
SHADEPLOT
 70
     0
102
SHADEPLOTRESLEVEL
 70
     2
102
SHADEPLOTCUSTOMDPI
 70
   300
  0
XRECORD
  5
3FBE4
102
{ACAD_REACTORS
330
3FBE3
102
}
330
3FBE3
100
AcDbXrecord
280
     1
310
28000000000100006B0000000100080000000000006B0000000000000000000000010000000000000000000000000000FFFFFF000000000000000000000000000000000000000000000000000000000000000000330000006600000099000000CC000000FF00000000330000333300006633000099330000CC330000FF3300
310
0000660000336600006666000099660000CC660000FF66000000990000339900006699000099990000CC990000FF99000000CC000033CC000066CC000099CC0000CCCC0000FFCC000000FF000033FF000066FF000099FF0000CCFF0000FFFF000000003300330033006600330099003300CC003300FF003300003333003333
310
33006633330099333300CC333300FF33330000663300336633006666330099663300CC663300FF66330000993300339933006699330099993300CC993300FF99330000CC330033CC330066CC330099CC3300CCCC3300FFCC330000FF330033FF330066FF330099FF3300CCFF3300FFFF330000006600330066006600660099
310
006600CC006600FF00660000336600333366006633660099336600CC336600FF33660000666600336666006666660099666600CC666600FF66660000996600339966006699660099996600CC996600FF99660000CC660033CC660066CC660099CC6600CCCC6600FFCC660000FF660033FF660066FF660099FF6600CCFF6600
310
FFFF660000009900330099006600990099009900CC009900FF00990000339900333399006633990099339900CC339900FF33990000669900336699006666990099669900CC669900FF66990000999900339999006699990099999900CC999900FF99990000CC990033CC990066CC990099CC9900CCCC9900FFCC990000FF99
310
0033FF990066FF990099FF9900CCFF9900FFFF99000000CC003300CC006600CC009900CC00CC00CC00FF00CC000033CC003333CC006633CC009933CC00CC33CC00FF33CC000066CC003366CC006666CC009966CC00CC66CC00FF66CC000099CC003399CC006699CC009999CC00CC99CC00FF99CC0000CCCC0033CCCC0066CC
310
CC0099CCCC00CCCCCC00FFCCCC0000FFCC0033FFCC0066FFCC0099FFCC00CCFFCC00FFFFCC000000FF003300FF006600FF009900FF00CC00FF00FF00FF000033FF003333FF006633FF009933FF00CC33FF00FF33FF000066FF003366FF006666FF009966FF00CC66FF00FF66FF000099FF003399FF006699FF009999FF00CC
310
99FF00FF99FF0000CCFF0033CCFF0066CCFF0099CCFF00CCCCFF00FFCCFF0000FFFF0033FFFF0066FFFF0099FFFF00CCFFFF00FFFFFF00000000000D0D0D001A1A1A00282828003535350043434300505050005D5D5D006B6B6B00787878008686860093939300A1A1A100AEAEAE00BBBBBB00C9C9C900D6D6D600E4E4E400
310
F1F1F100FFFFFF000000000000000000000000000000000000000000000000000000000000000000000000000000000000000000000000000000000000000000000000000000000000000000000000000000000000000000000000000000000000000000000000000000000000000000000000000000000000000000000000
310
00000000000000000000000000000000000000000000000000000000000000000000000000000000000000000000000000000000000000000000000000000000000000000000000000000000000000000000000000000000000000000000000000000000000000000000000000000000000000000000000000000000000000
310
00000000000000000000000000000000000000000000000000000000000000000000000000000000000000000000000000000000000000000000000000000000000000000000000000000000000000000000000000000000000000000000000000000000000000000000000000000000000000000000000000000000000000
310
0000000000000000000000000000000000000000000000000000000000000000000000000000000000000000000000000000000000000000000000000000000000000000000000000000000F000000000000000000000000000000000000000F0000DC0000000000DC00000000DC0000000000DC0000000000000000000000
310
00000000000000000000000000000000000000000000000000000000000000000000000000000000000000000000000000000000000000000000000000000000000000000000000000000000000000000000000000000000000000000000000000000000000000000000000000000000000000000000000000000000000000
310
00000000000000000000000000000000000000000000000000000000000000000000000000000000000000000000000000000000000000000000000000000000000000000000000000000000000F000000000000000000000000000000000000000F000000DC0000000000DC00000000DC0000000000000000000000000000
310
00000000000000000000000000000000000000000000000000000000000000000000000000000000000000000000000000000000000000000000000000000000000000000000000000000000000000000000000000000000000000000000000000000000000000000000000000000000000000000000000000000000000000
310
000000000000000000000000000000000000000000000000000000000000000000000000000000000000000000000000000000000000000000000000000000000000000000000000000000000000000F0000000000000000BEBE0000000000000000000F00000000DC0000000000DC00000000DC0000000000000000000000
310
00000000000000000000000000000000000000000000000000000000000000000000000000000000000000000000000000000000000000000000000000000000000000000000000000000000000000000000000000000000000000000000000000000000000000000000000000000000000000000000000000000000000000
310
0000000000000000000000000000000000000000000000000000000000000000000000000000000000000000000000000000000000000000000000000000000000000000000000000000000000000000000F00000000000000BEBEBEBE00000000000000BE0FDC00000000DC0000000000DC00000000DCDC00000000000000
310
00000000000000000000000000000000000000000000000000000000000000000000000000000000000000000000000000000000000000000000000000000000000000000000000000000000000000000000000000000000000000000000000000000000000000000000000000000000000000000000000000000000000000
310
00000000000000000000000000000000000000000000000000000000000000000000000000000000000000000000000000000000000000000000000000000000000000000000000000000000000000000000000F000000000000000000000000BE0000000000000F00DC00000000DC0000000000DC0000000000DC00000000
310
00000000000000000000000000000000000000000000000000000000000000000000000000000000000000000000000000000000000000000000000000000000000000000000000000000000000000000000000000000000000000000000000000000000000000000000000000000000000000000000000000000000000000
310
000000000000000000000000000000000000000000000000000000000000000000000000000000000000000000000000000000000000000000000000000000000000000000000000000000000000000000000000000F00000000BE00000000000000000000000000000F0000DC00000000DC0000000000DC0000000000DC00
310
00000000000000000000000000000000000000000000000000000000000000000000000000000000000000000000000000000000000000000000000000000000000000000000000000000000000000000000000000000000000000000000000000000000000000000000000000000000000000000000000000000000000000
310
0000000000000000000000000000000000000000000000000000000000000000000000000000000000000000000000000000000000000000000000000000000000000000000000000000000000000000000000000000000F000000000000000000000000000000000000000F000000DC00000000DC0000000000DC00000000
310
00000000000000000000000000000000000000000000000000000000000000000000000000000000000000000000000000000000000000000000000000000000000000000000000000000000000000000000000000000000000000000000000000000000000000000000000000000000000000000000000000000000000000
310
00000000000000000000000000000000000000000000000000000000000000000000000000000000000000000000000000000000000000000000000000000000000000000000000000000000000000000000000000000000000F000000000000000000000000000000BEBEBEBE0F00000000DC00000000DC0000000000DC00
310
00000000000000000000000000000000000000000000000000000000000000000000000000000000000000000000000000000000000000000000000000000000000000000000000000000000000000000000000000000000000000000000000000000000000000000000000000000000000000000000000000000000000000
310
000000000000000000000000000000000000000000000000000000000000000000000000000000000000000000000000000000000000000000000000000000000000000000000000000000000000000000000000000000000000000F0000000000000000BE0000000000000000BEBE0F0000000000DC00000000DC00000000
310
00DC0000000000000000000000000000000000000000000000000000000000000000000000000000000000000000000000000000000000000000000000000000000000000000000000000000000000000000000000000000000000000000000000000000000000000000000000000000000000000000000000000000000000
310
0000000000000000000000000000000000000000000000000000000000000000000000000000000000000000000000000000000000000000000000000000000000000000000000000000000000000000000000000000000000000000000F000000000000000000000000000000000000BE0FDC0000000000DC00000000DC00
310
00000000DC0000000000000000000000000000000000000000000000000000000000000000000000000000000000000000000000000000000000000000000000000000000000000000000000000000000000000000000000000000000000000000000000000000000000000000000000000000000000000000000000000000
310
00000000000000000000000000000000000000000000000000000000000000000000000000000000000000000000000000000000000000000000000000000000000000000000000000000000000000000000000000000000000000000000000F00000000000000BEBE000000000000000000BE0F00DC0000000000DC000000
310
00DC0000000000DC0000000000000000000000000000000000000000000000000000000000000000000000000000000000000000000000000000000000000000000000000000000000000000000000000000000000000000000000000000000000000000000000000000000000000000000000000000000000000000000000
310
000000000000000000000000000000000000000000000000000000000000000000000000000028000000000000000000000000000000000000000000000000000000000000000000000000000000280000000000000000000000000000000000000F0000000000000000BE0000BEBE0000000000000F0000DC0000000000DC
310
00000000DC0000000000DC0000000000000000000000000000000000000000000000000000000000000000000000000000000000000000000000000000000000000000000000000000000000000000000000000000000000000000000000000000000000000000000000000000000000000000000000000000000000000000
310
00000000000000000000000000000000000000000000000000000000000000000000000000000000280000000000000000000000000000BEBEBEBEBEBEBEBEBEBE000000000000000000000000000000280000000000000000000000000000000000000F0000000000000000000000000000000000BE000F000000DC000000
310
0000DC00000000DC0000000000000000000000000000000000000000000000000000000000000000000000000000000000000000000000000000000000000000000000000000000000000000000000000000000000000000000000000000000000000000000000000000000000000000000000000000000000000000000000
310
000000000000000000000000000000000000000000000000000000000000000000000000000000000000280000000000000000000000000000BEBEBEBEBEBEBEBEBEBE000000000000000000000000000000280000000000000000000000000000000000000F000000000000000000000000000000000000000F00000000DC
310
0000000000DC00000000DC0000000000000000000000000000000000000000000000000000000000000000000000000000000000000000000000000000000000000000000000000000000000000000000000000000000000000000000000000000000000000000000000000000000000000000000000000000000000000000
310
0000000000000000000000000000000000000000000000000000000000000000000000000000000000000000DCDCDCDCDCDCDCDCDCDCDCDCDCDCDCBEBEBEBEBEBEBEBEBEBE00DCDCDCDCDCDCDCDCDCDCDCDCDCDCDC0000000000000000000000000000000000000F000000000000000000000000000000000000000F000000
310
0000DC0000000000DC00000000DC0000000000000000000000000000000000000000000000000000000000000000000000000000000000000000000000000000000000000000000000000000000000000000000000000000000000000000000000000000000000000000000000000000000000000000000000000000000000
310
00000000000000000000000000000000000000000000000000000000000000000000000000000000000000000000280000000000000000000000000000BEBEBEBEBEBEBEBEBEBE000000000000000000000000000000280000000000000000000000000000000000000F0000000000000000BE000000000000000000000FDC
310
0000000000DC0000000000DC00000000DC0000000000000000000000000000000000000000000000000000000000000000000000000000000000000000000000000000000000000000000000000000000000000000000000000000000000000000000000000000000000000000000000000000000000000000000000000000
310
00000000000000000000000000000000000000000000000000000000000000000000000000000000000000000000000028000000000000000000000000000000000000000000000000000000000000000000000000000000280000000000000000000000000000000000000F0000000000000000000000000000BE000000BE
310
0F00DC0000000000DC0000000000DC00000000DC0000000000000000000000000000000000000000000000000000000000000000000000000000000000000000000000000000000000000000000000000000000000000000000000000000000000000000000000000000000000000000000000000000000000000000000000
310
000000000000000000000000000000000000000000000000000000000000000000000000000000000000000000000000000028000000000000000000000000000000000000000000000000000000000000000000000000000000280000000000000000000000000000000000000F0000000000BE00000000000000BE00BEBE
310
00000F0000DC0000000000DC0000000000DC00000000DC0000000000000000000000000000000000000000000000000000000000000000000000000000000000000000000000000000000000000000000000000000000000000000000000000000000000000000000000000000000000000000000000000000000000000000
310
0000000000000000000000000000000000000000000000000000000000000000000000000000000000000000000000000000000028000000000000000000000000000000000000000000000000000000000000000000000000000000280000000000000000000000000000000000000F0000000000BE0000000000000000BE
310
BE0000000F000000DC0000000000DC0000000000DC00000000000000000000000000000000000000000000000000000000000000000000000000000000000000000000000000000000000000000000000000000000000000000000000000000000000000000000000000000000000000000000000000000000000000000000
310
00000000000000000000000000000000000000000000000000000000000000000000000000000000000000000000000000000000000028000000000000000000000000000000000000000000000000000000000000000000000000000000280000000000000000000000000000000000000F00000000000000000000000000
310
00000000BE000F00000000DC0000000000DC0000000000DC00000000000000000000000000000000000000000000000000000000000000000000000000000000000000000000000000000000000000000000000000000000000000000000000000000000000000000000000000000000000000000000000000000000000000
310
000000000000000000000000000000000000000000000000000000000000000000000000000000000000000000000000000000000000000028000000000000000000000000000000000000000000000000000000000000000000000000000000280000000000000000000000000000000000000F00BE000000000000000000
310
BE000000000000000FDC00000000DC0000000000DC0000000000DC00000000000000000000000000000000000000000000000000000000000000000000000000000000000000000000000000000000000000000000000000000000000000000000000000000000000000000000000000000000000000000000000000000000
310
0000000000000000000000000000000000000000000000000000000000000000000000000000000000000000000000000000000000000000000028000000000000000000000000000000000000000000000000000000000000000000000000000000280000000000000000000000000000000000000FBE00000000000000BE
310
000000000000000000000F00DC00000000DC0000000000DC0000000000DC00000000000000000000000000000000000000000000000000000000000000000000000000000000000000000000000000000000000000000000000000000000000000000000000000000000000000000000000000000000000000000000000000
310
00000000000000000000000000000000000000000000000000000000000000000000000000000000000000000000000000000000000000000000000028000000000000000000000000000000000000000000000000000000000000000000000000000000280000000000000000000000000000000000000F00000000000000
310
0000000000000000000000000F0000DC00000000DC0000000000DC0000000000DC00000000000000000000000000000000000000000000000000000000000000000000000000000000000000000000000000000000000000000000000000000000000000000000000000000000000000000000000000000000000000000000
310
000000000000000000000000000000000000000000000000000000000000000000000000000000000000000000000000000000000000000000000000000000000000000000000000000000000000000000000000000000000000000000000000000000000000000000000000000000000000000000000000000F0000000000
310
000000000000BE000000000000000F000000DC00000000DC0000000000DC00000000000000000000000000000000000000000000000000000000000000000000000000000000000000000000000000000000000000000000000000000000000000000000000000000000000000000000000000000000000000000000000000
310
00000000000000000000000000000000000000000000000000000000000000000000000000000000000000000000000000000000000000000000000000000000000000000000000000000000000000000000000000F5F5F5F5F5F5F5F5F5F5F5F5F5F5F5F5F5F5F5F5F5F5F5F5F5F5F5F5F5F5F5F5F5F5F5F5F5F50F0000BE
310
000000000000000000000000000000000F00000000DC00000000DC0000000000DC00000000000000000000000000000000000000000000000000000000000000000000000000000000000000000000000000000000000000000000000000000000000000000000000000000000000000000000000000000000000000000000
310
000000000000000000000000000000000000000000000000000000000000DCDCDCDCDCDCDCDCDCDCDCDCDCDCDCDCDCDCDCDCDCDCDCDCDCDCDCDCDCDCDCDCDCDCDCDCDCDCDC000000000000000000000000000000000000F5DCDCDCDCDCDCDCDCDCDCDCDCDCDCDCDCDCDCDCDCDCDCDCDCDCDCDCDCDCDCDCDCDCDCDCDCDC0F00
310
BE00BEBEBE00000000BE00000000000000000F0000000000DC00000000DC0000000000DC00000000000000000000000000000000000000000000000000000000000000000000000000000000000000000000000000000000000000000000000000000000000000000000000000000000000000000000000000000000000000
310
0000000000000000000000000000000000000000000000000000000000000000DCDCDCDCDCDCDCDCDCDCDCDCDCDCDCDCDCDCDCDCDCDCDCDCDCDCDCDCDCDCDCDCDCDCDCDCDCDCDC000000000000000000000000000000000000F5DCDCDCDCDCDCDCDCDCDCDCDCDCDCDCDCDCDCDCDCDCDCDCDCDCDCDCDCDCDCDCDCDCDCDCDCDC
310
0F0000BEBE00BE000000000000000000000000000FDC0000000000DC00000000DC0000000000DC00000000000000000000000000000000000000000000000000000000000000000000000000000000000000000000000000000000000000000000000000000000000000000000000000000000000000000F0F0F0F0F0F0F0F
310
0F0F0F0F0F0F0F0F0F0F0F0F0F0F0F0F0F0F0F0F0F0F0F0F0F0F0F0F0F0F0F0F0F0F0FDCDCDCDCDCDCDCDC0FDCDCDCDCDCDCDCDCDCDCDCDCDCDCDCDCDCDCDCDCDCDCDCDCDCDCDCDCDCBEBE0F0F00000000BE0FBEBE0F0FBEBE0000F5F5F5F5F5F5F5F5F5F5F5F5F5F5F5F5F5F5F5F5F5F5F5F5F5F5F5F5F5F5F5F5F5F5F5F5
310
F5DC0F000000000000000000000000000000000000000F00DC0000000000DC00000000DC0000000000DC00000000000000000000000000000000000000000000000000000000000000000000000000000000000000000000000000000000000000000000000000000000000000000000000000000000000000000000DC0000
310
00000000DC000000000000DC00000000000000DC000000000000DC000000000000DC000000000000DC000000000F0000000000000000DCDCDCF5DCDC00DC00DCDCDC00DCDC00DCDCBEBEBE0FBEBE0F000000000FBE0FBEBEBE000F00000000BE0FBEBEBE0FBEBE000000000FBEBE0FBEBEF5DC00DC00DC00DCDC00DC00DC00
310
F5F5F5DC0F000000000000000000BE0000000000000000000F0000DC0000000000DC00000000DC0000000000DC00000000000000000000000000000000000000000000000000000000000000000000000000000000000000000000000000000000000000000000000000000000000000000000000000000000000000000000
310
DC000000000000DC000000000000DC00000000000000DC000000000000DC000000000000DC000000000000DC0000000F0000000000000000DCDCDCDCDCF5F5F5F5F500F5F5BEBEF5F500F5BEBE000FBEBE000000000FBE000000BEBE0F000000000FBE0000000F00BE00000000BE0F00BE000FF500F5F5F5F5F5F500F5F5F5
310
F5F500DCF5DC0F000000000000000000000000000000000000000F000000DC0000000000DC00000000DC00000000000000000000000000000000000000000000000000000000000000000000000000000000000000000000000000000000000000000000000000000000000000000000000000000000000000000000000000
310
000000DC000000000000DC000000000000DC00000000000000DC000000000000DC000000000000DC000000000000DCDC000F0000000000000000DCDCDCDCF500000000F5DCBE0F0FBEBEF5BEBE000F000F00BE000000BE0F0F0000000FBEBE000000000FBE000000BE000F00000000BEBE00BEBE0FF5F5F5000FBE0FF5DCF5
310
00000000F5DCF5DC0F00000000BEBE0000000000000000BEBE0000000F00000000DC0000000000DC00000000DC00000000000000000000000000000000000000000000000000000000000000000000000000000000000000000000000000000000000000000000000000000000000000000000000000000000000000000000
310
DC0000000000DC000000000000DC000000000000DC00000000000000DC000000000000DC000000000000DC00000000000000DC0F0000000000000000DCDCDCF5F500000000F500BEBE00BEBE0000BEBE0F00BE000F000000BEBEBE0000000F00BE000000BE0F0F000000BEBEBE000000000FBE000FBEBE0000BEBE00BEBEF5
310
00F500000000F500F5DC0F000000BE0000000000000000000000BE0000BE0F0000000000DC0000000000DC00000000DC00000000000000000000000000000000000000000000000000000000000000000000000000000000000000000000000000000000000000000000000000000000000000000000000000000000000000
310
000000DC0000000000DC000000000000DC000000000000DCDC000000000000DC000000000000DC000000000000DC000000000000000F0000000000000000DCDCDCDCF500000000F5DCF5BEBE00BEBEF5F5BEBE00BEBEBE00000000BEBE000000BE000F000000BEBE0F0000000FBEBE000000BE0F0F000F0FBEF5F5F5BE000F
310
BEF5DCF500000000F5F5F5DC0F0000000000000000BE00000000000000BE00000FDC0000000000DC0000000000DC00000000DC00000000000000000000000000000000000000000000000000000000000000000000000000000000000000000000000000000000000000000000000000000000000000000000000000000000
310
000000000000DC0000000000DC000000000000DC00000000000000DC000000000000DC000000000000DC000000000000DCDC00000000000F0000000000000000DCDCDC00F500000000F5DCF5F5BEBEF5F5DCF50000000FBEBE000000BE0F0F000000BEBE0F00000000BEBE000000BE000F000000BEBE0F00000000F5DCF5F5
310
F5F5F5F5DCF500000000F500F5DC0F000000000000000000000000000000BE0000000F00DC0000000000DC0000000000DC00000000DC00000000000000000000000000000000000000000000000000000000000000000000000000000000000000000000000000000000000000000000000000000000000000000000000000
310
000000000000000000DC0000000000DC000000000000DC00000000000000DC000000000000DC000000000000DC00000000000000DC000000000F0000000000000000DCDCDCDCF500000000F500DCDC00DC00DC00F5000000BE000F000000BEBE0F0000000FBEBE000000BE0F0F000000BEBE0F00000000BEBE00000000F5DC
310
00DC00DC00DC00F500000000F5DCF5DC0F000000000000000000000000000000000000000F0000DC0000000000DC0000000000DC00000000DC00000000000000000000000000000000000000000000000000000000000000000000000000000000000000000000000000000000000000000000000000000000000000000000
310
000000000000000000000000DC0000000000DC000000000000DC00000000000000DC000000000000DC000000000000DC00000000000000DC0000000F0000000000000000DCDCDCF5F500000000F5F5F5F5F5F5F5F5F5F5000000BEBE0F00000000BEBE0000000F00BE000000BEBE0F0000000FBEBE000000000FBE00000000
310
F5F5F5F5F5F5F5F5F5F500000000F5DCF5DC0F000000000000000000BE0000000000000000000F000000DC0000000000DC0000000000DC000000000000000000000000000000000000000000000000000000000000000000000000000000000000000000000000000000000000000000000000000000000000000000000000
310
000000000000000000000000000000DC0000000000DC000000000000DC00000000000000DC000000000000DC000000000000DC00000000000000DC00000F0000000000000000DCDCDCF5F500000000000000000000000000000000000FBEBE0000000F000F000000BE000F0000000FBEBE0000000F00BE000000BE000F0000
310
00000000000000000000000000000000F500F5DC0F000000000000000000000000000000000000000F00000000DC0000000000DC0000000000DC000000000000000000000000000000000000000000000000000000000000000000000000000000000000000000000000000000000000000000000000000000000000000000
310
000000000000000000000000000000000000DC0000000000DCDC0000000000DCDC000000000000DC000000000000DCDC0000000000DCDC000000000000DC000F0000000000000000DCDCDCF5F500000000000000000000000000000000000F00BE000000BE000F0000000FBEBE0000000F00BE0000000FBE0F000000BEBEBE
310
000000000000000000000000000000000000F5DCF5DC0F0000000000000000000000BE000000000000000FDC00000000DC0000000000DC0000000000DC000000000000000000000000000000000000000000000000000000000000000000000000000000000000000000000000000000000000000000000000000000000000
310
0000000000000000000000000000DC000000000000DC000000000000DC000000000000DC000000000000DC00000000000000DC000000000000DC000000000000DC0F0000000000000000DCDCDCF5F50000000000000000000000000000000000BE0F0F0000000FBEBE000000000FBE000000BE000F00000000BEBE0000000F
310
BEBE000000000000000000000000000000000000F500F5DC0F0000BE00000000000000000000BE00000000000F00DC00000000DC0000000000DC0000000000DC000000000000000000000000000000000000000000000000000000000000000000000000000000000000000000000000000000000000000000000000000000
310
0000000000000000000000000000000000DC000000000000DC000000000000DC000000000000DC000000000000DC00000000000000DC000000000000DC0000000000000F0000000000000000DCDCDCF5F50000000000000000000000000000000000BEBE0F0000000F0FBE00000000BE0F000000BEBEBE000000000FBE0000
310
00BE000F000000000000000000000000000000000000F5DCF5DC0F000000000000BEBEBE00000000000000BEBE000F0000DC00000000DC0000000000DC0000000000DC000000000000000000000000000000000000000000000000000000000000000000000000000000000000000000000000000000000000000000000000
310
0000000000000000000000000000000000000000DC000000000000DC000000000000DC000000000000DC000000000000DC00000000000000DC000000000000DC00000000000F0000000000000000DCDCDCF5F5000000000000000000000000000000000000BEBE000000BE0F0000000000BEBE0000000FBEBE000000000FBE
310
000000BEBE0F000000000000000000000000000000000000F500F5DC0F00BEBEBE000000BE00BE000000BE000000BE000F000000DC00000000DC0000000000DC000000000000000000000000000000000000000000000000000000000000000000000000000000000000000000000000000000000000000000000000000000
310
0000000000000000000000000000000000000000000000DC000000000000DC000000000000DC000000000000DC000000000000DCDC000000000000DC000000000000DC000000000F0000000000000000DCDCDCF5F50000000000000000000000000000000000000F0F000000BEBEBE000000000FBE000000BE000F00000000
310
BE0F0000000FBEBE000000000000000000000000000000000000F5BEF5DC0F0000BE000000000000BE0000000000000000000F00000000DC00000000DCDC00000000DC000000000000000000000000000000000000000000000000000000000000000000000000000000000000000000000000000000000000000000000000
310
0000000000000000000000000000000000000000000000000000DC000000000000DC000000000000DC000000000000DC00000000000000DC000000000000DC000000000000DC0000000F0000000000000000DCDCDCF5F5000000000000000000000000000000000000BE0F0000000FBEBE000000000FBE000000BEBE0F0000
310
0000BEBE0000000F00BE000000000000000000000000000000000000F5DCF5DC0F000000000000000000000000000000000000000F0000000000DC0000000000DC00000000DC000000000000000000000000000000000000000000000000000000000000000000000000000000000000000000000000000000000000000000
310
0000000000000000000000000000000000000000000000000000000000DC000000000000DC000000000000DC000000000000DC00000000000000DC000000000000DC000000000000DC00000F0000000000000000DCDCDCF5F50000000000000000000000000000000000000FBE000000BE0F0000000000BE0F0000000FBEBE
310
000000000FBE000000BE000F000000000000000000000000000000000000F500F5BE0FBEBEBEBEBEBEBEBEBEBEBEBEBEBEBEBEBEBEBE0FDCBEBEBE0000DC0000000000DC00000000DC000000000000000000000000000000000000000000000000000000000000000000000000000000000000000000000000000000000000
310
0000000000000000000000000000000000000000000000000000000000000000DC000000000000DC000000000000DC000000000000DC00000000000000DC000000000000DC000000000000DC000F0000000000000000DCDCDCF5F50000000000000000000000000000000000000FBE000000BEBE0000000000BEBE0000000F
310
00BE00000000BE0F0000000FBEBE000000000000000000000000000000000000F5DCF5DC0F00000000BE0000BE00BE0000BE00BE0000BE000F00DCBEBEBE0000DC0000000000DC00000000DC000000000000000000000000000000000000000000000000000000000000000000000000000000000000000000000000000000
310
00000000000000000000000000000000000000000000000000000000DC000000000000DC000000000000DC000000000000DC000000000000DC00000000000000DC000000000000DC000000000000DC0F0000000000000000DCDCDCF5F5000000000000000000000000000000000000BE0FBEBE0F0FBEBE000000000FBEBE0F
310
BEBE000F00000000BEBE0FBEBE0F00BE000000000000000000000000000000000000F500F5DC0FBE00BEBE00BEBEBEBE00BEBEBEBE00BEBEBEBE0FBEBEDCBEBEBE0000DC0000000000DC00000000DC000000000000000000000000000000000000000000000000000000000000000000000000000000000000000000000000
310
0000000000000000000000000000000000000000000000000000000000000F0F0F0F0F0F0F0F0F0F0F0F0F0F0F0F0F0F0F0F0F0F0F0F0F0F0F0F0F0F0F0F0F0F0F0F0F0F0F0F0F0F0F0F0F0F0F0F0F0F0F0F000000000000BEBEBEDCDCF5F5000000000000000000000000000000000000BEBE0FBEBEBE0FBE000000000F0F
310
BEBE0FBEBEBE000000000FBEBE0FBEBE0F0F000000000000000000000000000000000000F5DCF5DC0FBEBEBEBEBEBEBEBEBEBEBEBEBEBEBEBEBEBEBE0FBEBEBEDC0000000000DC0000000000DC0000000000000000000000000000000000000000000000000000000000000000000000000000000000000000000000000000
310
00000000000000000000000000000000000000000000000000000000000000000000000000000000000000000000000000000000000000000000000000000000000000000000000000000000000000000000000000000000BEBEBE00BEDCDCF5F5000000000000000000000000000000000000000000000000000000000000
310
0000000000000000000000000000000000000000000000000000000000000000000000000000F500F5BE0F00000000000000000000000000BE00000000000F00000000DC0000000000DC0000000000DC0000000000000000000000000000000000000000000000000000000000000000000000000000000000000000000000
310
000000000000000000000000000000000000000000000000000000000000000000000000000000000000000000000000000000000000000000000000000000000000000000000000000000000000000000000000000000000000BE00BE00BEDCBEBEF5BE00BEBE00BE00000000000000000000000000000000000000000000
310
00000000000000000000000000000000000000000000000000000000000000000000000000000000F5DCF5DC0F000000000000000000BE0000BE0000000000BE0FDC00000000DC0000000000DC0000000000DC0000000000000000000000000000000000000000000000000000000000000000000000000000000000000000
310
0000000000000000000000000000000000000000000000000000000000000000000000000000000000000000000000000000000000000000000000000000000000000000000000000000000000000000000000000000000000000000BE00BE00BEBEBEBEBEBEBEBEBEBEBEBEBEBEBEBEBE0000000000000000000000000000
310
000000000000000000000000000000000000000000000000000000000000000000000000000000000000F5BEF5DC0F000000000000000000000000000000000000000F00DC00000000DC0000000000DC0000000000DC0000000000000000000000000000000000000000000000000000000000000000000000000000000000
310
00000000000000000000000000000000000000000000000000000000000000000000000000000000000000000000000000000000000000000000000000000000000000000000000000000000000000000000000000000000000000000000BE00BE00BEBEBEBEBEBEBEBEBEBEBE0000000000BE000000000000000000000000
310
0000000000000000000000000000000000000000000000000000000000000000000000000000000000000000F500F5DC0F000000000000000000000000000000000000000F0000DC00000000DC0000000000DC0000000000DC0000000000000000000000000000000000000000000000000000000000000000000000000000
310
000000000000000000000000000000000000000000000000000000000000000000000000000000000000000000000000000000000000000000000000000000000000000000000000000000000000000000000000000000000000000000000000BE00BE00BEBEBEBEBEBEBEBEBEBEBE0000000000BEBE000000000000000000
310
00000000000000000000000000000000000000000000000000000000000000000000000000000000000000000000F5DCF5DC0F0000BE00000000000000000000BE00000000000F000000DC00000000DC0000000000DC0000000000000000000000000000000000000000000000000000000000000000000000000000000000
310
0000000000000000000000000000000000000000000000000000000000000000000000000000000000000000000000000000000000000000000000000000000000000000000000000000000000000000000000000000000000000000000000000000BE00BE00BEBEBEBEBEBEBEBEBEBEBE00000000BEBEBE00000000000000
310
000000000000000000000000000000000000000000000000000000000000000000000000000000000000000000000000F500F5DC0F00000000000000000000000000BE00000000000F00000000DC00000000DC0000000000DC0000000000000000000000000000000000000000000000000000000000000000000000000000
310
00000000000000000000000000000000000000000000000000000000000000000000000000000000000000000000000000000000000000000000000000000000000000000000000000000000000000000000000000000000000000000000000000000000BE00BE00BEBEBEBEBEBEBEBEBEBEBEBEBEBEBEBE00BE0000000000
310
0000000000000000000000000000000000000000000000000000000000000000000000000000000000000000000000000000F5DCF5DC0F000000000000BE00000000BEBEBE00000000000F0000000000DC00000000DC0000000000DC0000000000000000000000000000000000000000000000000000000000000000000000
310
000000000000000000000000000000000000000000000000000000000000000000000000000000000000000000000000000000000000000000000000000000000000000000000000000000000000000000000000000000000000000000000000000000000000BE00BE00BEBEBEBEBEBEBEBEBEBEBEBEBEBEBEBEBE00000000
310
00000000000000000000000000000000000000000000000000000000000000000000000000000000000000000000000000000000F500F5DC0F0000000000000000000000BEBEBEBE000000000FDC0000000000DC00000000DC0000000000DC0000000000000000000000000000000000000000000000000000000000000000
310
0000000000000000000000000000000000000000000000000000000000000000000000000000000000000000000000000000000000000000000000000000000000000000000000000000000000000000000000000000000000000000000000000000000000000000BE00BE00BEBEDCBEBE00BE00BEBE000000000000000000
310
000000000000000000000000000000000000000000000000000000000000000000000000000000000000000000000000000000000000F5DCF5DC0FBE000000BE00000000BE00000000BE000000BE0F00DC0000000000DC00000000DC0000000000DC0000000000000000000000000000000000000000000000000000000000
310
00000000000000000000000000000000000000000000000000000000000000000000000000000000000000000000000000000000000000000000000000000000000000000000000000000000000000000000000000000000000000000000000000000000000000000000BE00BE00BEDCDCF5F5000000000000000000000000
310
0000000000000000000000000000000000000000000000000000000000000000000000000000000000000000000000000000000000000000F5DCF5DC0FBE0000000000000000000000000000000000000F0000DC0000000000DC00000000DC0000000000DC0000000000000000000000000000000000000000000000000000
310
00000000000000000000000000000000000000000000000000000000000000000000000000000000000000000000000000000000000000000000000000000000000000000000000000000000000000000000000000000000000000000000000000000000000000000000000000BEBE00BEDCDCF5F500000000000000000000
310
00000000000000000000000000000000000000000000000000000000000000000000000000000000000000000000000000000000000000000000F500F5DC0F00000000000000000000000000000000BE00000F000000DC0000000000DC00000000DC0000000000000000000000000000000000000000000000000000000000
310
00000000000000000000000000000000000000000000000000000000000000000000000000000000000000000000000000000000000000000000000000000000000000000000000000000000000000000000000000000000000000000000000000000000000000000000000000000000BEBEBEDCDCF5F50000000000000000
310
000000000000000000000000000000000000000000000000000000000000000000000000000000000000000000000000000000000000000000000000F5DCF5DC0F000000000000000000000000000000000000000F00000000DC0000000000DC00000000DC0000000000000000000000000000000000000000000000000000
310
0000000000000000000000000000000000000000000000000000000000000000000000000000000000000000000000000000000000000000000000000000000000000000000000000000000000000000000000000000000000000000000000000000000000000000000000000000000000000000DCDCDCF5F5000000000000
310
0000000000000000000000000000000000000000000000000000000000000000000000000000000000000000000000000000000000000000000000000000F500F5DC0F00000000000000000000BE00000000000000000F0000000000DC0000000000DC00000000DC0000000000000000000000000000000000000000000000
310
00000000000000000000000000000000000000000000000000000000000000000000000000000000000000000000000000000000000000000000000000000000000000000000000000000000000000000000000000000000000000000000000000000000000000000000000000000000000000000000DCDCDCF5F500000000
310
00000000000000000000000000000000000000000000000000000000000000000000000000000000000000000000000000000000000000000000000000000000F5DCF5DC0FBE0000BE0000000000000000000000000000000FDC0000000000DC0000000000DC00000000DC0000000000000000000000000000000000000000
310
000000000000000000000000000000000000000000000000000000000000000000000000000000000000000000000000000000000000000000000000000000000000000000000000000000000000000000000000000000000000000000000000000000000000000000000000000000000000000000000000DCDCDCF5F50000
310
000000000000000000000000000000000000000000000000000000000000000000000000000000000000000000000000000000000000000000000000000000000000F500F5DC0FBE0000000000BE000000BEBE0000000000BE000F00DC0000000000DC0000000000DC00000000DC0000000000000000000000000000000000
310
0000000000000000000000000000000000000000000000000000000000000000000000000000000000000000000000000000000000000000000000000000000000000000000000000000000000000000000000000000000000000000000000000000000000000000000000000000000000000000000000000000DCDCDCF5F5
310
0000000000000000000000000000000000000000000000000000000000000000000000000000000000000000000000000000000000000000000000000000000000000000F5DCF5F50FBE00000000000000000000BE000000000000000F0000DC0000000000DC0000000000DC00000000DC0000000000000000000000000000
310
00000000000000000000000000000000000000000000000000000000000000000000000000000000000000000000000000000000000000000000000000000000000000000000000000000000000000000000000000000000000000000000000000000000000000000000000000000000000000000000000000000000DCDCDC
310
F5F50000000000000000000000000000000000000000000000000000000000000000000000000000000000000000000000000000000000000000000000000000000000000000F5DCF5000F000000000000000000000000000000000000000F000000DC0000000000DC0000000000DC00000000000000000000000000000000
310
000000000000000000000000000000000000000000000000000000000000000000000000000000000000000000000000000000000000000000000000000000000000000000000000000000000000000000000000000000000000000000000000000000000000000000000000000000000000000000000000000000000000DC
310
DCDCF5F50000000000000000000000000000000000000000000000000000000000000000000000000000000000000000000000000000000000000000000000000000000000000000F500F5000F000000000000000000000000000000000000000F00000000DC0000000000DC0000000000DC00000000000000000000000000
310
00000000000000000000000000000000000000000000000000000000000000000000000000000000000000000000000000000000000000000000000000000000000000000000000000000000000000000000000000000000000000000000000000000000000000000000000000000000000000000000000000000000000000
310
00DCDCDCF5F50000000000000000000000000000000000000000000000000000000000000000000000000000000000000000000000000000000000000000000000000000000000000000F5F5F5000F000000000000000000000000000000000000000FDC00000000DC0000000000DC0000000000DC00000000000000000000
310
00000000000000000000000000000000000000000000000000000000000000000000000000000000000000000000000000000000000000000000000000000000000000000000000000000000000000000000000000000000000000000000000000000000000000000000000000000000000000000000000000000000000000
310
000000DCDCDC00000000000000000000000000000000000000000000000000000000000000000000000000000000000000000000000000000000000000000000000000000000000000000000000000000F000000000000000000000000000000000000000F00DC00000000DC0000000000DC0000000000DC00000000000000
310
00000000000000000000000000000000000000000000000000000000000000000000000000000000000000000000000000000000000000000000000000000000000000000000000000000000000000000000000000000000000000000000000000000000000000000000000000000000000000000000000000000000000000
310
0000000000DCDCDC00000000000000000000000000000000000000000000000000000000000000000000000000000000000000000000000000000000000000000000000000000000000000000000000000000FBE000000BE00000000000000000000000000000F0000DC00000000DC0000000000DC0000000000DC00000000
310
00000000000000000000000000000000000000000000000000000000000000000000000000000000000000000000000000000000000000000000000000000000000000000000000000000000000000000000000000000000000000000000000000000000000000000000000000000000000000000000000000000000000000
310
00000000000000DCDCDC00000000000000000000000000000000000000000000000000000000000000000000000000000000000000000000000000000000000000000000000000000000000000000000000000000F000000000000000000BEBE0000000000BEBE000F000000DC00000000DC0000000000DC00000000000000
310
00000000000000000000000000000000000000000000000000000000000000000000000000000000000000000000000000000000000000000000000000000000000000000000000000000000000000000000000000000000000000000000000000000000000000000000000000000000000000000000000000000000000000
310
000000000000000000DCDCDC00000000000000000000000000000000000000000000000000000000000000000000000000000000000000000000000000000000000000000000000000000000000000000000000000000F00000000000000000000BEBEBE000000BEBE000F00000000DC00000000DC0000000000DC00000000
310
00000000000000000000000000000000000000000000000000000000000000000000000000000000000000000000000000000000000000000000000000000000000000000000000000000000000000000000000000000000000000000000000000000000000000000000000000000000000000000000000000000000000000
310
0000000000000000000000DCDCDC00000000000000000000000000000000000000000000000000000000000000000000000000000000000000000000000000000000000000000000000000000000000000000000000000000F0000000000000000000000BE000000000000000F0000000000DC00000000DC0000000000DC00
310
00000000000000000000000000000000000000000000000000000000000000000000000000000000000000000000000000000000000000000000000000000000000000000000000000000000000000000000000000000000000000000000000000000000000000000000000000000000000000000000000000000000000000
310
00000000000000000000000000DCDCDC00000000000000000000000000000000000000000000000000000000000000000000000000000000000000000000000000000000000000000000000000000000000000000000000000000F00000000000000000000BE00000000000000000FDC0000000000DC00000000DC00000000
310
00DC0000000000000000000000000000000000000000000000000000000000000000000000000000000000000000000000000000000000000000000000000000000000000000000000000000000000000000000000000000000000000000000000000000000000000000000000000000000000000000000000000000000000
310
000000000000000000000000000000DCDCDC00000000000000000000000000000000000000000000000000000000000000000000000000000000000000000000000000000000000000000000000000000000000000000000000000000FBE0000000000000000000000000000000000000F00DC0000000000DC00000000DC00
310
00000000DC0000000000000000000000000000000000000000000000000000000000000000000000000000000000000000000000000000000000000000000000000000000000000000000000000000000000000000000000000000000000000000000000000000000000000000000000000000000000000000000000000000
310
0000000000000000000000000000000000DCDCDC00000000000000000000000000000000000000000000000000000000000000000000000000000000000000000000000000000000000000000000000000000000000000000000000000000FBE0000000000000000000000000000000000000F0000DC0000000000DC000000
310
00DC0000000000DC0000000000000000000000000000000000000000000000000000000000000000000000000000000000000000000000000000000000000000000000000000000000000000000000000000000000000000000000000000000000000000000000000000000000000000000000000000000000000000000000
310
00000000000000000000000000000000000000DCDCDC00000000000000000000000000000000000000000000000000000000000000000000000000000000000000000000000000000000000000000000000000000000000000000000000000000F00000000000000000000BE00BE0000000000000F000000DC0000000000DC
310
00000000DC0000000000000000000000000000000000000000000000000000000000000000000000000000000000000000000000000000000000000000000000000000000000000000000000000000000000000000000000000000000000000000000000000000000000000000000000000000000000000000000000000000
310
000000000000000000000000000000000000000000DCDCDC00000000000000000000000000000000000000000000000000000000000000000000000000000000000000000000000000000000000000000000000000000000000000000000000000000F0000000000000000BEBEBE00000000000000000F00000000DC000000
310
0000DC00000000DC0000000000000000000000000000000000000000000000000000000000000000000000000000000000000000000000000000000000000000000000000000000000000000000000000000000000000000000000000000000000000000000000000000000000000000000000000000000000000000000000
310
0000000000000000000000000000000000000000000000DCDCDC00000000000000000000000000000000000000000000000000000000000000000000000000000000000000000000000000000000000000000000000000000000000000000000000000000F00000000BEBE000000BEBE000000BE000000000F0000000000DC
310
0000000000DC00000000DC0000000000000000000000000000000000000000000000000000000000000000000000000000000000000000000000000000000000000000000000000000000000000000000000000000000000000000000000000000000000000000000000000000000000000000000000000000000000000000
310
0000000000000000000000000000000000000000000000DCDCDCDCDCDC000000000000000000000000000000000000000000000000000000000000000000000000000000000000000000000000000000000000000000000000000000000000000000000000000F0000000000BE00000000BE00000000000000000FDC000000
310
0000DC0000000000DC00000000DC0000000000000000000000000000000000000000000000000000000000000000000000000000000000000000000000000000000000000000000000000000000000000000000000000000000000000000000000000000000000000000000000000000000000000000000000000000000000
310
00000000000000000000000000000000000000000000000000DCDCDCDCDCDC000000000000000000000000000000000000000000000000000000000000000000000000000000000000000000000000000000000000000000000000000000000000000000000000000F000000000000000000000000000000000000000F00DC
310
0000000000DC0000000000DC00000000DC0000000000000000000000000000000000000000000000000000000000000000000000000000000000000000000000000000000000000000000000000000000000000000000000000000000000000000000000000000000000000000000000000000000000000000000000000000
310
000000000000000000000000000000000000000000000000000000DCDCDCDCDCDC000000000000000000000000000000000000000000000000000000000000000000000000000000000000000000000000000000000000000000000000000000000000000000000000000F00000000000000BE00000000000000000000BE0F
310
0000DC0000000000DC0000000000DC00000000DC0000000000000000000000000000000000000000000000000000000000000000000000000000000000000000000000000000000000000000000000000000000000000000000000000000000000000000000000000000000000000000000000000000000000000000000000
310
0000000000000000000000000000000000000000000000000000000000DCDCDCDCDCDC000000000000000000000000000000000000000000000000000000000000000000000000000000000000000000000000000000000000000000000000000000000000000000000000000FBE0000000000000000000000000000000000
310
000F000000DC0000000000DC0000000000DC00000000000000000000000000000000000000000000000000000000000000000000000000000000000000000000000000000000000000000000000000000000000000000000000000000000000000000000000000000000000000000000000000000000000000000000000000
310
00000000000000000000000000000000000000000000000000000000000000DCDCDCDCDCDC000000000000000000000000000000000000000000000000000000000000000000000000000000000000000000000000000000000000000000000000000000000000000000000000000F0000BE00BE0000000000BE000000BE00
310
0000000F00000000DC0000000000DC0000000000DC00000000000000000000000000000000000000000000000000000000000000000000000000000000000000000000000000000000000000000000000000000000000000000000000000000000000000000000000000000000000000000000000000000000000000000000
310
000000000000000000000000000000000000000000000000000000000000000000DCDCDCDCDCDC000000000000000000000000000000000000000000000000000000000000000000000000000000000000000000000000000000000000000000000000000000000000000000000000000F000000BE00000000000000000000
310
00000000000FDC00000000DC0000000000DC0000000000DC00000000000000000000000000000000000000000000000000000000000000000000000000000000000000000000000000000000000000000000000000000000000000000000000000000000000000000000000000000000000000000000000000000000000000
310
0000000000000000000000000000000000000000000000000000000000000000000000DCDCDCDCDCDC000000000000000000000000000000000000000000000000000000000000000000000000000000000000000000000000000000000000000000000000000000000000000000000000000F000000000000000000000000
310
0000BE00BE00000F00DC00000000DC0000000000DC0000000000DC00000000000000000000000000000000000000000000000000000000000000000000000000000000000000000000000000000000000000000000000000000000000000000000000000000000000000000000000000000000000000000000000000000000
310
00000000000000000000000000000000000000000000000000000000000000000000000000DCDCDCDCDCDC000000000000000000000000000000000000000000000000000000000000000000000000000000000000000000000000000000000000000000000000000000000000000000000000000F0000000000000000BEBE
310
0000000000000000000F0000DC00000000DC0000000000DC0000000000DC00000000000000000000000000000000000000000000000000000000000000000000000000000000000000000000000000000000000000000000000000000000000000000000000000000000000000000000000000000000000000000000000000
310
000000000000000000000000000000000000000000000000000000000000000000000000000000000000000000000000000000000000000000000000000000000000000000000000000000000000000000000000000000000000000000000000000000000000000000000000000000000000000000000F0000000000000000
310
00BE0000000000000000000F000000DC00000000DC0000000000DC00000000000000000000000000000000000000000000000000000000000000000000000000000000000000000000000000000000000000000000000000000000000000000000000000000000000000000000000000000000000000000000000000000000
310
0000000000000000000000000000000000000000000000000000000000000000000000000000000000000000000000000000000000000000000000000000000000000000000000000000000000000000000000000000000000000000000000000000000000000000000000000000000000000000000000000F00BE00000000
310
000000000000000000000000000F00000000DC00000000DC0000000000DC00000000000000000000000000000000000000000000000000000000000000000000000000000000000000000000000000000000000000000000000000000000000000000000000000000000000000000000000000000000000000000000000000
310
00000000000000000000000000000000000000000000000000000000000000000000000000000000000000000000000000000000000000000000000000000000000000000000000000000000000000000000000000000000000000000000000000000000000000000000000000000000000000000000000000000F00000000
310
00000000000000BE000000000000000F0000000000DC00000000DC0000000000DC00000000000000000000000000000000000000000000000000000000000000000000000000000000000000000000000000000000000000000000000000000000000000000000000000000000000000000000000000000000000000000000
310
000000000000000000000000000000000000000000000000000000000000000000000000000000000000000000000000000000000000000000000000000000000000000000000000000000000000000000000000000000000000000000000000000000000000000000000000000000000000000000000000000000000F0000
310
000000000000000000BE000000000000000FDC0000000000DC00000000DC0000000000DC00000000000000000000000000000000000000000000000000000000000000000000000000000000000000000000000000000000000000000000000000000000000000000000000000000000000000000000000000000000000000
310
0000000000000000000000000000000000000000000000000000000000000000000000000000000000000000000000000000000000000000000000000000000000000000000000000000000000000000000000000000000000000000000000000000000000000000000000000000000000000000000000000000000000000F
310
00000000000000BE00000000000000000000000F00DC0000000000DC00000000DC0000000000DC00000000000000000000000000000000000000000000000000000000000000000000000000000000000000000000000000000000000000000000000000000000000000000000000000000000000000000000000000000000
310
00000000000000000000000000000000000000000000000000000000000000000000000000000000000000000000000000000000000000000000000000000000000000000000000000000000000000000000000000000000000000000000000000000000000000000000000000000000000000000000000000000000000000
310
000F00000000000000000000BE00000000000000000F0000DC0000000000DC00000000DC0000000000DC00000000000000000000000000000000000000000000000000000000000000000000000000000000000000000000000000000000000000000000000000000000000000000000000000000000000000000000000000
310
00000000000000000000000000000000000000000000000000000000000000000000000000000000000000000000000000000000000000000000000000000000000000000000000000000000000000000000000000000000000000000000000000000000000000000000000000000000000000000000000000000000000000
310
0000000F000000000000000000BEBE00000000000000000F000000DC0000000000DC00000000DC00000000000000000000000000000000000000000000000000000000000000000000000000000000000000000000000000000000000000000000000000000000000000000000000000000000000000000000000000000000
310
00000000000000000000000000000000000000000000000000000000000000000000000000000000000000000000000000000000000000000000000000000000000000000000000000000000000000000000000000000000000000000000000000000000000000000000000000000000000000000000000000000000000000
310
00000000000F00000000000000BE00000000000000000000BE0F00000000DC0000000000DC00000000DC00000000000000000000000000000000000000000000000000000000000000000000000000000000000000000000000000000000000000000000000000000000000000000000000000000000000000000000000000
310
00000000000000000000000000000000000000000000000000000000000000000000000000000000000000000000000000000000000000000000000000000000000000000000000000000000000000000000000000000000000000000000000000000000000000000000000000000000000000000000000000000000000000
310
000000000000000F00BE00000000000000000000000000000000000FDC00000000DC0000000000DC00000000DC00000000000000000000000000000000000000000000000000000000000000000000000000000000000000000000000000000000000000000000000000000000000000000000000000000000000000000000
310
00000000000000000000000000000000000000000000000000000000000000000000000000000000000000000000000000000000000000000000000000000000000000000000000000000000000000000000000000000000000000000000000000000000000000000000000000000000000000000000000000000000000000
310
0000000000000000000F0000000000000000000000BE000000000000000F00DC00000000DC0000000000DC00000000DC00000000000000000000000000000000000000000000000000000000000000000000000000000000000000000000000000000000000000000000000000000000000000000000000000000000000000
310
00000000000000000000000000000000000000000000000000000000000000000000000000000000000000000000000000000000000000000000000000000000000000000000000000000000000000000000000000000000000000000000000000000000000000000000000000000000000000000000000000000000000000
310
00000000000000000000000F000000000000000000000000000000000000000F0000DC00000000DC0000000000DC00000000DC00000000000000000000000000000000000000000000000000000000000000000000000000000000000000000000000000000000000000000000000000000000000000000000000000000000
310
00000000000000000000000000000000000000000000000000000000000000000000000000000000000000000000000000000000000000000000000000000000000000000000000000000000000000000000000000000000000000000000000000000000000000000000000000000000000000000000000000000000000000
310
000000000000000000000000000F0000000000BE000000000000000000000000000F000000DC00000000DC0000000000DC00000000DC00000000000000000000000000000000000000000000000000000000000000000000000000000000000000000000000000000000000000000000000000000000000000000000000000
310
00000000000000000000000000000000000000000000000000000000000000000000000000000000000000000000000000000000000000000000000000000000000000000000000000000000000000000000000000000000000000000000000000000000000000000000000000000000000000000000000000000000000000
310
0000000000000000000000000000000FBE0000000000000000000000BE0000000000000F00000000DC00000000DC0000000000DC000000000000000000000000000000000000000000000000000000000000000000000000000000000000000000000000000000000000000000000000000000000000000000000000000000
310
00000000000000000000000000000000000000000000000000000000000000000000000000000000000000000000000000000000000000000000000000000000000000000000000000000000000000000000000000000000000000000000000000000000000000000000000000000000000000000000000000000000000000
310
00000000000000000000000000000000000F000000000000BEBE00000000000000000000000F0000000000DC00000000DC0000000000DC000000000000000000000000000000000000000000000000000000000000000000000000000000000000000000000000000000000000000000000000000000000000000000000000
310
00000000000000000000000000000000000000000000000000000000000000000000000000000000000000000000000000000000000000000000000000000000000000000000000000000000000000000000000000000000000000000000000000000000000000000000000000000000000000000000000000000000000000
310
000000000000000000000000000000000000000F0000000000BEBEBE00000000BE0000000000000FDC00000000DC0000000000DC0000000000DC000000000000000000000000000000000000000000000000000000000000000000000000000000000000000000000000000000000000000000000000000000000000000000
310
00000000000000000000000000000000000000000000000000000000000000000000000000000000000000000000000000000000000000000000000000000000000000000000000000000000000000000000000000000000000000000000000000000000000000000000000000000000000000000000000000000000000000
310
0000000000000000000000000000000000000000000F00BE0000BE00BE0000000000000000BE0000000F00DC00000000DC0000000000DC0000000000DC000000000000000000000000000000000000000000000000000000000000000000000000000000000000000000000000000000000000000000000000000000000000
310
00000000000000000000000000000000000000000000000000000000000000000000000000000000000000000000000000000000000000000000000000000000000000000000000000000000000000000000000000000000000000000000000000000000000000000000000000000000000000000000000000000000000000
310
00000000000000000000000000000000000000000000000F0000000000000000000000BE000000000000000F0000DC00000000DC0000000000DC0000000000DC000000000000000000000000000000000000000000000000000000000000000000000000000000000000000000000000000000000000000000000000000000
310
00000000000000000000000000000000000000000000000000000000000000000000000000000000000000000000000000000000000000000000000000000000000000000000000000000000000000000000000000000000000000000000000000000000000000000000000000000000000000000000000000000000000000
310
000000000000000000000000000000000000000000000000000F0000000000000000000000BE000000000000000F000000DC00000000DC0000000000DC000000000000000000000000000000000000000000000000000000000000000000000000000000000000000000000000000000000000000000000000000000000000
310
00000000000000000000000000000000000000000000000000000000000000000000000000000000000000000000000000000000000000000000000000000000000000000000000000000000000000000000000000000000000000000000000000000000000000000000000000000000000000000000000000000000000000
310
0000000000000000000000000000000000000000000000000000000FBE00000000BE000000000000000000000000000F00000000DC00000000DC0000000000DC000000000000000000000000000000000000000000000000000000000000000000000000000000000000000000000000000000000000000000000000000000
310
00000000000000000000000000000000000000000000000000000000000000000000000000000000000000000000000000000000000000000000000000000000000000000000000000000000000000000000000000000000000000000000000000000000000000000000000000000000000000000000000000000000000000
310
00000000000000000000000000000000000000000000000000000000000F00000000000000000000BE00000000000000000F0000000000DC00000000DC0000000000DC000000000000000000000000000000000000000000000000000000000000000000000000000000000000000000000000000000000000000000000000
310
00000000000000000000000000000000000000000000000000000000000000000000000000000000000000000000000000000000000000000000000000000000000000000000000000000000000000000000000000000000000000000000000000000000000000000000000000000000000000000000000000000000000000
310
000000000000000000000000000000000000000000000000000000000000000F000000000000000000000000000000000000000FDC0000000000DC00000000DC0000000000DC000000000000000000000000000000000000000000000000000000000000000000000000000000000000000000000000000000000000000000
310
0000000000000000
  0
XRECORD
  5
3FC01
102
{ACAD_REACTORS
330
3FC00
102
}
330
3FC00
100
AcDbXrecord
280
     1
102
MATERIAL
148
0.0
149
0.0
149
0.0
 93
        0
 94
      127
282
     0
 72
     1
 77
     1
171
     1
175
     1
179
     1
273
     0
  0
XRECORD
  5
3FBFF
102
{ACAD_REACTORS
330
3FBFE
102
}
330
3FBFE
100
AcDbXrecord
280
     1
102
MATERIAL
148
0.0
149
0.0
149
0.0
 93
        0
 94
      127
282
     0
 72
     1
 77
     1
171
     1
175
     1
179
     1
273
     0
  0
XRECORD
  5
3FC03
102
{ACAD_REACTORS
330
3FC02
102
}
330
3FC02
100
AcDbXrecord
280
     1
102
MATERIAL
148
0.0
149
0.0
149
0.0
 93
        0
 94
      127
282
     0
 72
     1
 77
     1
171
     1
175
     1
179
     1
273
     0
  0
XRECORD
  5
3FC6E
102
{ACAD_REACTORS
330
3FC6D
102
}
330
3FC6D
100
AcDbXrecord
280
     1
102
SHADEPLOT
 70
     0
102
SHADEPLOTRESLEVEL
 70
     2
102
SHADEPLOTCUSTOMDPI
 70
   300
  0
XRECORD
  5
3FC72
102
{ACAD_REACTORS
330
3FC71
102
}
330
3FC71
100
AcDbXrecord
280
     1
102
SHADEPLOT
 70
     0
102
SHADEPLOTRESLEVEL
 70
     2
102
SHADEPLOTCUSTOMDPI
 70
   300
  0
XRECORD
  5
3FC78
102
{ACAD_REACTORS
330
3FC77
102
}
330
3FC77
100
AcDbXrecord
280
     1
102
SHADEPLOT
 70
     0
102
SHADEPLOTRESLEVEL
 70
     2
102
SHADEPLOTCUSTOMDPI
 70
   300
  0
XRECORD
  5
3FC70
102
{ACAD_REACTORS
330
3FC6F
102
}
330
3FC6F
100
AcDbXrecord
280
     1
102
SHADEPLOT
 70
     0
102
SHADEPLOTRESLEVEL
 70
     2
102
SHADEPLOTCUSTOMDPI
 70
   300
  0
CELLSTYLEMAP
  5
3FC4A
102
{ACAD_REACTORS
330
3FBF2
102
}
330
3FBF2
100
AcDbCellStyleMap
 90
        3
300
CELLSTYLE
  1
TABLEFORMAT_BEGIN
 90
        5
170
     1
 91
        0
 92
    32768
 62
   257
 93
        1
300
CONTENTFORMAT
  1
CONTENTFORMAT_BEGIN
 90
        0
 91
        0
 92
        4
 93
        0
300

 40
0.0
140
1.0
 94
        5
 62
     0
340
13
144
0.25
309
CONTENTFORMAT_END
171
     1
301
MARGIN
  1
CELLMARGIN_BEGIN
 40
0.06
 40
0.06
 40
0.06
 40
0.06
 40
0.18
 40
0.18
309
CELLMARGIN_END
 94
        6
 95
        1
302
GRIDFORMAT
  1
GRIDFORMAT_BEGIN
 90
        0
 91
        1
 62
     0
 92
       -2
340
0
 93
        0
 40
0.045
309
GRIDFORMAT_END
 95
        2
302
GRIDFORMAT
  1
GRIDFORMAT_BEGIN
 90
        0
 91
        1
 62
     0
 92
       -2
340
0
 93
        0
 40
0.045
309
GRIDFORMAT_END
 95
        4
302
GRIDFORMAT
  1
GRIDFORMAT_BEGIN
 90
        0
 91
        1
 62
     0
 92
       -2
340
0
 93
        0
 40
0.045
309
GRIDFORMAT_END
 95
        8
302
GRIDFORMAT
  1
GRIDFORMAT_BEGIN
 90
        0
 91
        1
 62
     0
 92
       -2
340
0
 93
        0
 40
0.045
309
GRIDFORMAT_END
 95
       16
302
GRIDFORMAT
  1
GRIDFORMAT_BEGIN
 90
        0
 91
        1
 62
     0
 92
       -2
340
0
 93
        0
 40
0.045
309
GRIDFORMAT_END
 95
       32
302
GRIDFORMAT
  1
GRIDFORMAT_BEGIN
 90
        0
 91
        1
 62
     0
 92
       -2
340
0
 93
        0
 40
0.045
309
GRIDFORMAT_END
309
TABLEFORMAT_END
  1
CELLSTYLE_BEGIN
 90
        1
 91
        1
300
_TITLE
309
CELLSTYLE_END
300
CELLSTYLE
  1
TABLEFORMAT_BEGIN
 90
        5
170
     1
 91
        0
 92
        0
 62
   257
 93
        1
300
CONTENTFORMAT
  1
CONTENTFORMAT_BEGIN
 90
        0
 91
        0
 92
        4
 93
        0
300

 40
0.0
140
1.0
 94
        5
 62
     0
340
13
144
0.18
309
CONTENTFORMAT_END
171
     1
301
MARGIN
  1
CELLMARGIN_BEGIN
 40
0.06
 40
0.06
 40
0.06
 40
0.06
 40
0.18
 40
0.18
309
CELLMARGIN_END
 94
        6
 95
        1
302
GRIDFORMAT
  1
GRIDFORMAT_BEGIN
 90
        0
 91
        1
 62
     0
 92
       -2
340
0
 93
        0
 40
0.045
309
GRIDFORMAT_END
 95
        2
302
GRIDFORMAT
  1
GRIDFORMAT_BEGIN
 90
        0
 91
        1
 62
     0
 92
       -2
340
0
 93
        0
 40
0.045
309
GRIDFORMAT_END
 95
        4
302
GRIDFORMAT
  1
GRIDFORMAT_BEGIN
 90
        0
 91
        1
 62
     0
 92
       -2
340
0
 93
        0
 40
0.045
309
GRIDFORMAT_END
 95
        8
302
GRIDFORMAT
  1
GRIDFORMAT_BEGIN
 90
        0
 91
        1
 62
     0
 92
       -2
340
0
 93
        0
 40
0.045
309
GRIDFORMAT_END
 95
       16
302
GRIDFORMAT
  1
GRIDFORMAT_BEGIN
 90
        0
 91
        1
 62
     0
 92
       -2
340
0
 93
        0
 40
0.045
309
GRIDFORMAT_END
 95
       32
302
GRIDFORMAT
  1
GRIDFORMAT_BEGIN
 90
        0
 91
        1
 62
     0
 92
       -2
340
0
 93
        0
 40
0.045
309
GRIDFORMAT_END
309
TABLEFORMAT_END
  1
CELLSTYLE_BEGIN
 90
        2
 91
        1
300
_HEADER
309
CELLSTYLE_END
300
CELLSTYLE
  1
TABLEFORMAT_BEGIN
 90
        5
170
     1
 91
        0
 92
        0
 62
   257
 93
        1
300
CONTENTFORMAT
  1
CONTENTFORMAT_BEGIN
 90
        0
 91
        0
 92
        4
 93
        0
300

 40
0.0
140
1.0
 94
        2
 62
     0
340
13
144
0.18
309
CONTENTFORMAT_END
171
     1
301
MARGIN
  1
CELLMARGIN_BEGIN
 40
0.06
 40
0.06
 40
0.06
 40
0.06
 40
0.18
 40
0.18
309
CELLMARGIN_END
 94
        6
 95
        1
302
GRIDFORMAT
  1
GRIDFORMAT_BEGIN
 90
        0
 91
        1
 62
     0
 92
       -2
340
0
 93
        0
 40
0.045
309
GRIDFORMAT_END
 95
        2
302
GRIDFORMAT
  1
GRIDFORMAT_BEGIN
 90
        0
 91
        1
 62
     0
 92
       -2
340
0
 93
        0
 40
0.045
309
GRIDFORMAT_END
 95
        4
302
GRIDFORMAT
  1
GRIDFORMAT_BEGIN
 90
        0
 91
        1
 62
     0
 92
       -2
340
0
 93
        0
 40
0.045
309
GRIDFORMAT_END
 95
        8
302
GRIDFORMAT
  1
GRIDFORMAT_BEGIN
 90
        0
 91
        1
 62
     0
 92
       -2
340
0
 93
        0
 40
0.045
309
GRIDFORMAT_END
 95
       16
302
GRIDFORMAT
  1
GRIDFORMAT_BEGIN
 90
        0
 91
        1
 62
     0
 92
       -2
340
0
 93
        0
 40
0.045
309
GRIDFORMAT_END
 95
       32
302
GRIDFORMAT
  1
GRIDFORMAT_BEGIN
 90
        0
 91
        1
 62
     0
 92
       -2
340
0
 93
        0
 40
0.045
309
GRIDFORMAT_END
309
TABLEFORMAT_END
  1
CELLSTYLE_BEGIN
 90
        3
 91
        2
300
_DATA
309
CELLSTYLE_END
  0
XRECORD
  5
3FC54
102
{ACAD_REACTORS
330
3FBF2
102
}
330
3FBF2
100
AcDbXrecord
280
     1
102
ACAD_ROUNDTRIP_PRE2007_TABLESTYLE
 90
        4
 91
        0
  1

 92
        4
 93
        0
  2

 94
        4
 95
        0
  3

  0
XRECORD
  5
3FC60
102
{ACAD_REACTORS
330
3FC5F
102
}
330
3FC5F
100
AcDbXrecord
280
     1
102
RTVSPropertyOp0
 70
     1
102
RTVSPropertyOp1
 70
     1
102
RTVSPropertyOp2
 70
     1
102
RTVSPropertyOp3
 70
     1
102
RTVSPropertyOp4
 70
     1
102
RTVSPropertyOp5
 70
     1
102
RTVSPropertyOp6
 70
     1
102
RTVSPropertyOp7
 70
     1
102
RTVSPropertyOp8
 70
     1
102
RTVSPropertyOp9
 70
     1
102
RTVSPropertyOp10
 70
     1
102
RTVSPropertyOp11
 70
     1
102
RTVSPropertyOp12
 70
     1
102
RTVSPropertyOp13
 70
     1
102
RTVSPropertyOp14
 70
     1
102
RTVSPropertyOp15
 70
     1
102
RTVSPropertyOp16
 70
     1
102
RTVSPropertyOp17
 70
     1
102
RTVSPropertyOp18
 70
     1
102
RTVSPropertyOp19
 70
     1
102
RTVSPropertyOp20
 70
     1
102
RTVSPropertyOp21
 70
     1
102
RTVSPropertyOp22
 70
     1
102
RTVSPropertyOp23
 70
     1
102
RTVSPropertyOp24
 70
     1
102
RTVSPropertyOp25
 70
     1
102
RTVSPropertyOp26
 70
     1
102
RTVSPropertyOp27
 70
     1
102
RTVSPropertyOp28
 70
     1
102
RTVSPropertyOp29
 70
     1
102
RTVSPropertyOp30
 70
     1
102
RTVSPropertyOp31
 70
     1
102
RTVSPropertyOp32
 70
     1
  0
XRECORD
  5
3FC90
102
{ACAD_REACTORS
330
3FC8F
102
}
330
3FC8F
100
AcDbXrecord
280
     1
102
RTVSPropertyOp0
 70
     1
102
RTVSPropertyOp1
 70
     1
102
RTVSPropertyOp2
 70
     1
102
RTVSPropertyOp3
 70
     1
102
RTVSPropertyOp4
 70
     1
102
RTVSPropertyOp5
 70
     1
102
RTVSPropertyOp6
 70
     1
102
RTVSPropertyOp7
 70
     1
102
RTVSPropertyOp8
 70
     1
102
RTVSPropertyOp9
 70
     1
102
RTVSPropertyOp10
 70
     1
102
RTVSPropertyOp11
 70
     1
102
RTVSPropertyOp12
 70
     1
102
RTVSPropertyOp13
 70
     1
102
RTVSPropertyOp14
 70
     1
102
RTVSPropertyOp15
 70
     1
102
RTVSPropertyOp16
 70
     1
102
RTVSPropertyOp17
 70
     1
102
RTVSPropertyOp18
 70
     1
102
RTVSPropertyOp19
 70
     1
102
RTVSPropertyOp20
 70
     1
102
RTVSPropertyOp21
 70
     1
102
RTVSPropertyOp22
 70
     1
102
RTVSPropertyOp23
 70
     1
102
RTVSPropertyOp24
 70
     1
102
RTVSPropertyOp25
 70
     1
102
RTVSPropertyOp26
 70
     1
102
RTVSPropertyOp27
 70
     1
102
RTVSPropertyOp28
 70
     1
102
RTVSPropertyOp29
 70
     1
102
RTVSPropertyOp30
 70
     1
102
RTVSPropertyOp31
 70
     1
102
RTVSPropertyOp32
 70
     1
  0
XRECORD
  5
3FC74
102
{ACAD_REACTORS
330
3FC73
102
}
330
3FC73
100
AcDbXrecord
280
     1
102
RTVSPropertyOp0
 70
     1
102
RTVSPropertyOp1
 70
     1
102
RTVSPropertyOp2
 70
     1
102
RTVSPropertyOp3
 70
     1
102
RTVSPropertyOp4
 70
     1
102
RTVSPropertyOp5
 70
     1
102
RTVSPropertyOp6
 70
     1
102
RTVSPropertyOp7
 70
     1
102
RTVSPropertyOp8
 70
     1
102
RTVSPropertyOp9
 70
     1
102
RTVSPropertyOp10
 70
     1
102
RTVSPropertyOp11
 70
     1
102
RTVSPropertyOp12
 70
     1
102
RTVSPropertyOp13
 70
     1
102
RTVSPropertyOp14
 70
     1
102
RTVSPropertyOp15
 70
     1
102
RTVSPropertyOp16
 70
     1
102
RTVSPropertyOp17
 70
     1
102
RTVSPropertyOp18
 70
     1
102
RTVSPropertyOp19
 70
     1
102
RTVSPropertyOp20
 70
     1
102
RTVSPropertyOp21
 70
     1
102
RTVSPropertyOp22
 70
     1
102
RTVSPropertyOp23
 70
     1
102
RTVSPropertyOp24
 70
     1
102
RTVSPropertyOp25
 70
     1
102
RTVSPropertyOp26
 70
     1
102
RTVSPropertyOp27
 70
     1
102
RTVSPropertyOp28
 70
     1
102
RTVSPropertyOp29
 70
     1
102
RTVSPropertyOp30
 70
     1
102
RTVSPropertyOp31
 70
     1
102
RTVSPropertyOp32
 70
     1
  0
XRECORD
  5
3FC5E
102
{ACAD_REACTORS
330
3FC5D
102
}
330
3FC5D
100
AcDbXrecord
280
     1
102
RTVSPropertyOp0
 70
     1
102
RTVSPropertyOp1
 70
     1
102
RTVSPropertyOp2
 70
     1
102
RTVSPropertyOp3
 70
     1
102
RTVSPropertyOp4
 70
     1
102
RTVSPropertyOp5
 70
     1
102
RTVSPropertyOp6
 70
     1
102
RTVSPropertyOp7
 70
     1
102
RTVSPropertyOp8
 70
     1
102
RTVSPropertyOp9
 70
     1
102
RTVSPropertyOp10
 70
     1
102
RTVSPropertyOp11
 70
     1
102
RTVSPropertyOp12
 70
     1
102
RTVSPropertyOp13
 70
     1
102
RTVSPropertyOp14
 70
     1
102
RTVSPropertyOp15
 70
     1
102
RTVSPropertyOp16
 70
     1
102
RTVSPropertyOp17
 70
     1
102
RTVSPropertyOp18
 70
     1
102
RTVSPropertyOp19
 70
     1
102
RTVSPropertyOp20
 70
     1
102
RTVSPropertyOp21
 70
     1
102
RTVSPropertyOp22
 70
     1
102
RTVSPropertyOp23
 70
     1
102
RTVSPropertyOp24
 70
     1
102
RTVSPropertyOp25
 70
     1
102
RTVSPropertyOp26
 70
     1
102
RTVSPropertyOp27
 70
     1
102
RTVSPropertyOp28
 70
     1
102
RTVSPropertyOp29
 70
     1
102
RTVSPropertyOp30
 70
     1
102
RTVSPropertyOp31
 70
     1
102
RTVSPropertyOp32
 70
     1
  0
XRECORD
  5
3FC64
102
{ACAD_REACTORS
330
3FC63
102
}
330
3FC63
100
AcDbXrecord
280
     1
102
RTVSPropertyOp0
 70
     1
102
RTVSPropertyOp1
 70
     1
102
RTVSPropertyOp2
 70
     1
102
RTVSPropertyOp3
 70
     1
102
RTVSPropertyOp4
 70
     1
102
RTVSPropertyOp5
 70
     1
102
RTVSPropertyOp6
 70
     1
102
RTVSPropertyOp7
 70
     1
102
RTVSPropertyOp8
 70
     1
102
RTVSPropertyOp9
 70
     1
102
RTVSPropertyOp10
 70
     1
102
RTVSPropertyOp11
 70
     1
102
RTVSPropertyOp12
 70
     1
102
RTVSPropertyOp13
 70
     1
102
RTVSPropertyOp14
 70
     1
102
RTVSPropertyOp15
 70
     1
102
RTVSPropertyOp16
 70
     1
102
RTVSPropertyOp17
 70
     1
102
RTVSPropertyOp18
 70
     1
102
RTVSPropertyOp19
 70
     1
102
RTVSPropertyOp20
 70
     1
102
RTVSPropertyOp21
 70
     1
102
RTVSPropertyOp22
 70
     1
102
RTVSPropertyOp23
 70
     1
102
RTVSPropertyOp24
 70
     1
102
RTVSPropertyOp25
 70
     1
102
RTVSPropertyOp26
 70
     1
102
RTVSPropertyOp27
 70
     1
102
RTVSPropertyOp28
 70
     1
102
RTVSPropertyOp29
 70
     1
102
RTVSPropertyOp30
 70
     1
102
RTVSPropertyOp31
 70
     1
102
RTVSPropertyOp32
 70
     1
  0
XRECORD
  5
3FC6C
102
{ACAD_REACTORS
330
3FC6B
102
}
330
3FC6B
100
AcDbXrecord
280
     1
102
RTVSPropertyOp0
 70
     1
102
RTVSPropertyOp1
 70
     1
102
RTVSPropertyOp2
 70
     1
102
RTVSPropertyOp3
 70
     1
102
RTVSPropertyOp4
 70
     1
102
RTVSPropertyOp5
 70
     1
102
RTVSPropertyOp6
 70
     1
102
RTVSPropertyOp7
 70
     1
102
RTVSPropertyOp8
 70
     1
102
RTVSPropertyOp9
 70
     1
102
RTVSPropertyOp10
 70
     1
102
RTVSPropertyOp11
 70
     1
102
RTVSPropertyOp12
 70
     1
102
RTVSPropertyOp13
 70
     1
102
RTVSPropertyOp14
 70
     1
102
RTVSPropertyOp15
 70
     1
102
RTVSPropertyOp16
 70
     1
102
RTVSPropertyOp17
 70
     1
102
RTVSPropertyOp18
 70
     1
102
RTVSPropertyOp19
 70
     1
102
RTVSPropertyOp20
 70
     1
102
RTVSPropertyOp21
 70
     1
102
RTVSPropertyOp22
 70
     1
102
RTVSPropertyOp23
 70
     1
102
RTVSPropertyOp24
 70
     1
102
RTVSPropertyOp25
 70
     1
102
RTVSPropertyOp26
 70
     1
102
RTVSPropertyOp27
 70
     1
102
RTVSPropertyOp28
 70
     1
102
RTVSPropertyOp29
 70
     1
102
RTVSPropertyOp30
 70
     1
102
RTVSPropertyOp31
 70
     1
102
RTVSPropertyOp32
 70
     1
  0
XRECORD
  5
3FC7E
102
{ACAD_REACTORS
330
3FC7D
102
}
330
3FC7D
100
AcDbXrecord
280
     1
102
RTVSPropertyOp0
 70
     1
102
RTVSPropertyOp1
 70
     1
102
RTVSPropertyOp2
 70
     1
102
RTVSPropertyOp3
 70
     1
102
RTVSPropertyOp4
 70
     1
102
RTVSPropertyOp5
 70
     1
102
RTVSPropertyOp6
 70
     1
102
RTVSPropertyOp7
 70
     1
102
RTVSPropertyOp8
 70
     1
102
RTVSPropertyOp9
 70
     1
102
RTVSPropertyOp10
 70
     1
102
RTVSPropertyOp11
 70
     1
102
RTVSPropertyOp12
 70
     1
102
RTVSPropertyOp13
 70
     1
102
RTVSPropertyOp14
 70
     1
102
RTVSPropertyOp15
 70
     1
102
RTVSPropertyOp16
 70
     1
102
RTVSPropertyOp17
 70
     1
102
RTVSPropertyOp18
 70
     1
102
RTVSPropertyOp19
 70
     1
102
RTVSPropertyOp20
 70
     1
102
RTVSPropertyOp21
 70
     1
102
RTVSPropertyOp22
 70
     1
102
RTVSPropertyOp23
 70
     1
102
RTVSPropertyOp24
 70
     1
102
RTVSPropertyOp25
 70
     1
102
RTVSPropertyOp26
 70
     1
102
RTVSPropertyOp27
 70
     1
102
RTVSPropertyOp28
 70
     1
102
RTVSPropertyOp29
 70
     1
102
RTVSPropertyOp30
 70
     1
102
RTVSPropertyOp31
 70
     1
102
RTVSPropertyOp32
 70
     1
  0
XRECORD
  5
3FC62
102
{ACAD_REACTORS
330
3FC61
102
}
330
3FC61
100
AcDbXrecord
280
     1
102
RTVSPropertyOp0
 70
     1
102
RTVSPropertyOp1
 70
     1
102
RTVSPropertyOp2
 70
     1
102
RTVSPropertyOp3
 70
     1
102
RTVSPropertyOp4
 70
     1
102
RTVSPropertyOp5
 70
     1
102
RTVSPropertyOp6
 70
     1
102
RTVSPropertyOp7
 70
     1
102
RTVSPropertyOp8
 70
     1
102
RTVSPropertyOp9
 70
     1
102
RTVSPropertyOp10
 70
     1
102
RTVSPropertyOp11
 70
     1
102
RTVSPropertyOp12
 70
     1
102
RTVSPropertyOp13
 70
     1
102
RTVSPropertyOp14
 70
     1
102
RTVSPropertyOp15
 70
     1
102
RTVSPropertyOp16
 70
     1
102
RTVSPropertyOp17
 70
     1
102
RTVSPropertyOp18
 70
     1
102
RTVSPropertyOp19
 70
     1
102
RTVSPropertyOp20
 70
     1
102
RTVSPropertyOp21
 70
     1
102
RTVSPropertyOp22
 70
     1
102
RTVSPropertyOp23
 70
     1
102
RTVSPropertyOp24
 70
     1
102
RTVSPropertyOp25
 70
     1
102
RTVSPropertyOp26
 70
     1
102
RTVSPropertyOp27
 70
     1
102
RTVSPropertyOp28
 70
     1
102
RTVSPropertyOp29
 70
     1
102
RTVSPropertyOp30
 70
     1
102
RTVSPropertyOp31
 70
     1
102
RTVSPropertyOp32
 70
     1
  0
XRECORD
  5
3FC8E
102
{ACAD_REACTORS
330
3FC8D
102
}
330
3FC8D
100
AcDbXrecord
280
     1
102
RTVSPropertyOp0
 70
     0
102
RTVSPropertyOp1
 70
     0
102
RTVSPropertyOp2
 70
     0
102
RTVSPropertyOp3
 70
     0
102
RTVSPropertyOp4
 70
     0
102
RTVSPropertyOp5
 70
     0
102
RTVSPropertyOp6
 70
     0
102
RTVSPropertyOp7
 70
     0
102
RTVSPropertyOp8
 70
     0
102
RTVSPropertyOp9
 70
     0
102
RTVSPropertyOp10
 70
     0
102
RTVSPropertyOp11
 70
     0
102
RTVSPropertyOp12
 70
     0
102
RTVSPropertyOp13
 70
     0
102
RTVSPropertyOp14
 70
     2
102
RTVSPropertyOp15
 70
     0
102
RTVSPropertyOp16
 70
     0
102
RTVSPropertyOp17
 70
     0
102
RTVSPropertyOp18
 70
     0
102
RTVSPropertyOp19
 70
     0
102
RTVSPropertyOp20
 70
     0
102
RTVSPropertyOp21
 70
     0
102
RTVSPropertyOp22
 70
     0
102
RTVSPropertyOp23
 70
     0
102
RTVSPropertyOp24
 70
     0
102
RTVSPropertyOp25
 70
     0
102
RTVSPropertyOp26
 70
     0
102
RTVSPropertyOp27
 70
     0
102
RTVSPropertyOp28
 70
     1
102
RTVSPropertyOp29
 70
     1
102
RTVSPropertyOp30
 70
     1
102
RTVSPropertyOp31
 70
     1
102
RTVSPropertyOp32
 70
     1
  0
XRECORD
  5
3FC6A
102
{ACAD_REACTORS
330
3FC69
102
}
330
3FC69
100
AcDbXrecord
280
     1
102
RTVSPropertyOp0
 70
     1
102
RTVSPropertyOp1
 70
     1
102
RTVSPropertyOp2
 70
     1
102
RTVSPropertyOp3
 70
     1
102
RTVSPropertyOp4
 70
     1
102
RTVSPropertyOp5
 70
     1
102
RTVSPropertyOp6
 70
     1
102
RTVSPropertyOp7
 70
     1
102
RTVSPropertyOp8
 70
     1
102
RTVSPropertyOp9
 70
     1
102
RTVSPropertyOp10
 70
     1
102
RTVSPropertyOp11
 70
     1
102
RTVSPropertyOp12
 70
     1
102
RTVSPropertyOp13
 70
     1
102
RTVSPropertyOp14
 70
     1
102
RTVSPropertyOp15
 70
     1
102
RTVSPropertyOp16
 70
     1
102
RTVSPropertyOp17
 70
     1
102
RTVSPropertyOp18
 70
     1
102
RTVSPropertyOp19
 70
     1
102
RTVSPropertyOp20
 70
     1
102
RTVSPropertyOp21
 70
     1
102
RTVSPropertyOp22
 70
     1
102
RTVSPropertyOp23
 70
     1
102
RTVSPropertyOp24
 70
     1
102
RTVSPropertyOp25
 70
     1
102
RTVSPropertyOp26
 70
     1
102
RTVSPropertyOp27
 70
     1
102
RTVSPropertyOp28
 70
     1
102
RTVSPropertyOp29
 70
     1
102
RTVSPropertyOp30
 70
     1
102
RTVSPropertyOp31
 70
     1
102
RTVSPropertyOp32
 70
     1
  0
XRECORD
  5
3FC56
102
{ACAD_REACTORS
330
3FC55
102
}
330
3FC55
100
AcDbXrecord
280
     1
102
RTVSPropertyOp0
 70
     1
102
RTVSPropertyOp1
 70
     1
102
RTVSPropertyOp2
 70
     1
102
RTVSPropertyOp3
 70
     1
102
RTVSPropertyOp4
 70
     1
102
RTVSPropertyOp5
 70
     1
102
RTVSPropertyOp6
 70
     1
102
RTVSPropertyOp7
 70
     1
102
RTVSPropertyOp8
 70
     1
102
RTVSPropertyOp9
 70
     1
102
RTVSPropertyOp10
 70
     1
102
RTVSPropertyOp11
 70
     1
102
RTVSPropertyOp12
 70
     1
102
RTVSPropertyOp13
 70
     1
102
RTVSPropertyOp14
 70
     1
102
RTVSPropertyOp15
 70
     1
102
RTVSPropertyOp16
 70
     1
102
RTVSPropertyOp17
 70
     1
102
RTVSPropertyOp18
 70
     1
102
RTVSPropertyOp19
 70
     1
102
RTVSPropertyOp20
 70
     1
102
RTVSPropertyOp21
 70
     1
102
RTVSPropertyOp22
 70
     1
102
RTVSPropertyOp23
 70
     1
102
RTVSPropertyOp24
 70
     1
102
RTVSPropertyOp25
 70
     1
102
RTVSPropertyOp26
 70
     1
102
RTVSPropertyOp27
 70
     1
102
RTVSPropertyOp28
 70
     1
102
RTVSPropertyOp29
 70
     1
102
RTVSPropertyOp30
 70
     1
102
RTVSPropertyOp31
 70
     1
102
RTVSPropertyOp32
 70
     1
  0
XRECORD
  5
3FC58
102
{ACAD_REACTORS
330
3FC57
102
}
330
3FC57
100
AcDbXrecord
280
     1
102
RTVSPropertyOp0
 70
     1
102
RTVSPropertyOp1
 70
     1
102
RTVSPropertyOp2
 70
     1
102
RTVSPropertyOp3
 70
     1
102
RTVSPropertyOp4
 70
     1
102
RTVSPropertyOp5
 70
     1
102
RTVSPropertyOp6
 70
     1
102
RTVSPropertyOp7
 70
     1
102
RTVSPropertyOp8
 70
     1
102
RTVSPropertyOp9
 70
     1
102
RTVSPropertyOp10
 70
     1
102
RTVSPropertyOp11
 70
     1
102
RTVSPropertyOp12
 70
     1
102
RTVSPropertyOp13
 70
     1
102
RTVSPropertyOp14
 70
     1
102
RTVSPropertyOp15
 70
     1
102
RTVSPropertyOp16
 70
     1
102
RTVSPropertyOp17
 70
     1
102
RTVSPropertyOp18
 70
     1
102
RTVSPropertyOp19
 70
     1
102
RTVSPropertyOp20
 70
     1
102
RTVSPropertyOp21
 70
     1
102
RTVSPropertyOp22
 70
     1
102
RTVSPropertyOp23
 70
     1
102
RTVSPropertyOp24
 70
     1
102
RTVSPropertyOp25
 70
     1
102
RTVSPropertyOp26
 70
     1
102
RTVSPropertyOp27
 70
     1
102
RTVSPropertyOp28
 70
     1
102
RTVSPropertyOp29
 70
     1
102
RTVSPropertyOp30
 70
     1
102
RTVSPropertyOp31
 70
     1
102
RTVSPropertyOp32
 70
     1
  0
XRECORD
  5
3FC5A
102
{ACAD_REACTORS
330
3FC59
102
}
330
3FC59
100
AcDbXrecord
280
     1
102
RTVSPropertyOp0
 70
     1
102
RTVSPropertyOp1
 70
     1
102
RTVSPropertyOp2
 70
     1
102
RTVSPropertyOp3
 70
     1
102
RTVSPropertyOp4
 70
     1
102
RTVSPropertyOp5
 70
     1
102
RTVSPropertyOp6
 70
     1
102
RTVSPropertyOp7
 70
     1
102
RTVSPropertyOp8
 70
     1
102
RTVSPropertyOp9
 70
     1
102
RTVSPropertyOp10
 70
     1
102
RTVSPropertyOp11
 70
     1
102
RTVSPropertyOp12
 70
     1
102
RTVSPropertyOp13
 70
     1
102
RTVSPropertyOp14
 70
     1
102
RTVSPropertyOp15
 70
     1
102
RTVSPropertyOp16
 70
     1
102
RTVSPropertyOp17
 70
     1
102
RTVSPropertyOp18
 70
     1
102
RTVSPropertyOp19
 70
     1
102
RTVSPropertyOp20
 70
     1
102
RTVSPropertyOp21
 70
     1
102
RTVSPropertyOp22
 70
     1
102
RTVSPropertyOp23
 70
     1
102
RTVSPropertyOp24
 70
     1
102
RTVSPropertyOp25
 70
     1
102
RTVSPropertyOp26
 70
     1
102
RTVSPropertyOp27
 70
     1
102
RTVSPropertyOp28
 70
     1
102
RTVSPropertyOp29
 70
     1
102
RTVSPropertyOp30
 70
     1
102
RTVSPropertyOp31
 70
     1
102
RTVSPropertyOp32
 70
     1
  0
XRECORD
  5
3FC5C
102
{ACAD_REACTORS
330
3FC5B
102
}
330
3FC5B
100
AcDbXrecord
280
     1
102
RTVSPropertyOp0
 70
     1
102
RTVSPropertyOp1
 70
     1
102
RTVSPropertyOp2
 70
     1
102
RTVSPropertyOp3
 70
     1
102
RTVSPropertyOp4
 70
     1
102
RTVSPropertyOp5
 70
     1
102
RTVSPropertyOp6
 70
     1
102
RTVSPropertyOp7
 70
     1
102
RTVSPropertyOp8
 70
     1
102
RTVSPropertyOp9
 70
     1
102
RTVSPropertyOp10
 70
     1
102
RTVSPropertyOp11
 70
     1
102
RTVSPropertyOp12
 70
     1
102
RTVSPropertyOp13
 70
     1
102
RTVSPropertyOp14
 70
     1
102
RTVSPropertyOp15
 70
     1
102
RTVSPropertyOp16
 70
     1
102
RTVSPropertyOp17
 70
     1
102
RTVSPropertyOp18
 70
     1
102
RTVSPropertyOp19
 70
     1
102
RTVSPropertyOp20
 70
     1
102
RTVSPropertyOp21
 70
     1
102
RTVSPropertyOp22
 70
     1
102
RTVSPropertyOp23
 70
     1
102
RTVSPropertyOp24
 70
     1
102
RTVSPropertyOp25
 70
     1
102
RTVSPropertyOp26
 70
     1
102
RTVSPropertyOp27
 70
     1
102
RTVSPropertyOp28
 70
     1
102
RTVSPropertyOp29
 70
     1
102
RTVSPropertyOp30
 70
     1
102
RTVSPropertyOp31
 70
     1
102
RTVSPropertyOp32
 70
     1
  0
XRECORD
  5
3FC7C
102
{ACAD_REACTORS
330
3FC7B
102
}
330
3FC7B
100
AcDbXrecord
280
     1
102
RTVSPropertyOp0
 70
     1
102
RTVSPropertyOp1
 70
     1
102
RTVSPropertyOp2
 70
     1
102
RTVSPropertyOp3
 70
     1
102
RTVSPropertyOp4
 70
     1
102
RTVSPropertyOp5
 70
     1
102
RTVSPropertyOp6
 70
     1
102
RTVSPropertyOp7
 70
     1
102
RTVSPropertyOp8
 70
     1
102
RTVSPropertyOp9
 70
     1
102
RTVSPropertyOp10
 70
     1
102
RTVSPropertyOp11
 70
     1
102
RTVSPropertyOp12
 70
     1
102
RTVSPropertyOp13
 70
     1
102
RTVSPropertyOp14
 70
     1
102
RTVSPropertyOp15
 70
     1
102
RTVSPropertyOp16
 70
     1
102
RTVSPropertyOp17
 70
     1
102
RTVSPropertyOp18
 70
     1
102
RTVSPropertyOp19
 70
     1
102
RTVSPropertyOp20
 70
     1
102
RTVSPropertyOp21
 70
     1
102
RTVSPropertyOp22
 70
     1
102
RTVSPropertyOp23
 70
     1
102
RTVSPropertyOp24
 70
     1
102
RTVSPropertyOp25
 70
     1
102
RTVSPropertyOp26
 70
     1
102
RTVSPropertyOp27
 70
     1
102
RTVSPropertyOp28
 70
     1
102
RTVSPropertyOp29
 70
     1
102
RTVSPropertyOp30
 70
     1
102
RTVSPropertyOp31
 70
     1
102
RTVSPropertyOp32
 70
     1
  0
XRECORD
  5
3FC8A
102
{ACAD_REACTORS
330
3FC89
102
}
330
3FC89
100
AcDbXrecord
280
     1
102
RTVSPropertyOp0
 70
     0
102
RTVSPropertyOp1
 70
     0
102
RTVSPropertyOp2
 70
     0
102
RTVSPropertyOp3
 70
     0
102
RTVSPropertyOp4
 70
     0
102
RTVSPropertyOp5
 70
     0
102
RTVSPropertyOp6
 70
     0
102
RTVSPropertyOp7
 70
     0
102
RTVSPropertyOp8
 70
     0
102
RTVSPropertyOp9
 70
     0
102
RTVSPropertyOp10
 70
     0
102
RTVSPropertyOp11
 70
     0
102
RTVSPropertyOp12
 70
     0
102
RTVSPropertyOp13
 70
     0
102
RTVSPropertyOp14
 70
     2
102
RTVSPropertyOp15
 70
     0
102
RTVSPropertyOp16
 70
     0
102
RTVSPropertyOp17
 70
     0
102
RTVSPropertyOp18
 70
     0
102
RTVSPropertyOp19
 70
     0
102
RTVSPropertyOp20
 70
     0
102
RTVSPropertyOp21
 70
     0
102
RTVSPropertyOp22
 70
     0
102
RTVSPropertyOp23
 70
     0
102
RTVSPropertyOp24
 70
     0
102
RTVSPropertyOp25
 70
     0
102
RTVSPropertyOp26
 70
     0
102
RTVSPropertyOp27
 70
     0
102
RTVSPropertyOp28
 70
     1
102
RTVSPropertyOp29
 70
     1
102
RTVSPropertyOp30
 70
     1
102
RTVSPropertyOp31
 70
     1
102
RTVSPropertyOp32
 70
     1
  0
XRECORD
  5
3FC68
102
{ACAD_REACTORS
330
3FC67
102
}
330
3FC67
100
AcDbXrecord
280
     1
102
RTVSPropertyOp0
 70
     1
102
RTVSPropertyOp1
 70
     1
102
RTVSPropertyOp2
 70
     1
102
RTVSPropertyOp3
 70
     1
102
RTVSPropertyOp4
 70
     1
102
RTVSPropertyOp5
 70
     1
102
RTVSPropertyOp6
 70
     1
102
RTVSPropertyOp7
 70
     1
102
RTVSPropertyOp8
 70
     1
102
RTVSPropertyOp9
 70
     1
102
RTVSPropertyOp10
 70
     1
102
RTVSPropertyOp11
 70
     1
102
RTVSPropertyOp12
 70
     1
102
RTVSPropertyOp13
 70
     1
102
RTVSPropertyOp14
 70
     1
102
RTVSPropertyOp15
 70
     1
102
RTVSPropertyOp16
 70
     1
102
RTVSPropertyOp17
 70
     1
102
RTVSPropertyOp18
 70
     1
102
RTVSPropertyOp19
 70
     1
102
RTVSPropertyOp20
 70
     1
102
RTVSPropertyOp21
 70
     1
102
RTVSPropertyOp22
 70
     1
102
RTVSPropertyOp23
 70
     1
102
RTVSPropertyOp24
 70
     1
102
RTVSPropertyOp25
 70
     1
102
RTVSPropertyOp26
 70
     1
102
RTVSPropertyOp27
 70
     1
102
RTVSPropertyOp28
 70
     1
102
RTVSPropertyOp29
 70
     1
102
RTVSPropertyOp30
 70
     1
102
RTVSPropertyOp31
 70
     1
102
RTVSPropertyOp32
 70
     1
  0
XRECORD
  5
3FC8C
102
{ACAD_REACTORS
330
3FC8B
102
}
330
3FC8B
100
AcDbXrecord
280
     1
102
RTVSPropertyOp0
 70
     0
102
RTVSPropertyOp1
 70
     0
102
RTVSPropertyOp2
 70
     0
102
RTVSPropertyOp3
 70
     0
102
RTVSPropertyOp4
 70
     0
102
RTVSPropertyOp5
 70
     0
102
RTVSPropertyOp6
 70
     0
102
RTVSPropertyOp7
 70
     0
102
RTVSPropertyOp8
 70
     0
102
RTVSPropertyOp9
 70
     0
102
RTVSPropertyOp10
 70
     0
102
RTVSPropertyOp11
 70
     0
102
RTVSPropertyOp12
 70
     0
102
RTVSPropertyOp13
 70
     0
102
RTVSPropertyOp14
 70
     2
102
RTVSPropertyOp15
 70
     0
102
RTVSPropertyOp16
 70
     0
102
RTVSPropertyOp17
 70
     0
102
RTVSPropertyOp18
 70
     0
102
RTVSPropertyOp19
 70
     0
102
RTVSPropertyOp20
 70
     0
102
RTVSPropertyOp21
 70
     0
102
RTVSPropertyOp22
 70
     0
102
RTVSPropertyOp23
 70
     0
102
RTVSPropertyOp24
 70
     0
102
RTVSPropertyOp25
 70
     0
102
RTVSPropertyOp26
 70
     0
102
RTVSPropertyOp27
 70
     0
102
RTVSPropertyOp28
 70
     1
102
RTVSPropertyOp29
 70
     1
102
RTVSPropertyOp30
 70
     1
102
RTVSPropertyOp31
 70
     1
102
RTVSPropertyOp32
 70
     1
  0
XRECORD
  5
3FC76
102
{ACAD_REACTORS
330
3FC75
102
}
330
3FC75
100
AcDbXrecord
280
     1
102
RTVSPropertyOp0
 70
     1
102
RTVSPropertyOp1
 70
     1
102
RTVSPropertyOp2
 70
     1
102
RTVSPropertyOp3
 70
     1
102
RTVSPropertyOp4
 70
     1
102
RTVSPropertyOp5
 70
     1
102
RTVSPropertyOp6
 70
     1
102
RTVSPropertyOp7
 70
     1
102
RTVSPropertyOp8
 70
     1
102
RTVSPropertyOp9
 70
     1
102
RTVSPropertyOp10
 70
     1
102
RTVSPropertyOp11
 70
     1
102
RTVSPropertyOp12
 70
     1
102
RTVSPropertyOp13
 70
     1
102
RTVSPropertyOp14
 70
     1
102
RTVSPropertyOp15
 70
     1
102
RTVSPropertyOp16
 70
     1
102
RTVSPropertyOp17
 70
     1
102
RTVSPropertyOp18
 70
     1
102
RTVSPropertyOp19
 70
     1
102
RTVSPropertyOp20
 70
     1
102
RTVSPropertyOp21
 70
     1
102
RTVSPropertyOp22
 70
     1
102
RTVSPropertyOp23
 70
     1
102
RTVSPropertyOp24
 70
     1
102
RTVSPropertyOp25
 70
     1
102
RTVSPropertyOp26
 70
     1
102
RTVSPropertyOp27
 70
     1
102
RTVSPropertyOp28
 70
     1
102
RTVSPropertyOp29
 70
     1
102
RTVSPropertyOp30
 70
     1
102
RTVSPropertyOp31
 70
     1
102
RTVSPropertyOp32
 70
     1
  0
XRECORD
  5
3FC88
102
{ACAD_REACTORS
330
3FC87
102
}
330
3FC87
100
AcDbXrecord
280
     1
102
RTVSPropertyOp0
 70
     1
102
RTVSPropertyOp1
 70
     1
102
RTVSPropertyOp2
 70
     1
102
RTVSPropertyOp3
 70
     1
102
RTVSPropertyOp4
 70
     1
102
RTVSPropertyOp5
 70
     1
102
RTVSPropertyOp6
 70
     1
102
RTVSPropertyOp7
 70
     1
102
RTVSPropertyOp8
 70
     1
102
RTVSPropertyOp9
 70
     1
102
RTVSPropertyOp10
 70
     1
102
RTVSPropertyOp11
 70
     1
102
RTVSPropertyOp12
 70
     1
102
RTVSPropertyOp13
 70
     1
102
RTVSPropertyOp14
 70
     1
102
RTVSPropertyOp15
 70
     1
102
RTVSPropertyOp16
 70
     1
102
RTVSPropertyOp17
 70
     1
102
RTVSPropertyOp18
 70
     1
102
RTVSPropertyOp19
 70
     1
102
RTVSPropertyOp20
 70
     1
102
RTVSPropertyOp21
 70
     1
102
RTVSPropertyOp22
 70
     1
102
RTVSPropertyOp23
 70
     1
102
RTVSPropertyOp24
 70
     1
102
RTVSPropertyOp25
 70
     1
102
RTVSPropertyOp26
 70
     1
102
RTVSPropertyOp27
 70
     1
102
RTVSPropertyOp28
 70
     1
102
RTVSPropertyOp29
 70
     1
102
RTVSPropertyOp30
 70
     1
102
RTVSPropertyOp31
 70
     1
102
RTVSPropertyOp32
 70
     1
  0
XRECORD
  5
3FC86
102
{ACAD_REACTORS
330
3FC85
102
}
330
3FC85
100
AcDbXrecord
280
     1
102
RTVSPropertyOp0
 70
     1
102
RTVSPropertyOp1
 70
     1
102
RTVSPropertyOp2
 70
     1
102
RTVSPropertyOp3
 70
     1
102
RTVSPropertyOp4
 70
     1
102
RTVSPropertyOp5
 70
     1
102
RTVSPropertyOp6
 70
     1
102
RTVSPropertyOp7
 70
     1
102
RTVSPropertyOp8
 70
     1
102
RTVSPropertyOp9
 70
     1
102
RTVSPropertyOp10
 70
     1
102
RTVSPropertyOp11
 70
     1
102
RTVSPropertyOp12
 70
     1
102
RTVSPropertyOp13
 70
     1
102
RTVSPropertyOp14
 70
     1
102
RTVSPropertyOp15
 70
     1
102
RTVSPropertyOp16
 70
     1
102
RTVSPropertyOp17
 70
     1
102
RTVSPropertyOp18
 70
     1
102
RTVSPropertyOp19
 70
     1
102
RTVSPropertyOp20
 70
     1
102
RTVSPropertyOp21
 70
     1
102
RTVSPropertyOp22
 70
     1
102
RTVSPropertyOp23
 70
     1
102
RTVSPropertyOp24
 70
     1
102
RTVSPropertyOp25
 70
     1
102
RTVSPropertyOp26
 70
     1
102
RTVSPropertyOp27
 70
     1
102
RTVSPropertyOp28
 70
     1
102
RTVSPropertyOp29
 70
     1
102
RTVSPropertyOp30
 70
     1
102
RTVSPropertyOp31
 70
     1
102
RTVSPropertyOp32
 70
     1
  0
XRECORD
  5
3FC80
102
{ACAD_REACTORS
330
3FC7F
102
}
330
3FC7F
100
AcDbXrecord
280
     1
102
RTVSPropertyOp0
 70
     1
102
RTVSPropertyOp1
 70
     1
102
RTVSPropertyOp2
 70
     1
102
RTVSPropertyOp3
 70
     1
102
RTVSPropertyOp4
 70
     1
102
RTVSPropertyOp5
 70
     1
102
RTVSPropertyOp6
 70
     1
102
RTVSPropertyOp7
 70
     1
102
RTVSPropertyOp8
 70
     1
102
RTVSPropertyOp9
 70
     1
102
RTVSPropertyOp10
 70
     1
102
RTVSPropertyOp11
 70
     1
102
RTVSPropertyOp12
 70
     1
102
RTVSPropertyOp13
 70
     1
102
RTVSPropertyOp14
 70
     1
102
RTVSPropertyOp15
 70
     1
102
RTVSPropertyOp16
 70
     1
102
RTVSPropertyOp17
 70
     1
102
RTVSPropertyOp18
 70
     1
102
RTVSPropertyOp19
 70
     1
102
RTVSPropertyOp20
 70
     1
102
RTVSPropertyOp21
 70
     1
102
RTVSPropertyOp22
 70
     1
102
RTVSPropertyOp23
 70
     1
102
RTVSPropertyOp24
 70
     1
102
RTVSPropertyOp25
 70
     1
102
RTVSPropertyOp26
 70
     1
102
RTVSPropertyOp27
 70
     1
102
RTVSPropertyOp28
 70
     1
102
RTVSPropertyOp29
 70
     1
102
RTVSPropertyOp30
 70
     1
102
RTVSPropertyOp31
 70
     1
102
RTVSPropertyOp32
 70
     1
  0
XRECORD
  5
3FC82
102
{ACAD_REACTORS
330
3FC81
102
}
330
3FC81
100
AcDbXrecord
280
     1
102
RTVSPropertyOp0
 70
     1
102
RTVSPropertyOp1
 70
     1
102
RTVSPropertyOp2
 70
     1
102
RTVSPropertyOp3
 70
     1
102
RTVSPropertyOp4
 70
     1
102
RTVSPropertyOp5
 70
     1
102
RTVSPropertyOp6
 70
     1
102
RTVSPropertyOp7
 70
     1
102
RTVSPropertyOp8
 70
     1
102
RTVSPropertyOp9
 70
     1
102
RTVSPropertyOp10
 70
     1
102
RTVSPropertyOp11
 70
     1
102
RTVSPropertyOp12
 70
     1
102
RTVSPropertyOp13
 70
     1
102
RTVSPropertyOp14
 70
     1
102
RTVSPropertyOp15
 70
     1
102
RTVSPropertyOp16
 70
     1
102
RTVSPropertyOp17
 70
     1
102
RTVSPropertyOp18
 70
     1
102
RTVSPropertyOp19
 70
     1
102
RTVSPropertyOp20
 70
     1
102
RTVSPropertyOp21
 70
     1
102
RTVSPropertyOp22
 70
     1
102
RTVSPropertyOp23
 70
     1
102
RTVSPropertyOp24
 70
     1
102
RTVSPropertyOp25
 70
     1
102
RTVSPropertyOp26
 70
     1
102
RTVSPropertyOp27
 70
     1
102
RTVSPropertyOp28
 70
     1
102
RTVSPropertyOp29
 70
     1
102
RTVSPropertyOp30
 70
     1
102
RTVSPropertyOp31
 70
     1
102
RTVSPropertyOp32
 70
     1
  0
XRECORD
  5
3FC66
102
{ACAD_REACTORS
330
3FC65
102
}
330
3FC65
100
AcDbXrecord
280
     1
102
RTVSPropertyOp0
 70
     1
102
RTVSPropertyOp1
 70
     1
102
RTVSPropertyOp2
 70
     1
102
RTVSPropertyOp3
 70
     1
102
RTVSPropertyOp4
 70
     1
102
RTVSPropertyOp5
 70
     1
102
RTVSPropertyOp6
 70
     1
102
RTVSPropertyOp7
 70
     1
102
RTVSPropertyOp8
 70
     1
102
RTVSPropertyOp9
 70
     1
102
RTVSPropertyOp10
 70
     1
102
RTVSPropertyOp11
 70
     1
102
RTVSPropertyOp12
 70
     1
102
RTVSPropertyOp13
 70
     1
102
RTVSPropertyOp14
 70
     1
102
RTVSPropertyOp15
 70
     1
102
RTVSPropertyOp16
 70
     1
102
RTVSPropertyOp17
 70
     1
102
RTVSPropertyOp18
 70
     1
102
RTVSPropertyOp19
 70
     1
102
RTVSPropertyOp20
 70
     1
102
RTVSPropertyOp21
 70
     1
102
RTVSPropertyOp22
 70
     1
102
RTVSPropertyOp23
 70
     1
102
RTVSPropertyOp24
 70
     1
102
RTVSPropertyOp25
 70
     1
102
RTVSPropertyOp26
 70
     1
102
RTVSPropertyOp27
 70
     1
102
RTVSPropertyOp28
 70
     1
102
RTVSPropertyOp29
 70
     1
102
RTVSPropertyOp30
 70
     1
102
RTVSPropertyOp31
 70
     1
102
RTVSPropertyOp32
 70
     1
  0
XRECORD
  5
3FC7A
102
{ACAD_REACTORS
330
3FC79
102
}
330
3FC79
100
AcDbXrecord
280
     1
102
RTVSPropertyOp0
 70
     1
102
RTVSPropertyOp1
 70
     1
102
RTVSPropertyOp2
 70
     1
102
RTVSPropertyOp3
 70
     1
102
RTVSPropertyOp4
 70
     1
102
RTVSPropertyOp5
 70
     1
102
RTVSPropertyOp6
 70
     1
102
RTVSPropertyOp7
 70
     1
102
RTVSPropertyOp8
 70
     1
102
RTVSPropertyOp9
 70
     1
102
RTVSPropertyOp10
 70
     1
102
RTVSPropertyOp11
 70
     1
102
RTVSPropertyOp12
 70
     1
102
RTVSPropertyOp13
 70
     1
102
RTVSPropertyOp14
 70
     1
102
RTVSPropertyOp15
 70
     1
102
RTVSPropertyOp16
 70
     1
102
RTVSPropertyOp17
 70
     1
102
RTVSPropertyOp18
 70
     1
102
RTVSPropertyOp19
 70
     1
102
RTVSPropertyOp20
 70
     1
102
RTVSPropertyOp21
 70
     1
102
RTVSPropertyOp22
 70
     1
102
RTVSPropertyOp23
 70
     1
102
RTVSPropertyOp24
 70
     1
102
RTVSPropertyOp25
 70
     1
102
RTVSPropertyOp26
 70
     1
102
RTVSPropertyOp27
 70
     1
102
RTVSPropertyOp28
 70
     1
102
RTVSPropertyOp29
 70
     1
102
RTVSPropertyOp30
 70
     1
102
RTVSPropertyOp31
 70
     1
102
RTVSPropertyOp32
 70
     1
  0
XRECORD
  5
3FC84
102
{ACAD_REACTORS
330
3FC83
102
}
330
3FC83
100
AcDbXrecord
280
     1
102
RTVSPropertyOp0
 70
     1
102
RTVSPropertyOp1
 70
     1
102
RTVSPropertyOp2
 70
     1
102
RTVSPropertyOp3
 70
     1
102
RTVSPropertyOp4
 70
     1
102
RTVSPropertyOp5
 70
     1
102
RTVSPropertyOp6
 70
     1
102
RTVSPropertyOp7
 70
     1
102
RTVSPropertyOp8
 70
     1
102
RTVSPropertyOp9
 70
     1
102
RTVSPropertyOp10
 70
     1
102
RTVSPropertyOp11
 70
     1
102
RTVSPropertyOp12
 70
     1
102
RTVSPropertyOp13
 70
     1
102
RTVSPropertyOp14
 70
     1
102
RTVSPropertyOp15
 70
     1
102
RTVSPropertyOp16
 70
     1
102
RTVSPropertyOp17
 70
     1
102
RTVSPropertyOp18
 70
     1
102
RTVSPropertyOp19
 70
     1
102
RTVSPropertyOp20
 70
     1
102
RTVSPropertyOp21
 70
     1
102
RTVSPropertyOp22
 70
     1
102
RTVSPropertyOp23
 70
     1
102
RTVSPropertyOp24
 70
     1
102
RTVSPropertyOp25
 70
     1
102
RTVSPropertyOp26
 70
     1
102
RTVSPropertyOp27
 70
     1
102
RTVSPropertyOp28
 70
     1
102
RTVSPropertyOp29
 70
     1
102
RTVSPropertyOp30
 70
     1
102
RTVSPropertyOp31
 70
     1
102
RTVSPropertyOp32
 70
     1
  0
ENDSEC
  0
EOF
