  0
SECTION
  2
HEADER
  9
$ACADVER
  1
AC1009
  9
$INSBASE
 10
0.0
 20
0.0
 30
0.0
  9
$EXTMIN
 10
-12892.17845951136
 20
6927.8575281131953
 30
0.0
  9
$EXTMAX
 10
-12888.40026991991
 20
6933.90899374132
 30
0.0
  9
$LIMMIN
 10
0.0
 20
0.0
  9
$LIMMAX
 10
12.0
 20
9.0
  9
$ORTHOMODE
 70
     1
  9
$REGENMODE
 70
     1
  9
$FILLMODE
 70
     1
  9
$QTEXTMODE
 70
     0
  9
$MIRRTEXT
 70
     0
  9
$DRAGMODE
 70
     2
  9
$LTSCALE
 40
0.5
  9
$OSMODE
 70
    47
  9
$ATTMODE
 70
     1
  9
$TEXTSIZE
 40
0.09375
  9
$TRACEWID
 40
6.0
  9
$TEXTSTYLE
  7
STD
  9
$CLAYER
  8
0
  9
$CELTYPE
  6
BYLAYER
  9
$CECOLOR
 62
   256
  9
$DIMSCALE
 40
2.0
  9
$DIMASZ
 40
0.125
  9
$DIMEXO
 40
0.07
  9
$DIMDLI
 40
0.6
  9
$DIMRND
 40
0.0
  9
$DIMDLE
 40
0.0
  9
$DIMEXE
 40
0.14
  9
$DIMTP
 40
0.0
  9
$DIMTM
 40
0.0
  9
$DIMTXT
 40
0.09375
  9
$DIMCEN
 40
0.0
  9
$DIMTSZ
 40
0.0
  9
$DIMTOL
 70
     0
  9
$DIMLIM
 70
     0
  9
$DIMTIH
 70
     1
  9
$DIMTOH
 70
     1
  9
$DIMSE1
 70
     0
  9
$DIMSE2
 70
     0
  9
$DIMTAD
 70
     0
  9
$DIMZIN
 70
     3
  9
$DIMBLK
  1

  9
$DIMASO
 70
     1
  9
$DIMSHO
 70
     1
  9
$DIMPOST
  1

  9
$DIMAPOST
  1
"
  9
$DIMALT
 70
     0
  9
$DIMALTD
 70
     3
  9
$DIMALTF
 40
1.0
  9
$DIMLFAC
 40
1.0
  9
$DIMTOFL
 70
     0
  9
$DIMTVP
 40
0.0
  9
$DIMTIX
 70
     0
  9
$DIMSOXD
 70
     0
  9
$DIMSAH
 70
     0
  9
$DIMBLK1
  1

  9
$DIMBLK2
  1

  9
$DIMSTYLE
  2
A-DIM2
  9
$DIMCLRD
 70
     2
  9
$DIMCLRE
 70
     3
  9
$DIMCLRT
 70
   256
  9
$DIMTFAC
 40
1.0
  9
$DIMGAP
 40
0.09
  9
$LUNITS
 70
     5
  9
$LUPREC
 70
     6
  9
$SKETCHINC
 40
0.1
  9
$FILLETRAD
 40
0.0
  9
$AUNITS
 70
     0
  9
$AUPREC
 70
     2
  9
$MENU
  1
ALLEGM
  9
$ELEVATION
 40
0.0
  9
$PELEVATION
 40
0.0
  9
$THICKNESS
 40
0.0
  9
$LIMCHECK
 70
     0
  9
$BLIPMODE
 70
     0
  9
$CHAMFERA
 40
0.0
  9
$CHAMFERB
 40
0.0
  9
$SKPOLY
 70
     0
  9
$TDCREATE
 40
2449274.525460185
  9
$TDUPDATE
 40
2453251.4647993869
  9
$TDINDWG
 40
5.3834719096999999
  9
$TDUSRTIMER
 40
5.3834719096999999
  9
$USRTIMER
 70
     1
  9
$ANGBASE
 50
0.0
  9
$ANGDIR
 70
     0
  9
$PDMODE
 70
     3
  9
$PDSIZE
 40
0.0
  9
$PLINEWID
 40
0.0
  9
$COORDS
 70
     0
  9
$SPLFRAME
 70
     0
  9
$SPLINETYPE
 70
     6
  9
$SPLINESEGS
 70
     8
  9
$ATTDIA
 70
     0
  9
$ATTREQ
 70
     1
  9
$HANDLING
 70
     1
  9
$HANDSEED
  5
4462
  9
$SURFTAB1
 70
     6
  9
$SURFTAB2
 70
     6
  9
$SURFTYPE
 70
     6
  9
$SURFU
 70
     6
  9
$SURFV
 70
     6
  9
$UCSNAME
  2

  9
$UCSORG
 10
0.0
 20
0.0
 30
0.0
  9
$UCSXDIR
 10
1.0
 20
0.0
 30
0.0
  9
$UCSYDIR
 10
0.0
 20
1.0
 30
0.0
  9
$PUCSNAME
  2

  9
$PUCSORG
 10
0.0
 20
0.0
 30
0.0
  9
$PUCSXDIR
 10
1.0
 20
0.0
 30
0.0
  9
$PUCSYDIR
 10
0.0
 20
1.0
 30
0.0
  9
$USERI1
 70
     0
  9
$USERI2
 70
     0
  9
$USERI3
 70
     0
  9
$USERI4
 70
     0
  9
$USERI5
 70
     0
  9
$USERR1
 40
0.0
  9
$USERR2
 40
0.0
  9
$USERR3
 40
0.0
  9
$USERR4
 40
0.0
  9
$USERR5
 40
0.0
  9
$WORLDVIEW
 70
     1
  9
$SHADEDGE
 70
     3
  9
$SHADEDIF
 70
    70
  9
$TILEMODE
 70
     1
  9
$MAXACTVP
 70
    16
  9
$PLIMCHECK
 70
     0
  9
$PEXTMIN
 10
0.0
 20
0.0
 30
0.0
  9
$PEXTMAX
 10
16.329999999999998
 20
10.33
 30
0.0
  9
$PLIMMIN
 10
-0.1979161268664174
 20
-0.1979166679674075
  9
$PLIMMAX
 10
16.8020833925418
 20
10.8020830917367
  9
$UNITMODE
 70
     0
  9
$VISRETAIN
 70
     1
  9
$PLINEGEN
 70
     0
  9
$PSLTSCALE
 70
     1
  0
ENDSEC
  0
SECTION
  2
TABLES
  0
TABLE
  2
VPORT
 70
     7
  0
VPORT
  2
*ACTIVE
 70
     0
 10
0.0
 20
0.0
 11
1.0
 21
1.0
 12
-12890.289364715631
 22
6930.8832609272586
 13
0.0
 23
0.0
 14
1.0
 24
1.0
 15
0.0
 25
0.0
 16
0.0
 26
0.0
 36
1.0
 17
0.0
 27
0.0
 37
0.0
 40
6.7707068003427491
 41
1.834883720930232
 42
50.0
 43
0.0
 44
0.0
 50
0.0
 51
0.0
 71
     0
 72
   100
 73
     1
 74
     1
 75
     0
 76
     0
 77
     0
 78
     0
  0
ENDTAB
  0
TABLE
  2
LTYPE
 70
     2
  0
LTYPE
  2
CONTINUOUS
 70
     0
  3
Solid line
 72
    65
 73
     0
 40
0.0
  0
ENDTAB
  0
TABLE
  2
LAYER
 70
    11
  0
LAYER
  2
0
 70
     0
 62
     7
  6
CONTINUOUS
  0
LAYER
  2
1-ALPRO
 70
     0
 62
     7
  6
CONTINUOUS
  0
LAYER
  2
1-CR
 70
     0
 62
     7
  6
CONTINUOUS
  0
ENDTAB
  0
TABLE
  2
STYLE
 70
     5
  0
STYLE
  2
STANDARD
 70
     0
 40
0.0
 41
1.0
 50
0.0
 71
     0
 42
0.125
  3
txt
  4

  0
STYLE
  2
STD
 70
     0
 40
0.0
 41
1.0
 50
0.0
 71
     0
 42
0.09375
  3
txt
  4

  0
ENDTAB
  0
TABLE
  2
VIEW
 70
    12
  0
ENDTAB
  0
TABLE
  2
UCS
 70
     0
  0
ENDTAB
  0
TABLE
  2
APPID
 70
     5
  0
APPID
  2
ACAD
 70
     0
  0
APPID
  2
ABNSLEADERTOOLS
 70
     0
  0
APPID
  2
DCO15
 70
     0
  0
APPID
  2
RAK
 70
     0
  0
APPID
  2
ACAD_PSEXT
 70
     0
  0
ENDTAB
  0
TABLE
  2
DIMSTYLE
 70
    26
  0
DIMSTYLE
  2
A-DIM2
 70
     0
  3

  4
"
  5

  6

  7

 40
2.0
 41
0.125
 42
0.07
 43
0.6
 44
0.14
 45
0.0
 46
0.0
 47
0.0
 48
0.0
140
0.09375
141
0.0
142
0.0
143
1.0
144
1.0
145
0.0
146
1.0
147
0.09
 71
     0
 72
     0
 73
     1
 74
     1
 75
     0
 76
     0
 77
     0
 78
     3
170
     0
171
     3
172
     0
173
     0
174
     0
175
     0
176
     2
177
     3
178
   256
  0
ENDTAB
  0
ENDSEC
  0
SECTION
  2
BLOCKS
  0
BLOCK
  8
0
  2
$MODEL_SPACE
 70
     0
 10
0.0
 20
0.0
 30
0.0
  3
$MODEL_SPACE
  1

  0
ENDBLK
  5
A
  8
0
  0
BLOCK
 67
     1
  8
0
  2
$PAPER_SPACE
 70
     0
 10
0.0
 20
0.0
 30
0.0
  3
$PAPER_SPACE
  1

  0
ENDBLK
  5
F
 67
     1
  8
0
  0
BLOCK
  8
0
  2
*U13
 70
     1
 10
0.0
 20
0.0
 30
0.0
  3
*U13
  1

  0
TEXT
  5
414B
  8
1-CR
 62
     3
 10
0.1169197453999864
 20
2.9047521200295141
 30
0.0
 40
0.09375
  1
  3. STANDARD TOLERANCES:
  7
STD
  0
TEXT
  5
414C
  8
1-CR
 62
     3
 10
0.1169197453999864
 20
2.7469033819667592
 30
0.0
 40
0.09375
  1
       CNC:  ±0.015"
  7
STD
  0
TEXT
  5
414D
  8
1-CR
 62
     3
 10
0.1169197453999864
 20
2.5890546439040021
 30
0.0
 40
0.09375
  1
       CUT:  +0" -1/64"
  7
STD
  0
TEXT
  5
414E
  8
1-CR
 62
     3
 10
0.1169197453999864
 20
2.4312059058412472
 30
0.0
 40
0.09375
  1
       RADII:  ±1/8"
  7
STD
  0
TEXT
  5
414F
  8
1-CR
 62
     3
 10
0.1169197453999864
 20
2.273357167778491
 30
0.0
 40
0.09375
  1
       ANGLE:  ±0.5°
  7
STD
  0
TEXT
  5
4150
  8
1-CR
 62
     3
 10
0.1169197453999864
 20
2.1154444801932248
 30
0.0
 40
0.09375
  1
  2. ABBREVIATIONS:
  7
STD
  0
TEXT
  5
4151
  8
1-CR
 62
     3
 10
0.1169197453999864
 20
1.9575957421304699
 30
0.0
 40
0.09375
  1
       TYP = TYPICAL
  7
STD
  0
TEXT
  5
4152
  8
1-CR
 62
     3
 10
0.1169197453999864
 20
1.7997470040677139
 30
0.0
 40
0.09375
  1
       REF = REFERENCE
  7
STD
  0
TEXT
  5
4153
  8
1-CR
 62
     3
 10
0.1169197453999864
 20
1.641834316482448
 30
0.0
 40
0.09375
  1
       IP = IN PROCESS
  7
STD
  0
TEXT
  5
4154
  8
1-CR
 62
     3
 10
0.1169197453999864
 20
1.483921628897181
 30
0.0
 40
0.09375
  1
  1. FINISH: EXPOSED SURFACES PAINTED
  7
STD
  0
TEXT
  5
4155
  8
1-CR
 62
     3
 10
0.1036215700930287
 20
1.1379865163460221
 30
0.0
 40
0.12496875
  1
NOTES:
  7
STD
  0
ENDBLK
  5
4157
  8
0
  0
BLOCK
  8
0
  2
*U14
 70
     1
 10
0.0
 20
0.0
 30
0.0
  3
*U14
  1

  0
TEXT
  5
4163
  8
1-CR
 62
     6
 10
12.6575444706244
 20
1.700182095619504
 30
0.0
 40
0.0625
  1
THE DESIGN AND CONCEPTS REPRESENTED
  7
STD
  0
TEXT
  5
4164
  8
1-CR
 62
     6
 10
12.676302997227401
 20
1.59490697056266
 30
0.0
 40
0.0625
  1
BY THIS PRINT AND ACCOMPANYING DOCU-
  7
STD
  0
TEXT
  5
4165
  8
1-CR
 62
     6
 10
12.593829429696701
 20
1.489631845505816
 30
0.0
 40
0.0625
  1
MENTS ARE THE SOLE PROPERTY OF GORDON,
  7
STD
  0
TEXT
  5
4166
  8
1-CR
 62
     6
 10
12.718232567486609
 20
1.384356720448972
 30
0.0
 40
0.0625
  1
INC., AND MAY NOT BE USED, COPIED, OR
  7
STD
  0
TEXT
  5
4167
  8
1-CR
 62
     6
 10
12.73417731509916
 20
1.279081595392128
 30
0.0
 40
0.0625
  1
REPRODUCED WITHOUT PRIOR WRITTEN
  7
STD
  0
TEXT
  5
4168
  8
1-CR
 62
     6
 10
13.038747574307891
 20
1.173806470335284
 30
0.0
 40
0.0625
  1
CONSENT OF SAID OFFICE.
  7
STD
  0
ENDBLK
  5
416A
  8
0
  0
BLOCK
  8
0
  2
*U15
 70
     1
 10
0.0
 20
0.0
 30
0.0
  3
*U15
  1

  0
TEXT
  5
416C
  8
1-ALPRO
 62
     6
 10
12.6575444706244
 20
1.700182095619504
 30
0.0
 40
0.0625
  1
THE DESIGN AND CONCEPTS REPRESENTED
  7
STD
  0
TEXT
  5
416D
  8
1-ALPRO
 62
     6
 10
12.676302997227401
 20
1.59490697056266
 30
0.0
 40
0.0625
  1
BY THIS PRINT AND ACCOMPANYING DOCU-
  7
STD
  0
TEXT
  5
416E
  8
1-ALPRO
 62
     6
 10
12.642281851251949
 20
1.489631845505816
 30
0.0
 40
0.0625
  1
MENTS ARE THE SOLE PROPERTY OF ALPRO,
  7
STD
  0
TEXT
  5
416F
  8
1-ALPRO
 62
     6
 10
12.83387462069261
 20
1.384356720448972
 30
0.0
 40
0.0625
  1
AND MAY NOT BE USED, COPIED, OR
  7
STD
  0
TEXT
  5
4170
  8
1-ALPRO
 62
     6
 10
12.73417731509916
 20
1.279081595392128
 30
0.0
 40
0.0625
  1
REPRODUCED WITHOUT PRIOR WRITTEN
  7
STD
  0
TEXT
  5
4171
  8
1-ALPRO
 62
     6
 10
13.038747574307891
 20
1.173806470335284
 30
0.0
 40
0.0625
  1
CONSENT OF SAID OFFICE.
  7
STD
  0
ENDBLK
  5
4173
  8
0
  0
BLOCK
  8
0
  2
*U16
 70
     1
 10
0.0
 20
0.0
 30
0.0
  3
*U16
  1

  0
TEXT
  5
417F
  8
1-ALPRO
 62
     3
 10
0.1169197453999864
 20
2.7469033819667592
 30
0.0
 40
0.09375
  1
  3. STANDARD TOLERANCES:
  7
STD
  0
TEXT
  5
4180
  8
1-ALPRO
 62
     3
 10
0.1169197453999864
 20
2.5890546439040021
 30
0.0
 40
0.09375
  1
       CUT:  +0" -1/64"
  7
STD
  0
TEXT
  5
4181
  8
1-ALPRO
 62
     3
 10
0.1169197453999864
 20
2.4312059058412472
 30
0.0
 40
0.09375
  1
       RADII:  ±1/8"
  7
STD
  0
TEXT
  5
4182
  8
1-ALPRO
 62
     3
 10
0.1169197453999864
 20
2.273357167778491
 30
0.0
 40
0.09375
  1
       ANGLE:  ±0.5°
  7
STD
  0
TEXT
  5
4183
  8
1-ALPRO
 62
     3
 10
0.1169197453999864
 20
2.1154444801932248
 30
0.0
 40
0.09375
  1
  2. ABBREVIATIONS:
  7
STD
  0
TEXT
  5
4184
  8
1-ALPRO
 62
     3
 10
0.1169197453999864
 20
1.9575957421304699
 30
0.0
 40
0.09375
  1
       TYP = TYPICAL
  7
STD
  0
TEXT
  5
4185
  8
1-ALPRO
 62
     3
 10
0.1169197453999864
 20
1.7997470040677139
 30
0.0
 40
0.09375
  1
       REF = REFERENCE
  7
STD
  0
TEXT
  5
4186
  8
1-ALPRO
 62
     3
 10
0.1169197453999864
 20
1.641834316482448
 30
0.0
 40
0.09375
  1
       IP = IN PROCESS
  7
STD
  0
TEXT
  5
4187
  8
1-ALPRO
 62
     3
 10
0.1169197453999864
 20
1.483921628897181
 30
0.0
 40
0.09375
  1
  1. FINISH: EXPOSED SURFACES PAINTED
  7
STD
  0
TEXT
  5
4188
  8
1-ALPRO
 62
     3
 10
0.1036215700930287
 20
1.1379865163460221
 30
0.0
 40
0.12496875
  1
NOTES:
  7
STD
  0
ENDBLK
  5
418A
  8
0
  0
BLOCK
  8
0
  2
*U17
 70
     1
 10
0.0
 20
0.0
 30
0.0
  3
*U17
  1

  0
SOLID
  5
418C
  8
0
 10
-12886.056353529781
 20
6938.3704031394509
 30
0.0
 11
-12885.97839981861
 21
6938.6115655951244
 31
0.0
 12
-12885.97392496517
 22
6938.3581566631628
 32
0.0
 13
-12885.97392496517
 23
6938.3581566631628
 33
0.0
  0
POLYLINE
  5
418D
  8
0
 66
     1
 10
0.0
 20
0.0
 30
0.0
  0
VERTEX
  5
418E
  8
0
 10
-12886.015139247471
 20
6938.3642799013069
 30
0.0
  0
VERTEX
  5
418F
  8
0
 10
-12886.188110986959
 20
6937.2000419713831
 30
0.0
  0
VERTEX
  5
4190
  8
0
 10
-12886.438110986959
 20
6937.2000419713831
 30
0.0
  0
SEQEND
  5
4191
  8
0
  0
ENDBLK
  5
4193
  8
0
  0
BLOCK
  8
0
  2
*U18
 70
     1
 10
0.0
 20
0.0
 30
0.0
  3
*U18
  1

  0
TEXT
  5
4195
  8
0
 10
-12887.86001071411
 20
6937.1030944952581
 30
0.0
 40
0.1875
  1
 HANGER
  7
STD
  0
TEXT
  5
4196
  8
0
 10
-12887.18905232394
 20
6936.7873970191322
 30
0.0
 40
0.1875
  1
CLIP
  7
STD
  0
ENDBLK
  5
4198
  8
0
  0
BLOCK
  8
0
  2
*U19
 70
     1
 10
0.0
 20
0.0
 30
0.0
  3
*U19
  1

  0
SOLID
  5
419A
  8
0
 10
-12885.997533150799
 20
6942.0118597340079
 30
0.0
 11
-12885.854643663761
 21
6941.8025305539886
 31
0.0
 12
-12886.057699939611
 22
6941.9542021068601
 32
0.0
 13
-12886.057699939611
 23
6941.9542021068601
 33
0.0
  0
POLYLINE
  5
419B
  8
0
 66
     1
 10
0.0
 20
0.0
 30
0.0
  0
VERTEX
  5
419C
  8
0
 10
-12886.0276165452
 20
6941.9830309204344
 30
0.0
  0
VERTEX
  5
419D
  8
0
 10
-12887.01966236654
 20
6943.0182488852106
 30
0.0
  0
VERTEX
  5
419E
  8
0
 10
-12887.26966236654
 20
6943.0182488852106
 30
0.0
  0
SEQEND
  5
419F
  8
0
  0
ENDBLK
  5
41A1
  8
0
  0
BLOCK
  8
0
  2
*U20
 70
     1
 10
0.0
 20
0.0
 30
0.0
  3
*U20
  1

  0
TEXT
  5
41A3
  8
0
 10
-12889.221831534351
 20
6942.9211735100398
 30
0.0
 40
0.1875
  1
ROD HANGER
  7
STD
  0
TEXT
  5
41A4
  8
0
 10
-12889.071038560271
 20
6942.6053481348699
 30
0.0
 40
0.1875
  1
CLIP (ERCIO, 
  7
STD
  0
TEXT
  5
41A5
  8
0
 10
-12888.82278651388
 20
6942.2896506587431
 30
0.0
 40
0.1875
  1
CADDY 6T)
  7
STD
  0
ENDBLK
  5
41A7
  8
0
  0
BLOCK
  8
0
  2
*U21
 70
     1
 10
0.0
 20
0.0
 30
0.0
  3
*U21
  1

  0
SOLID
  5
41A9
  8
0
 10
-12885.784136483901
 20
6941.384261671551
 30
0.0
 11
-12885.54972286239
 21
6941.4806274598777
 31
0.0
 12
-12885.740211708149
 22
6941.3134445936721
 32
0.0
 13
-12885.740211708149
 23
6941.3134445936721
 33
0.0
  0
POLYLINE
  5
41AA
  8
0
 66
     1
 10
0.0
 20
0.0
 30
0.0
  0
VERTEX
  5
41AB
  8
0
 10
-12885.762174096029
 20
6941.3488531326129
 30
0.0
  0
VERTEX
  5
41AC
  8
0
 10
-12886.71492643586
 20
6940.7579019929944
 30
0.0
  0
VERTEX
  5
41AD
  8
0
 10
-12886.96492643585
 20
6940.7579019929944
 30
0.0
  0
SEQEND
  5
41AE
  8
0
  0
ENDBLK
  5
41B0
  8
0
  0
BLOCK
  8
0
  2
*U22
 70
     1
 10
0.0
 20
0.0
 30
0.0
  3
*U22
  1

  0
TEXT
  5
41B2
  8
0
 10
-12888.20789539902
 20
6940.6625532549306
 30
0.0
 40
0.1875
  1
1/4" NUT
  7
STD
  0
ENDBLK
  5
41B4
  8
0
  0
BLOCK
  8
0
  2
*U23
 70
     1
 10
0.0
 20
0.0
 30
0.0
  3
*U23
  1

  0
SOLID
  5
41B6
  8
0
 10
-12881.810449659941
 20
6932.0459293979347
 30
0.0
 11
-12881.653777647631
 21
6932.392318096593
 31
0.0
 12
-12881.68963862187
 22
6932.0138405668431
 32
0.0
 13
-12881.68963862187
 23
6932.0138405668431
 33
0.0
  0
POLYLINE
  5
41B7
  8
0
 66
     1
 10
0.0
 20
0.0
 30
0.0
  0
VERTEX
  5
41B8
  8
0
 10
-12881.750044140899
 20
6932.0298849823876
 30
0.0
  0
VERTEX
  5
41B9
  8
0
 10
-12882.25948699238
 20
6930.1118867995619
 30
0.0
  0
VERTEX
  5
41BA
  8
0
 10
-12882.634486992391
 20
6930.1118867995619
 30
0.0
  0
SEQEND
  5
41BB
  8
0
  0
ENDBLK
  5
41BD
  8
0
  0
BLOCK
  8
0
  2
*U24
 70
     1
 10
0.0
 20
0.0
 30
0.0
  3
*U24
  1

  0
TEXT
  5
41BF
  8
0
 10
-12883.86537141428
 20
6929.9688636924693
 30
0.0
 40
0.28125
  1
GRID 
  7
STD
  0
TEXT
  5
41C0
  8
0
 10
-12884.4898385016
 20
6929.4953174782786
 30
0.0
 40
0.28125
  1
SYSTEM
  7
STD
  0
ENDBLK
  5
41C2
  8
0
  0
BLOCK
  8
0
  2
*U25
 70
     1
 10
0.0
 20
0.0
 30
0.0
  3
*U25
  1

  0
SOLID
  5
41C4
  8
0
 10
-12880.247338510861
 20
6934.9516362420436
 30
0.0
 11
-12880.238912991121
 21
6935.3317155240593
 31
0.0
 12
-12880.12361412103
 22
6934.9694484671036
 32
0.0
 13
-12880.12361412103
 23
6934.9694484671036
 33
0.0
  0
POLYLINE
  5
41C5
  8
0
 66
     1
 10
0.0
 20
0.0
 30
0.0
  0
VERTEX
  5
41C6
  8
0
 10
-12880.18547631595
 20
6934.9605423545727
 30
0.0
  0
VERTEX
  5
41C7
  8
0
 10
-12879.58390819468
 20
6930.7820274022497
 30
0.0
  0
VERTEX
  5
41C8
  8
0
 10
-12879.20890819468
 20
6930.7820274022497
 30
0.0
  0
SEQEND
  5
41C9
  8
0
  0
ENDBLK
  5
41CB
  8
0
  0
BLOCK
  8
0
  2
*U26
 70
     1
 10
0.0
 20
0.0
 30
0.0
  3
*U26
  1

  0
TEXT
  5
41CD
  8
0
 10
-12878.958476748559
 20
6930.6389083708718
 30
0.0
 40
0.28125
  1
CLOSURE
  7
STD
  0
TEXT
  5
41CE
  8
0
 10
-12878.958476748559
 20
6930.1652662324004
 30
0.0
 40
0.28125
  1
CLIP
  7
STD
  0
TEXT
  5
41CF
  8
0
 10
-12878.96269741705
 20
6929.6916240939281
 30
0.0
 40
0.28125
  1
(BY GORDON)
  7
STD
  0
ENDBLK
  5
41D1
  8
0
  0
BLOCK
  8
0
  2
*U27
 70
     1
 10
0.0
 20
0.0
 30
0.0
  3
*U27
  1

  0
SOLID
  5
421C
  8
0
 10
-12890.171316660289
 20
6930.8310792171751
 30
0.0
 11
-12890.086922912629
 21
6930.4603920912123
 31
0.0
 12
-12890.28697768776
 22
6930.7836711300433
 32
0.0
 13
-12890.28697768776
 23
6930.7836711300433
 33
0.0
  0
POLYLINE
  5
421D
  8
0
 66
     1
 10
0.0
 20
0.0
 30
0.0
  0
VERTEX
  5
421E
  8
0
 10
-12890.22914717403
 20
6930.8073751736092
 30
0.0
  0
VERTEX
  5
421F
  8
0
 10
-12890.42952993094
 20
6931.2962469453341
 30
0.0
  0
VERTEX
  5
4220
  8
0
 10
-12890.80452993094
 20
6931.2962469453341
 30
0.0
  0
SEQEND
  5
4221
  8
0
  0
ENDBLK
  5
4223
  8
0
  0
BLOCK
  8
0
  2
*U28
 70
     1
 10
0.0
 20
0.0
 30
0.0
  3
*U28
  1

  0
TEXT
  5
4225
  8
0
 10
-12895.17989742753
 20
6931.1531279139554
 30
0.0
 40
0.28125
  1
FACTORY INSTALLED
  7
STD
  0
TEXT
  5
4226
  8
0
 10
-12893.93959643844
 20
6930.6793898511987
 30
0.0
 40
0.28125
  1
CLOSURE CLIP
  7
STD
  0
ENDBLK
  5
4228
  8
0
  0
BLOCK
  8
0
  2
*U29
 70
     1
 10
0.0
 20
0.0
 30
0.0
  3
*U29
  1

  0
SOLID
  5
422A
  8
0
 10
-12887.43120586538
 20
6931.2681796036686
 30
0.0
 11
-12887.0795237483
 21
6931.4125781442672
 31
0.0
 12
-12887.3653640621
 22
6931.161925865189
 32
0.0
 13
-12887.3653640621
 23
6931.161925865189
 33
0.0
  0
POLYLINE
  5
422B
  8
0
 66
     1
 10
0.0
 20
0.0
 30
0.0
  0
VERTEX
  5
422C
  8
0
 10
-12887.39828496374
 20
6931.2150527344293
 30
0.0
  0
VERTEX
  5
422D
  8
0
 10
-12888.372929536141
 20
6930.6110988677528
 30
0.0
  0
SEQEND
  5
422E
  8
0
  0
ENDBLK
  5
4230
  8
0
  0
BLOCK
  8
0
  2
*U30
 70
     1
 10
0.0
 20
0.0
 30
0.0
  3
*U30
  1

  0
SOLID
  5
4255
  8
0
 10
-12882.12464555654
 20
6939.5822996335946
 30
0.0
 11
-12881.83113603012
 21
6939.3406730458582
 31
0.0
 12
-12882.18714555654
 22
6939.4740464581218
 32
0.0
 13
-12882.18714555654
 23
6939.4740464581218
 33
0.0
  0
POLYLINE
  5
4256
  8
0
 66
     1
 10
0.0
 20
0.0
 30
0.0
  0
VERTEX
  5
4257
  8
0
 10
-12882.15589555654
 20
6939.5281730458573
 30
0.0
  0
VERTEX
  5
4258
  8
0
 10
-12884.529565712161
 20
6940.8986121491716
 30
0.0
  0
SEQEND
  5
4259
  8
0
  0
ENDBLK
  5
425B
  8
0
  0
BLOCK
  8
0
  2
*U31
 70
     1
 10
0.0
 20
0.0
 30
0.0
  3
*U31
  1

  0
LINE
  5
425D
  8
0
 10
-0.0100000000000034
 20
-0.779999999999995
 30
0.0
 11
0.0
 21
-0.7699999999999942
 31
0.0
  0
LINE
  5
425E
  8
0
 10
0.0100000000000034
 20
-0.779999999999995
 30
0.0
 11
0.0
 21
-0.7699999999999942
 31
0.0
  0
LINE
  5
425F
  8
0
 10
-0.0100000000000034
 20
-0.779999999999995
 30
0.0
 11
-0.882499999999995
 21
-0.7799999999999923
 31
0.0
  0
LINE
  5
4260
  8
0
 10
0.882499999999995
 20
-0.7799999999999958
 30
0.0
 11
0.0100000000000034
 21
-0.779999999999995
 31
0.0
  0
ARC
  5
4261
  8
0
 10
-0.882499999999995
 20
-0.9049999999999923
 30
0.0
 40
0.125
 50
90.0
 51
180.0
  0
ARC
  5
4262
  8
0
 10
0.882499999999995
 20
-0.9049999999999958
 30
0.0
 40
0.125
 50
0.0
 51
90.0
  0
LINE
  5
4263
  8
0
 10
-1.0074999999999941
 20
-0.9049999999999923
 30
0.0
 11
-1.007499999999991
 21
-1.400000000000007
 31
0.0
  0
LINE
  5
4264
  8
0
 10
1.0074999999999981
 20
-1.400000000000007
 30
0.0
 11
1.0074999999999941
 21
-0.9049999999999958
 31
0.0
  0
ARC
  5
4265
  8
0
 10
-0.9974999999999916
 20
-1.400000000000007
 30
0.0
 40
0.0099999999999998
 50
179.99999999999741
 51
269.99999999998983
  0
ARC
  5
4266
  8
0
 10
0.9974999999999987
 20
-1.4000000000000059
 30
0.0
 40
0.0100000000000007
 50
269.99999999998983
 51
359.99999999999488
  0
LINE
  5
4267
  8
0
 10
-0.9974999999999933
 20
-1.410000000000007
 30
0.0
 11
-0.9344621179817078
 21
-1.410000000000007
 31
0.0
  0
LINE
  5
4268
  8
0
 10
0.9344621179817149
 20
-1.410000000000007
 30
0.0
 11
0.9974999999999969
 21
-1.410000000000007
 31
0.0
  0
ARC
  5
4269
  8
0
 10
-0.9344621179817078
 20
-1.4160000000000059
 30
0.0
 40
0.0059999999999993
 50
344.00104414316581
 51
90.0
  0
ARC
  5
426A
  8
0
 10
0.9344621179817131
 20
-1.416000000000007
 30
0.0
 40
0.0060000000000004
 50
89.999999999983046
 51
195.9989558568254
  0
LINE
  5
426B
  8
0
 10
-0.9286945176681822
 20
-1.4176537190279559
 30
0.0
 11
-0.9502283259071528
 21
-1.4927561983799229
 31
0.0
  0
LINE
  5
426C
  8
0
 10
0.9502283259071565
 20
-1.4927561983799229
 30
0.0
 11
0.9286945176681857
 21
-1.4176537190279559
 31
0.0
  0
ARC
  5
426D
  8
0
 10
-0.9598409930963622
 20
-1.49000000000001
 30
0.0
 40
0.0099999999999967
 50
270.0
 51
344.0010441431919
  0
ARC
  5
426E
  8
0
 10
0.9598409930963693
 20
-1.490000000000006
 30
0.0
 40
0.0100000000000007
 50
195.99895585682691
 51
270.0
  0
LINE
  5
426F
  8
0
 10
-0.9598409930963622
 20
-1.5000000000000071
 30
0.0
 11
-1.087499999999989
 21
-1.5000000000000071
 31
0.0
  0
LINE
  5
4270
  8
0
 10
1.087500000000007
 20
-1.5000000000000071
 30
0.0
 11
0.9598409930963693
 21
-1.5000000000000071
 31
0.0
  0
ARC
  5
4271
  8
0
 10
-1.087499999999989
 20
-1.4900000000000051
 30
0.0
 40
0.0100000000000016
 50
180.0000000000102
 51
270.0
  0
ARC
  5
4272
  8
0
 10
1.087500000000007
 20
-1.4900000000000051
 30
0.0
 40
0.0100000000000016
 50
270.0
 51
359.99999999999238
  0
LINE
  5
4273
  8
0
 10
-1.097499999999991
 20
-1.4900000000000071
 30
0.0
 11
-1.097499999999987
 21
2.4900000000000051
 31
0.0
  0
LINE
  5
4274
  8
0
 10
1.0974999999999979
 20
2.489999999999994
 30
0.0
 11
1.097500000000009
 21
-1.4900000000000071
 31
0.0
  0
ARC
  5
4275
  8
0
 10
-1.087499999999987
 20
2.4900000000000069
 30
0.0
 40
0.0099999999999998
 50
90.000000000010175
 51
180.0000000000102
  0
ARC
  5
4276
  8
0
 10
1.0874999999999979
 20
2.4899999999999949
 30
0.0
 40
0.0100000000000007
 50
359.99999999999488
 51
89.999999999989853
  0
LINE
  5
4277
  8
0
 10
-1.087499999999989
 20
2.5000000000000071
 30
0.0
 11
-0.8974999999999919
 21
2.5000000000000071
 31
0.0
  0
LINE
  5
4278
  8
0
 10
0.8974999999999813
 20
2.5000000000000071
 30
0.0
 11
1.0874999999999999
 21
2.499999999999996
 31
0.0
  0
ARC
  5
4279
  8
0
 10
-0.8974999999999901
 20
2.4900000000000091
 30
0.0
 40
0.0099999999999971
 50
359.99999999999488
 51
90.000000000010147
  0
ARC
  5
427A
  8
0
 10
0.8974999999999777
 20
2.490000000000006
 30
0.0
 40
0.0100000000000016
 50
89.999999999979664
 51
179.99999999998471
  0
LINE
  5
427B
  8
0
 10
-0.8874999999999939
 20
2.4900000000000091
 30
0.0
 11
-0.8874999999999939
 21
2.3900000000000068
 31
0.0
  0
LINE
  5
427C
  8
0
 10
0.8874999999999798
 20
2.3900000000000068
 30
0.0
 11
0.8874999999999761
 21
2.4900000000000091
 31
0.0
  0
ARC
  5
427D
  8
0
 10
-0.8974999999999919
 20
2.3900000000000059
 30
0.0
 40
0.009999999999998
 50
270.0
 51
0.0000000000051159
  0
ARC
  5
427E
  8
0
 10
0.8974999999999795
 20
2.390000000000009
 30
0.0
 40
0.0099999999999998
 50
180.0000000000102
 51
270.00000000001017
  0
LINE
  5
427F
  8
0
 10
-0.8974999999999919
 20
2.3800000000000092
 30
0.0
 11
-0.9374999999999946
 21
2.380000000000007
 31
0.0
  0
LINE
  5
4280
  8
0
 10
0.9374999999999804
 20
2.380000000000007
 30
0.0
 11
0.8974999999999813
 21
2.3800000000000092
 31
0.0
  0
ARC
  5
4281
  8
0
 10
-0.9374999999999965
 20
2.3900000000000059
 30
0.0
 40
0.0099999999999989
 50
179.99999999999491
 51
270.00000000001017
  0
ARC
  5
4282
  8
0
 10
0.937499999999984
 20
2.390000000000009
 30
0.0
 40
0.0100000000000016
 50
269.99999999997959
 51
359.99999999998983
  0
LINE
  5
4283
  8
0
 10
-0.9474999999999962
 20
2.3900000000000068
 30
0.0
 11
-0.9474999999999891
 21
2.4300000000000059
 31
0.0
  0
LINE
  5
4284
  8
0
 10
0.9474999999999784
 20
2.4300000000000059
 30
0.0
 11
0.9474999999999855
 21
2.3900000000000068
 31
0.0
  0
ARC
  5
4285
  8
0
 10
-0.9574999999999889
 20
2.4300000000000068
 30
0.0
 40
0.0099999999999998
 50
359.99999999999488
 51
89.999999999989853
  0
ARC
  5
4286
  8
0
 10
0.9574999999999764
 20
2.4300000000000082
 30
0.0
 40
0.009999999999998
 50
90.0
 51
180.0000000000102
  0
LINE
  5
4287
  8
0
 10
-0.9574999999999871
 20
2.4400000000000062
 30
0.0
 11
-0.9975000000000004
 21
2.4400000000000079
 31
0.0
  0
LINE
  5
4288
  8
0
 10
0.9974999999999898
 20
2.4400000000000079
 30
0.0
 11
0.9574999999999764
 21
2.4400000000000062
 31
0.0
  0
ARC
  5
4289
  8
0
 10
-0.9975000000000004
 20
2.430000000000009
 30
0.0
 40
0.0099999999999989
 50
90.0
 51
180.00000000001521
  0
ARC
  5
428A
  8
0
 10
0.997499999999988
 20
2.430000000000009
 30
0.0
 40
0.0099999999999998
 50
359.99999999998471
 51
89.999999999989853
  0
LINE
  5
428B
  8
0
 10
-1.0074999999999981
 20
2.4300000000000059
 30
0.0
 11
-1.0074999999999981
 21
0.9810000000000114
 31
0.0
  0
LINE
  5
428C
  8
0
 10
1.007499999999987
 20
0.9810000000000114
 30
0.0
 11
1.007499999999987
 21
2.4300000000000059
 31
0.0
  0
ARC
  5
428D
  8
0
 10
-0.9975000000000004
 20
0.9810000000000096
 30
0.0
 40
0.009999999999998
 50
179.9999999999898
 51
270.0
  0
ARC
  5
428E
  8
0
 10
0.997499999999988
 20
0.9810000000000105
 30
0.0
 40
0.0099999999999989
 50
270.00000000001017
 51
0.0000000000051159
  0
LINE
  5
428F
  8
0
 10
-0.9975000000000004
 20
0.9710000000000116
 30
0.0
 11
-0.9574999999999942
 21
0.9710000000000116
 31
0.0
  0
LINE
  5
4290
  8
0
 10
0.9574999999999835
 20
0.9710000000000116
 30
0.0
 11
0.9974999999999898
 21
0.9710000000000116
 31
0.0
  0
ARC
  5
4291
  8
0
 10
-0.957499999999996
 20
0.9810000000000105
 30
0.0
 40
0.0099999999999989
 50
270.00000000001017
 51
0.0000000000051159
  0
ARC
  5
4292
  8
0
 10
0.9574999999999835
 20
0.9810000000000096
 30
0.0
 40
0.009999999999998
 50
179.9999999999898
 51
270.0
  0
LINE
  5
4293
  8
0
 10
-0.9474999999999962
 20
0.9810000000000114
 30
0.0
 11
-0.9474999999999962
 21
1.021000000000011
 31
0.0
  0
LINE
  5
4294
  8
0
 10
0.947499999999982
 20
1.021000000000011
 30
0.0
 11
0.9474999999999855
 21
0.9810000000000114
 31
0.0
  0
ARC
  5
4295
  8
0
 10
-0.9374999999999965
 20
1.0210000000000099
 30
0.0
 40
0.0099999999999998
 50
89.999999999989825
 51
179.99999999999491
  0
ARC
  5
4296
  8
0
 10
0.9374999999999804
 20
1.021000000000009
 30
0.0
 40
0.0100000000000016
 50
0.0000000000101778
 51
90.0
  0
LINE
  5
4297
  8
0
 10
-0.9374999999999946
 20
1.031000000000011
 30
0.0
 11
-0.8974999999999919
 21
1.031000000000009
 31
0.0
  0
LINE
  5
4298
  8
0
 10
0.8974999999999813
 20
1.031000000000009
 30
0.0
 11
0.9374999999999804
 21
1.031000000000011
 31
0.0
  0
ARC
  5
4299
  8
0
 10
-0.8974999999999938
 20
1.021000000000009
 30
0.0
 40
0.0099999999999998
 50
0.0
 51
89.999999999989825
  0
ARC
  5
429A
  8
0
 10
0.897499999999983
 20
1.0210000000000099
 30
0.0
 40
0.0099999999999998
 50
90.000000000010175
 51
180.000000000005
  0
LINE
  5
429B
  8
0
 10
-0.8874999999999939
 20
1.021000000000009
 30
0.0
 11
-0.8874999999999939
 21
0.92100000000001
 31
0.0
  0
LINE
  5
429C
  8
0
 10
0.8874999999999833
 20
0.92100000000001
 30
0.0
 11
0.8874999999999833
 21
1.021000000000009
 31
0.0
  0
ARC
  5
429D
  8
0
 10
-0.8974999999999938
 20
0.92100000000001
 30
0.0
 40
0.0099999999999998
 50
270.00000000001017
 51
0.0
  0
ARC
  5
429E
  8
0
 10
0.897499999999983
 20
0.9210000000000091
 30
0.0
 40
0.0099999999999989
 50
179.99999999999491
 51
269.99999999998983
  0
LINE
  5
429F
  8
0
 10
-0.8974999999999919
 20
0.9110000000000103
 30
0.0
 11
-0.9975000000000004
 21
0.9110000000000075
 31
0.0
  0
LINE
  5
42A0
  8
0
 10
0.9974999999999862
 20
0.9110000000000075
 30
0.0
 11
0.8974999999999813
 21
0.9110000000000103
 31
0.0
  0
ARC
  5
42A1
  8
0
 10
-0.9974999999999987
 20
0.9010000000000077
 30
0.0
 40
0.0099999999999998
 50
90.000000000010175
 51
180.0
  0
ARC
  5
42A2
  8
0
 10
0.997499999999988
 20
0.9010000000000069
 30
0.0
 40
0.0099999999999998
 50
0.0000000000050889
 51
90.000000000010175
  0
LINE
  5
42A3
  8
0
 10
-1.0074999999999981
 20
0.9010000000000077
 30
0.0
 11
-1.0074999999999941
 21
0.1249999999999982
 31
0.0
  0
LINE
  5
42A4
  8
0
 10
1.0074999999999941
 20
0.1250000000000018
 30
0.0
 11
1.007499999999987
 21
0.9010000000000077
 31
0.0
  0
ARC
  5
42A5
  8
0
 10
-0.882499999999995
 20
0.1249999999999982
 30
0.0
 40
0.125
 50
180.0
 51
270.0
  0
ARC
  5
42A6
  8
0
 10
0.882499999999995
 20
0.1250000000000018
 30
0.0
 40
0.125
 50
270.0
 51
0.0
  0
LINE
  5
42A7
  8
0
 10
-0.882499999999995
 20
-0.0000000000000018
 30
0.0
 11
0.882499999999995
 21
0.0000000000000018
 31
0.0
  0
LINE
  5
42A8
  8
0
 10
-0.7075000000000014
 20
-0.6829999999999963
 30
0.0
 11
-0.7075000000000014
 21
-0.5719999999999974
 31
0.0
  0
ARC
  5
42A9
  8
0
 10
-0.7145000000000028
 20
-0.571999999999998
 30
0.0
 40
0.0070000000000008
 50
0.0000000000036258
 51
90.0
  0
ARC
  5
42AA
  8
0
 10
-0.7005000000000017
 20
-0.6829999999999972
 30
0.0
 40
0.0069999999999988
 50
179.9999999999927
 51
269.99999999998539
  0
LINE
  5
42AB
  8
0
 10
-0.7145000000000028
 20
-0.564999999999997
 30
0.0
 11
-0.7755000000000063
 21
-0.564999999999996
 31
0.0
  0
LINE
  5
42AC
  8
0
 10
0.700500000000007
 20
-0.6899999999999978
 30
0.0
 11
-0.7005000000000035
 21
-0.689999999999996
 31
0.0
  0
ARC
  5
42AD
  8
0
 10
-0.7755000000000046
 20
-0.5719999999999952
 30
0.0
 40
0.0069999999999995
 50
90.000000000014538
 51
180.00000000001819
  0
ARC
  5
42AE
  8
0
 10
0.7005000000000053
 20
-0.6829999999999991
 30
0.0
 40
0.0069999999999988
 50
270.0000000000145
 51
0.0000000000072742
  0
LINE
  5
42AF
  8
0
 10
-0.7825000000000042
 20
-0.5719999999999974
 30
0.0
 11
-0.7825000000000042
 21
-0.6399999999999962
 31
0.0
  0
LINE
  5
42B0
  8
0
 10
0.7075000000000085
 20
-0.5719999999999974
 30
0.0
 11
0.7075000000000049
 21
-0.6829999999999981
 31
0.0
  0
ARC
  5
42B1
  8
0
 10
-0.8325000000000031
 20
-0.6399999999999962
 30
0.0
 40
0.0499999999999996
 50
270.0000000000021
 51
0.0
  0
ARC
  5
42B2
  8
0
 10
0.7145000000000064
 20
-0.5719999999999961
 30
0.0
 40
0.0069999999999986
 50
90.0
 51
180.0000000000108
  0
LINE
  5
42B3
  8
0
 10
-0.8325000000000014
 20
-0.689999999999996
 30
0.0
 11
-0.9575000000000014
 21
-0.6899999999999978
 31
0.0
  0
LINE
  5
42B4
  8
0
 10
0.7755000000000099
 20
-0.5649999999999978
 30
0.0
 11
0.7145000000000064
 21
-0.5649999999999978
 31
0.0
  0
ARC
  5
42B5
  8
0
 10
-0.9574999999999995
 20
-0.6399999999999988
 30
0.0
 40
0.0499999999999987
 50
179.9999999999979
 51
269.99999999999801
  0
ARC
  5
42B6
  8
0
 10
0.7755000000000099
 20
-0.5719999999999966
 30
0.0
 40
0.0069999999999986
 50
359.99999999999272
 51
90.0
  0
LINE
  5
42B7
  8
0
 10
-1.0074999999999981
 20
-0.6399999999999971
 30
0.0
 11
-1.0075000000000049
 21
-0.139999999999997
 31
0.0
  0
LINE
  5
42B8
  8
0
 10
0.7825000000000113
 20
-0.6399999999999971
 30
0.0
 11
0.7825000000000077
 21
-0.5719999999999974
 31
0.0
  0
ARC
  5
42B9
  8
0
 10
-0.9575000000000031
 20
-0.1399999999999979
 30
0.0
 40
0.0500000000000016
 50
89.999999999997968
 51
179.99999999999901
  0
ARC
  5
42BA
  8
0
 10
0.8325000000000102
 20
-0.6399999999999988
 30
0.0
 40
0.0499999999999983
 50
179.9999999999979
 51
269.99999999999392
  0
LINE
  5
42BB
  8
0
 10
-0.9575000000000014
 20
-0.0899999999999963
 30
0.0
 11
-0.8324999999999729
 21
-0.0900000000000017
 31
0.0
  0
LINE
  5
42BC
  8
0
 10
0.9575000000000085
 20
-0.6899999999999978
 30
0.0
 11
0.8325000000000049
 21
-0.689999999999997
 31
0.0
  0
ARC
  5
42BD
  8
0
 10
-0.83249999999998
 20
-0.1399999999999983
 30
0.0
 40
0.0499999999999967
 50
359.99999999999238
 51
89.999999999991843
  0
ARC
  5
42BE
  8
0
 10
0.9575000000000085
 20
-0.6399999999999971
 30
0.0
 40
0.0500000000000005
 50
270.0
 51
0.0
  0
LINE
  5
42BF
  8
0
 10
-0.7824999999999829
 20
-0.140000000000005
 30
0.0
 11
-0.7824999999999829
 21
-0.2079999999999975
 31
0.0
  0
LINE
  5
42C0
  8
0
 10
1.0075000000000121
 20
-0.139999999999997
 30
0.0
 11
1.0075000000000089
 21
-0.6399999999999971
 31
0.0
  0
ARC
  5
42C1
  8
0
 10
-0.7754999999999832
 20
-0.2079999999999975
 30
0.0
 40
0.0070000000000006
 50
180.0
 51
270.0000000000145
  0
ARC
  5
42C2
  8
0
 10
0.9575000000000085
 20
-0.1400000000000001
 30
0.0
 40
0.0500000000000038
 50
0.0000000000035622
 51
90.000000000004064
  0
LINE
  5
42C3
  8
0
 10
-0.7754999999999815
 20
-0.2149999999999981
 30
0.0
 11
-0.7144999999999993
 21
-0.2149999999999945
 31
0.0
  0
LINE
  5
42C4
  8
0
 10
0.8324999999999764
 20
-0.0900000000000034
 30
0.0
 11
0.9575000000000049
 21
-0.0899999999999963
 31
0.0
  0
ARC
  5
42C5
  8
0
 10
-0.7145000000000011
 20
-0.2079999999999957
 30
0.0
 40
0.0069999999999988
 50
270.0000000000145
 51
360.0
  0
ARC
  5
42C6
  8
0
 10
0.8324999999999835
 20
-0.1399999999999997
 30
0.0
 40
0.0499999999999963
 50
90.000000000008129
 51
180.0000000000081
  0
LINE
  5
42C7
  8
0
 10
-0.7075000000000014
 20
-0.2079999999999957
 30
0.0
 11
-0.7074999999999873
 21
-0.0969999999999978
 31
0.0
  0
LINE
  5
42C8
  8
0
 10
0.7824999999999865
 20
-0.2079999999999993
 30
0.0
 11
0.7824999999999865
 21
-0.1400000000000068
 31
0.0
  0
ARC
  5
42C9
  8
0
 10
-0.7004999999999875
 20
-0.0969999999999978
 30
0.0
 40
0.0069999999999988
 50
90.000000000014538
 51
180.0
  0
ARC
  5
42CA
  8
0
 10
0.7754999999999886
 20
-0.2080000000000011
 30
0.0
 40
0.0069999999999988
 50
270.0
 51
0.0000000000145484
  0
LINE
  5
42CB
  8
0
 10
-0.7004999999999894
 20
-0.089999999999999
 30
0.0
 11
0.700500000000007
 21
-0.0899999999999999
 31
0.0
  0
LINE
  5
42CC
  8
0
 10
0.7145000000000064
 20
-0.2149999999999963
 30
0.0
 11
0.7754999999999886
 21
-0.2149999999999999
 31
0.0
  0
ARC
  5
42CD
  8
0
 10
0.7005000000000053
 20
-0.0969999999999987
 30
0.0
 40
0.0069999999999988
 50
359.99999999998539
 51
89.999999999985448
  0
ARC
  5
42CE
  8
0
 10
0.7145000000000046
 20
-0.2079999999999957
 30
0.0
 40
0.0070000000000006
 50
180.00000000000719
 51
270.0000000000145
  0
LINE
  5
42CF
  8
0
 10
0.7075000000000049
 20
-0.0970000000000004
 30
0.0
 11
0.7075000000000049
 21
-0.2079999999999966
 31
0.0
  0
ENDBLK
  5
42D1
  8
0
  0
BLOCK
  8
0
  2
*U32
 70
     1
 10
0.0
 20
0.0
 30
0.0
  3
*U32
  1

  0
TEXT
  5
42D3
  8
0
 10
1504.912208618013
 20
-9411.1265535399725
 30
0.0
 40
0.1875
  1
4"
  7
STD
  0
ENDBLK
  5
42D5
  8
0
  0
BLOCK
  8
0
  2
*U33
 70
     1
 10
0.0
 20
0.0
 30
0.0
  3
*U33
  1

  0
TEXT
  5
42D7
  8
0
 10
1506.4828983647051
 20
-9408.4790264141793
 30
0.0
 40
0.1875
  1
2 3/16"
  7
STD
  0
ENDBLK
  5
42D9
  8
0
  0
BLOCK
  8
0
  2
*U34
 70
     1
 10
0.0
 20
0.0
 30
0.0
  3
*U34
  1

  0
TEXT
  5
430C
  8
0
 10
-12895.10132394514
 20
6930.9095239939079
 30
0.0
 40
0.1875
  1
4"
  7
STD
  0
ENDBLK
  5
430E
  8
0
  0
BLOCK
  8
0
  2
*U35
 70
     1
 10
0.0
 20
0.0
 30
0.0
  3
*U35
  1

  0
TEXT
  5
4310
  8
0
 10
-12893.530634198451
 20
6933.557051119702
 30
0.0
 40
0.1875
  1
2 3/16"
  7
STD
  0
ENDBLK
  5
4312
  8
0
  0
BLOCK
  8
0
  2
*U36
 70
     1
 10
0.0
 20
0.0
 30
0.0
  3
*U36
  1

  0
TEXT
  5
4453
  8
0
 10
-12892.017085875619
 20
6931.2868424793796
 30
0.0
 40
0.1875
  1
5"
  7
STD
  0
ENDBLK
  5
4455
  8
0
  0
BLOCK
  8
0
  2
*U37
 70
     1
 10
0.0
 20
0.0
 30
0.0
  3
*U37
  1

  0
TEXT
  5
4457
  8
0
 10
-12890.110749115
 20
6928.0454408007809
 30
0.0
 40
0.1875
  1
2 3/4"
  7
STD
  0
ENDBLK
  5
4459
  8
0
  0
BLOCK
  8
0
  2
*U38
 70
     1
 10
0.0
 20
0.0
 30
0.0
  3
*U38
  1

  0
TEXT
  5
445B
  8
0
 10
-12890.110749115
 20
6928.0454408007809
 30
0.0
 40
0.1875
  1
2 3/4"
  7
STD
  0
ENDBLK
  5
445D
  8
0
  0
BLOCK
  8
0
  2
*U39
 70
     1
 10
0.0
 20
0.0
 30
0.0
  3
*U39
  1

  0
TEXT
  5
445F
  8
0
 10
-12892.017085875619
 20
6931.2868424793796
 30
0.0
 40
0.1875
  1
5"
  7
STD
  0
ENDBLK
  5
4461
  8
0
  0
ENDSEC
  0
SECTION
  2
ENTITIES
  0
ARC
  5
3FCD
  8
0
 10
-12891.00526991992
 20
6933.9029937413197
 30
0.0
 40
0.0060000000003129
 50
300.29775677567659
 51
89.99999998262993
  0
LINE
  5
3FCE
  8
0
 10
-12891.002242957
 20
6933.8978132495013
 30
0.0
 11
-12891.02729688283
 21
6933.8831742331386
 31
0.0
  0
ARC
  5
3FCF
  8
0
 10
-12891.02426991991
 20
6933.877993741321
 30
0.0
 40
0.005999999999383
 50
120.29775676067911
 51
239.7022432437025
  0
LINE
  5
3FD0
  8
0
 10
-12891.02729688283
 20
6933.8728132494998
 30
0.0
 11
-12891.002242957
 21
6933.858174233138
 31
0.0
  0
ARC
  5
3FD1
  8
0
 10
-12891.00526991991
 20
6933.8529937413223
 30
0.0
 40
0.005999999999383
 50
300.29775675629759
 51
59.7022432393209
  0
LINE
  5
3FD2
  8
0
 10
-12891.002242957
 20
6933.8478132495011
 30
0.0
 11
-12891.02729688283
 21
6933.8331742331393
 31
0.0
  0
ARC
  5
3FD3
  8
0
 10
-12891.02426991991
 20
6933.827993741319
 30
0.0
 40
0.0060000000001682
 50
120.2977567562975
 51
239.70224323932089
  0
LINE
  5
3FD4
  8
0
 10
-12891.02729688283
 20
6933.8228132494996
 30
0.0
 11
-12891.002242957
 21
6933.8081742331378
 31
0.0
  0
ARC
  5
3FD5
  8
0
 10
-12891.00526991991
 20
6933.8029937413203
 30
0.0
 40
0.0060000000001682
 50
300.29775676067908
 51
59.702243243702462
  0
LINE
  5
3FD6
  8
0
 10
-12891.002242957
 20
6933.7978132495009
 30
0.0
 11
-12891.02729688283
 21
6933.7831742331391
 31
0.0
  0
ARC
  5
3FD7
  8
0
 10
-12891.02426991991
 20
6933.7779937413197
 30
0.0
 40
0.005999999999383
 50
120.29775676067911
 51
239.70224323932089
  0
LINE
  5
3FD8
  8
0
 10
-12891.02729688283
 20
6933.7728132495013
 30
0.0
 11
-12891.002242957
 21
6933.7581742331377
 31
0.0
  0
ARC
  5
3FD9
  8
0
 10
-12891.00526991991
 20
6933.752993741321
 30
0.0
 40
0.005999999999383
 50
300.29775675629759
 51
59.7022432393209
  0
LINE
  5
3FDA
  8
0
 10
-12891.002242957
 20
6933.7478132494998
 30
0.0
 11
-12891.02729688283
 21
6933.7331742331389
 31
0.0
  0
ARC
  5
3FDB
  8
0
 10
-12891.02426991991
 20
6933.7279937413196
 30
0.0
 40
0.005999999999383
 50
120.29775676067911
 51
239.7022432437025
  0
LINE
  5
3FDC
  8
0
 10
-12891.02729688283
 20
6933.7228132495011
 30
0.0
 11
-12891.002242957
 21
6933.7081742331393
 31
0.0
  0
ARC
  5
3FDD
  8
0
 10
-12891.00526991991
 20
6933.702993741319
 30
0.0
 40
0.0060000000001682
 50
300.29775676067908
 51
59.702243243702462
  0
LINE
  5
3FDE
  8
0
 10
-12891.002242957
 20
6933.6978132495015
 30
0.0
 11
-12891.02729688283
 21
6933.6831742331378
 31
0.0
  0
ARC
  5
3FDF
  8
0
 10
-12891.02426991991
 20
6933.6779937413194
 30
0.0
 40
0.0060000000001682
 50
120.2977567562975
 51
239.70224323932089
  0
LINE
  5
3FE0
  8
0
 10
-12891.02729688283
 20
6933.6728132495009
 30
0.0
 11
-12891.002242957
 21
6933.6581742331391
 31
0.0
  0
ARC
  5
3FE1
  8
0
 10
-12891.00526991991
 20
6933.6529937413197
 30
0.0
 40
0.005999999999383
 50
300.29775676067908
 51
59.7022432393209
  0
LINE
  5
3FE2
  8
0
 10
-12891.002242957
 20
6933.6478132495022
 30
0.0
 11
-12891.02729688283
 21
6933.6331742331377
 31
0.0
  0
ARC
  5
3FE3
  8
0
 10
-12891.02426991991
 20
6933.627993741321
 30
0.0
 40
0.005999999999383
 50
120.29775676067911
 51
239.7022432437025
  0
LINE
  5
3FE4
  8
0
 10
-12891.02729688283
 20
6933.6228132495007
 30
0.0
 11
-12891.002242957
 21
6933.6081742331389
 31
0.0
  0
ARC
  5
3FE5
  8
0
 10
-12891.00526991991
 20
6933.6029937413196
 30
0.0
 40
0.005999999999383
 50
300.29775675629759
 51
59.7022432393209
  0
LINE
  5
3FE6
  8
0
 10
-12891.002242957
 20
6933.597813249502
 30
0.0
 11
-12891.02729688283
 21
6933.5831742331384
 31
0.0
  0
ARC
  5
3FE7
  8
0
 10
-12891.02426991991
 20
6933.5779937413199
 30
0.0
 40
0.0060000000001682
 50
120.2977567562975
 51
239.70224323932089
  0
LINE
  5
3FE8
  8
0
 10
-12891.02729688283
 20
6933.5728132495015
 30
0.0
 11
-12891.002242957
 21
6933.5581742331378
 31
0.0
  0
ARC
  5
3FE9
  8
0
 10
-12891.00526991991
 20
6933.5529937413203
 30
0.0
 40
0.0060000000001682
 50
300.29775676067908
 51
59.702243243702462
  0
LINE
  5
3FEA
  8
0
 10
-12891.002242957
 20
6933.5478132495009
 30
0.0
 11
-12891.02729688283
 21
6933.5331742331373
 31
0.0
  0
ARC
  5
3FEB
  8
0
 10
-12891.02426991991
 20
6933.5279937413206
 30
0.0
 40
0.005999999999383
 50
120.29775676067911
 51
239.70224323932089
  0
LINE
  5
3FEC
  8
0
 10
-12891.02729688283
 20
6933.5228132495022
 30
0.0
 11
-12891.002242957
 21
6933.5081742331377
 31
0.0
  0
ARC
  5
3FED
  8
0
 10
-12891.00526991991
 20
6933.5029937413201
 30
0.0
 40
0.005999999999383
 50
300.29775675629759
 51
59.7022432393209
  0
LINE
  5
3FEE
  8
0
 10
-12891.002242957
 20
6933.4978132495007
 30
0.0
 11
-12891.02729688283
 21
6933.483174233138
 31
0.0
  0
ARC
  5
3FEF
  8
0
 10
-12891.02426991991
 20
6933.4779937413196
 30
0.0
 40
0.005999999999383
 50
120.29775676067911
 51
239.7022432437025
  0
LINE
  5
3FF0
  8
0
 10
-12891.02729688283
 20
6933.4728132495011
 30
0.0
 11
-12891.002242957
 21
6933.4581742331384
 31
0.0
  0
ARC
  5
3FF1
  8
0
 10
-12891.00526991991
 20
6933.452993741319
 30
0.0
 40
0.0060000000001682
 50
300.29775676067908
 51
59.702243243702462
  0
LINE
  5
3FF2
  8
0
 10
-12891.002242957
 20
6933.4478132494996
 30
0.0
 11
-12891.02729688283
 21
6933.4331742331378
 31
0.0
  0
ARC
  5
3FF3
  8
0
 10
-12891.02426991991
 20
6933.4279937413203
 30
0.0
 40
0.0060000000001682
 50
120.2977567562975
 51
239.70224323932089
  0
LINE
  5
3FF4
  8
0
 10
-12891.02729688283
 20
6933.4228132495009
 30
0.0
 11
-12891.00364550322
 21
6933.40899374132
 31
0.0
  0
LINE
  5
3FF5
  8
0
 10
-12891.00364550322
 20
6933.40899374132
 30
0.0
 11
-12890.810500938131
 21
6933.40899374132
 31
0.0
  0
ARC
  5
3FF6
  8
0
 10
-12890.810500938131
 20
6933.4159937413197
 30
0.0
 40
0.0070000000005166
 50
270.0
 51
59.702243231641503
  0
LINE
  5
3FF7
  8
0
 10
-12890.806969481389
 20
6933.4220376484418
 30
0.0
 11
-12890.808296882829
 21
6933.4228132495009
 31
0.0
  0
ARC
  5
3FF8
  8
0
 10
-12890.80526991992
 20
6933.4279937413203
 30
0.0
 40
0.005999999999383
 50
120.2977567562975
 51
239.70224323932089
  0
LINE
  5
3FF9
  8
0
 10
-12890.808296882829
 20
6933.4331742331378
 30
0.0
 11
-12890.783242957001
 21
6933.4478132494996
 31
0.0
  0
ARC
  5
3FFA
  8
0
 10
-12890.78626991991
 20
6933.452993741319
 30
0.0
 40
0.005999999999383
 50
300.29775676067908
 51
59.702243243702462
  0
LINE
  5
3FFB
  8
0
 10
-12890.783242957001
 20
6933.4581742331384
 30
0.0
 11
-12890.808296882829
 21
6933.4728132495011
 31
0.0
  0
ARC
  5
3FFC
  8
0
 10
-12890.80526991992
 20
6933.4779937413196
 30
0.0
 40
0.0060000000001682
 50
120.29775676067911
 51
239.7022432437025
  0
LINE
  5
3FFD
  8
0
 10
-12890.808296882829
 20
6933.483174233138
 30
0.0
 11
-12890.783242957001
 21
6933.4978132495007
 31
0.0
  0
ARC
  5
3FFE
  8
0
 10
-12890.78626991991
 20
6933.5029937413201
 30
0.0
 40
0.0060000000001682
 50
300.29775675629759
 51
59.7022432393209
  0
LINE
  5
3FFF
  8
0
 10
-12890.783242957001
 20
6933.5081742331377
 30
0.0
 11
-12890.808296882829
 21
6933.5228132495022
 31
0.0
  0
ARC
  5
4000
  8
0
 10
-12890.80526991992
 20
6933.5279937413206
 30
0.0
 40
0.005999999999383
 50
120.29775676067911
 51
239.70224323932089
  0
LINE
  5
4001
  8
0
 10
-12890.808296882829
 20
6933.5331742331373
 30
0.0
 11
-12890.783242957001
 21
6933.5478132495009
 31
0.0
  0
ARC
  5
4002
  8
0
 10
-12890.78626991991
 20
6933.5529937413203
 30
0.0
 40
0.005999999999383
 50
300.29775676067908
 51
59.702243243702462
  0
LINE
  5
4003
  8
0
 10
-12890.783242957001
 20
6933.5581742331378
 30
0.0
 11
-12890.808296882829
 21
6933.5728132495015
 31
0.0
  0
ARC
  5
4004
  8
0
 10
-12890.80526991992
 20
6933.5779937413199
 30
0.0
 40
0.005999999999383
 50
120.2977567562975
 51
239.70224323932089
  0
LINE
  5
4005
  8
0
 10
-12890.808296882829
 20
6933.5831742331384
 30
0.0
 11
-12890.783242957001
 21
6933.597813249502
 31
0.0
  0
ARC
  5
4006
  8
0
 10
-12890.78626991991
 20
6933.6029937413196
 30
0.0
 40
0.0060000000001682
 50
300.29775675629759
 51
59.7022432393209
  0
LINE
  5
4007
  8
0
 10
-12890.783242957001
 20
6933.6081742331389
 30
0.0
 11
-12890.808296882829
 21
6933.6228132495007
 31
0.0
  0
ARC
  5
4008
  8
0
 10
-12890.80526991992
 20
6933.627993741321
 30
0.0
 40
0.0060000000001682
 50
120.29775676067911
 51
239.7022432437025
  0
LINE
  5
4009
  8
0
 10
-12890.808296882829
 20
6933.6331742331377
 30
0.0
 11
-12890.783242957001
 21
6933.6478132495022
 31
0.0
  0
ARC
  5
400A
  8
0
 10
-12890.78626991991
 20
6933.6529937413197
 30
0.0
 40
0.005999999999383
 50
300.29775676067908
 51
59.7022432393209
  0
LINE
  5
400B
  8
0
 10
-12890.783242957001
 20
6933.6581742331391
 30
0.0
 11
-12890.808296882829
 21
6933.6728132495009
 31
0.0
  0
ARC
  5
400C
  8
0
 10
-12890.80526991992
 20
6933.6779937413194
 30
0.0
 40
0.005999999999383
 50
120.2977567562975
 51
239.70224323932089
  0
LINE
  5
400D
  8
0
 10
-12890.808296882829
 20
6933.6831742331378
 30
0.0
 11
-12890.783242957001
 21
6933.6978132495015
 31
0.0
  0
ARC
  5
400E
  8
0
 10
-12890.78626991991
 20
6933.702993741319
 30
0.0
 40
0.005999999999383
 50
300.29775676067908
 51
59.702243243702462
  0
LINE
  5
400F
  8
0
 10
-12890.783242957001
 20
6933.7081742331393
 30
0.0
 11
-12890.808296882829
 21
6933.7228132495011
 31
0.0
  0
ARC
  5
4010
  8
0
 10
-12890.80526991992
 20
6933.7279937413196
 30
0.0
 40
0.0060000000001682
 50
120.29775676067911
 51
239.7022432437025
  0
LINE
  5
4011
  8
0
 10
-12890.808296882829
 20
6933.7331742331389
 30
0.0
 11
-12890.783242957001
 21
6933.7478132494998
 31
0.0
  0
ARC
  5
4012
  8
0
 10
-12890.78626991991
 20
6933.752993741321
 30
0.0
 40
0.0060000000001682
 50
300.29775675629759
 51
59.7022432393209
  0
LINE
  5
4013
  8
0
 10
-12890.783242957001
 20
6933.7581742331377
 30
0.0
 11
-12890.808296882829
 21
6933.7728132495013
 31
0.0
  0
ARC
  5
4014
  8
0
 10
-12890.80526991992
 20
6933.7779937413197
 30
0.0
 40
0.005999999999383
 50
120.29775676067911
 51
239.70224323932089
  0
LINE
  5
4015
  8
0
 10
-12890.808296882829
 20
6933.7831742331391
 30
0.0
 11
-12890.783242957001
 21
6933.7978132495009
 31
0.0
  0
ARC
  5
4016
  8
0
 10
-12890.78626991991
 20
6933.8029937413203
 30
0.0
 40
0.005999999999383
 50
300.29775676067908
 51
59.702243243702462
  0
LINE
  5
4017
  8
0
 10
-12890.783242957001
 20
6933.8081742331378
 30
0.0
 11
-12890.808296882829
 21
6933.8228132494996
 31
0.0
  0
ARC
  5
4018
  8
0
 10
-12890.80526991992
 20
6933.827993741319
 30
0.0
 40
0.005999999999383
 50
120.2977567562975
 51
239.70224323932089
  0
LINE
  5
4019
  8
0
 10
-12890.808296882829
 20
6933.8331742331393
 30
0.0
 11
-12890.783242957001
 21
6933.8478132495011
 31
0.0
  0
ARC
  5
401A
  8
0
 10
-12890.78626991991
 20
6933.8529937413223
 30
0.0
 40
0.0060000000001682
 50
300.29775675629759
 51
59.7022432393209
  0
LINE
  5
401B
  8
0
 10
-12890.783242957001
 20
6933.858174233138
 30
0.0
 11
-12890.808296882829
 21
6933.8728132494998
 31
0.0
  0
ARC
  5
401C
  8
0
 10
-12890.80526991992
 20
6933.877993741321
 30
0.0
 40
0.0060000000001682
 50
120.29775676067911
 51
239.7022432437025
  0
LINE
  5
401D
  8
0
 10
-12890.808296882829
 20
6933.8831742331386
 30
0.0
 11
-12890.783242957001
 21
6933.8978132495013
 31
0.0
  0
ARC
  5
401E
  8
0
 10
-12890.78626991992
 20
6933.9029937413188
 30
0.0
 40
0.0059999999995153
 50
300.29775678005819
 51
355.5882742237863
  0
ARC
  5
401F
  8
0
 10
-12890.77330843852
 20
6933.9019937413186
 30
0.0
 40
0.0070000000012098
 50
90.0
 51
175.58827421237021
  0
LINE
  5
4020
  8
0
 10
-12890.77330843852
 20
6933.90899374132
 30
0.0
 11
-12890.71026991992
 21
6933.90899374132
 31
0.0
  0
LINE
  5
4021
  8
0
 10
-12890.71026991992
 20
6933.90899374132
 30
0.0
 11
-12890.660269919919
 21
6933.8589937413208
 31
0.0
  0
LINE
  5
4022
  8
0
 10
-12890.660269919919
 20
6933.8589937413208
 30
0.0
 11
-12890.660269919919
 21
6933.2989937413204
 31
0.0
  0
ARC
  5
4023
  8
0
 10
-12890.67026991992
 20
6933.2989937413204
 30
0.0
 40
0.0100000000002183
 50
270.0
 51
359.99999999478899
  0
LINE
  5
4024
  8
0
 10
-12890.67026991992
 20
6933.2889937413202
 30
0.0
 11
-12890.900269919921
 21
6933.2889937413202
 31
0.0
  0
ARC
  5
4025
  8
0
 10
-12890.900269919921
 20
6933.1639937413202
 30
0.0
 40
0.125
 50
90.0
 51
180.0
  0
LINE
  5
4026
  8
0
 10
-12891.025269919921
 20
6933.1639937413202
 30
0.0
 11
-12891.025269919921
 21
6932.5789937413201
 31
0.0
  0
ARC
  5
4027
  8
0
 10
-12890.900269919921
 20
6932.5789937413201
 30
0.0
 40
0.125
 50
180.0
 51
270.0
  0
LINE
  5
4028
  8
0
 10
-12890.900269919921
 20
6932.4539937413201
 30
0.0
 11
-12890.64976991991
 21
6932.4539937413201
 31
0.0
  0
ARC
  5
4029
  8
0
 10
-12890.649769919921
 20
6932.4469937413196
 30
0.0
 40
0.0070000000005166
 50
0.0
 51
89.999999985111373
  0
LINE
  5
402A
  8
0
 10
-12890.64276991991
 20
6932.4469937413196
 30
0.0
 11
-12890.64276991991
 21
6932.3859937413199
 31
0.0
  0
ARC
  5
402B
  8
0
 10
-12890.649769919921
 20
6932.3859937413199
 30
0.0
 40
0.0070000000014261
 50
270.0000000148886
 51
0.0
  0
LINE
  5
402C
  8
0
 10
-12890.64976991991
 20
6932.3789937413203
 30
0.0
 11
-12890.900269919921
 21
6932.3789937413203
 31
0.0
  0
ARC
  5
402D
  8
0
 10
-12890.900269919921
 20
6932.2539937413194
 30
0.0
 40
0.125
 50
90.0
 51
180.0
  0
LINE
  5
402E
  8
0
 10
-12891.025269919921
 20
6932.2539937413194
 30
0.0
 11
-12891.025269919921
 21
6931.53399374132
 31
0.0
  0
ARC
  5
402F
  8
0
 10
-12890.900269919921
 20
6931.53399374132
 30
0.0
 40
0.125
 50
180.0
 51
270.0
  0
LINE
  5
4030
  8
0
 10
-12890.900269919921
 20
6931.40899374132
 30
0.0
 11
-12888.65026991991
 21
6931.40899374132
 31
0.0
  0
ARC
  5
4031
  8
0
 10
-12888.65026991991
 20
6931.53399374132
 30
0.0
 40
0.125
 50
270.0
 51
0.0
  0
LINE
  5
4032
  8
0
 10
-12888.52526991991
 20
6931.53399374132
 30
0.0
 11
-12888.52526991991
 21
6932.2539937413194
 31
0.0
  0
ARC
  5
4033
  8
0
 10
-12888.65026991991
 20
6932.2539937413194
 30
0.0
 40
0.125
 50
0.0
 51
90.0
  0
LINE
  5
4034
  8
0
 10
-12888.65026991991
 20
6932.3789937413203
 30
0.0
 11
-12888.90076991991
 21
6932.3789937413203
 31
0.0
  0
ARC
  5
4035
  8
0
 10
-12888.90076991991
 20
6932.3859937413199
 30
0.0
 40
0.0070000000005166
 50
180.0
 51
269.99999998511129
  0
LINE
  5
4036
  8
0
 10
-12888.90776991991
 20
6932.3859937413199
 30
0.0
 11
-12888.90776991991
 21
6932.4469937413196
 31
0.0
  0
ARC
  5
4037
  8
0
 10
-12888.90076991991
 20
6932.4469937413196
 30
0.0
 40
0.0070000000014261
 50
90.000000014888613
 51
180.0
  0
LINE
  5
4038
  8
0
 10
-12888.90076991991
 20
6932.4539937413201
 30
0.0
 11
-12888.65026991991
 21
6932.4539937413201
 31
0.0
  0
ARC
  5
4039
  8
0
 10
-12888.65026991991
 20
6932.5789937413201
 30
0.0
 40
0.125
 50
270.0
 51
0.0
  0
LINE
  5
403A
  8
0
 10
-12888.52526991991
 20
6932.5789937413201
 30
0.0
 11
-12888.52526991991
 21
6933.1639937413202
 31
0.0
  0
ARC
  5
403B
  8
0
 10
-12888.65026991991
 20
6933.1639937413202
 30
0.0
 40
0.125
 50
0.0
 51
90.0
  0
LINE
  5
403C
  8
0
 10
-12888.65026991991
 20
6933.2889937413202
 30
0.0
 11
-12888.88026991991
 21
6933.2889937413202
 31
0.0
  0
ARC
  5
403D
  8
0
 10
-12888.88026991991
 20
6933.2989937413204
 30
0.0
 40
0.0100000000002183
 50
180.00000000521101
 51
270.0
  0
LINE
  5
403E
  8
0
 10
-12888.89026991991
 20
6933.2989937413204
 30
0.0
 11
-12888.89026991991
 21
6933.8589937413208
 31
0.0
  0
LINE
  5
403F
  8
0
 10
-12888.89026991991
 20
6933.8589937413208
 30
0.0
 11
-12888.84026991992
 21
6933.90899374132
 31
0.0
  0
LINE
  5
4040
  8
0
 10
-12888.84026991992
 20
6933.90899374132
 30
0.0
 11
-12888.777231401309
 21
6933.90899374132
 31
0.0
  0
ARC
  5
4041
  8
0
 10
-12888.777231401309
 20
6933.9019937413186
 30
0.0
 40
0.0070000000005166
 50
4.4117257876297762
 51
90.0
  0
ARC
  5
4042
  8
0
 10
-12888.76426991991
 20
6933.9029937413188
 30
0.0
 40
0.0059999999996416
 50
184.4117257762137
 51
239.70224321994181
  0
LINE
  5
4043
  8
0
 10
-12888.76729688283
 20
6933.8978132495013
 30
0.0
 11
-12888.742242957
 21
6933.8831742331386
 31
0.0
  0
ARC
  5
4044
  8
0
 10
-12888.745269919909
 20
6933.877993741321
 30
0.0
 40
0.005999999999383
 50
300.29775675629759
 51
59.7022432393209
  0
LINE
  5
4045
  8
0
 10
-12888.742242957
 20
6933.8728132494998
 30
0.0
 11
-12888.76729688283
 21
6933.858174233138
 31
0.0
  0
ARC
  5
4046
  8
0
 10
-12888.76426991992
 20
6933.8529937413223
 30
0.0
 40
0.005999999999383
 50
120.29775676067911
 51
239.7022432437025
  0
LINE
  5
4047
  8
0
 10
-12888.76729688283
 20
6933.8478132495011
 30
0.0
 11
-12888.742242957
 21
6933.8331742331393
 31
0.0
  0
ARC
  5
4048
  8
0
 10
-12888.745269919909
 20
6933.827993741319
 30
0.0
 40
0.0060000000001682
 50
300.29775676067908
 51
59.702243243702462
  0
LINE
  5
4049
  8
0
 10
-12888.742242957
 20
6933.8228132494996
 30
0.0
 11
-12888.76729688283
 21
6933.8081742331378
 31
0.0
  0
ARC
  5
404A
  8
0
 10
-12888.76426991992
 20
6933.8029937413203
 30
0.0
 40
0.0060000000001682
 50
120.2977567562975
 51
239.70224323932089
  0
LINE
  5
404B
  8
0
 10
-12888.76729688283
 20
6933.7978132495009
 30
0.0
 11
-12888.742242957
 21
6933.7831742331391
 31
0.0
  0
ARC
  5
404C
  8
0
 10
-12888.745269919909
 20
6933.7779937413197
 30
0.0
 40
0.005999999999383
 50
300.29775676067908
 51
59.7022432393209
  0
LINE
  5
404D
  8
0
 10
-12888.742242957
 20
6933.7728132495013
 30
0.0
 11
-12888.76729688283
 21
6933.7581742331377
 31
0.0
  0
ARC
  5
404E
  8
0
 10
-12888.76426991992
 20
6933.752993741321
 30
0.0
 40
0.005999999999383
 50
120.29775676067911
 51
239.7022432437025
  0
LINE
  5
404F
  8
0
 10
-12888.76729688283
 20
6933.7478132494998
 30
0.0
 11
-12888.742242957
 21
6933.7331742331389
 31
0.0
  0
ARC
  5
4050
  8
0
 10
-12888.745269919909
 20
6933.7279937413196
 30
0.0
 40
0.005999999999383
 50
300.29775675629759
 51
59.7022432393209
  0
LINE
  5
4051
  8
0
 10
-12888.742242957
 20
6933.7228132495011
 30
0.0
 11
-12888.76729688283
 21
6933.7081742331393
 31
0.0
  0
ARC
  5
4052
  8
0
 10
-12888.76426991992
 20
6933.702993741319
 30
0.0
 40
0.0060000000001682
 50
120.2977567562975
 51
239.70224323932089
  0
LINE
  5
4053
  8
0
 10
-12888.76729688283
 20
6933.6978132495015
 30
0.0
 11
-12888.742242957
 21
6933.6831742331378
 31
0.0
  0
ARC
  5
4054
  8
0
 10
-12888.745269919909
 20
6933.6779937413194
 30
0.0
 40
0.0060000000001682
 50
300.29775676067908
 51
59.702243243702462
  0
LINE
  5
4055
  8
0
 10
-12888.742242957
 20
6933.6728132495009
 30
0.0
 11
-12888.76729688283
 21
6933.6581742331391
 31
0.0
  0
ARC
  5
4056
  8
0
 10
-12888.76426991992
 20
6933.6529937413197
 30
0.0
 40
0.005999999999383
 50
120.29775676067911
 51
239.70224323932089
  0
LINE
  5
4057
  8
0
 10
-12888.76729688283
 20
6933.6478132495022
 30
0.0
 11
-12888.742242957
 21
6933.6331742331377
 31
0.0
  0
ARC
  5
4058
  8
0
 10
-12888.745269919909
 20
6933.627993741321
 30
0.0
 40
0.005999999999383
 50
300.29775675629759
 51
59.7022432393209
  0
LINE
  5
4059
  8
0
 10
-12888.742242957
 20
6933.6228132495007
 30
0.0
 11
-12888.76729688283
 21
6933.6081742331389
 31
0.0
  0
ARC
  5
405A
  8
0
 10
-12888.76426991992
 20
6933.6029937413196
 30
0.0
 40
0.005999999999383
 50
120.29775676067911
 51
239.7022432437025
  0
LINE
  5
405B
  8
0
 10
-12888.76729688283
 20
6933.597813249502
 30
0.0
 11
-12888.742242957
 21
6933.5831742331384
 31
0.0
  0
ARC
  5
405C
  8
0
 10
-12888.745269919909
 20
6933.5779937413199
 30
0.0
 40
0.0060000000001682
 50
300.29775676067908
 51
59.702243243702462
  0
LINE
  5
405D
  8
0
 10
-12888.742242957
 20
6933.5728132495015
 30
0.0
 11
-12888.76729688283
 21
6933.5581742331378
 31
0.0
  0
ARC
  5
405E
  8
0
 10
-12888.76426991992
 20
6933.5529937413203
 30
0.0
 40
0.0060000000001682
 50
120.2977567562975
 51
239.70224323932089
  0
LINE
  5
405F
  8
0
 10
-12888.76729688283
 20
6933.5478132495009
 30
0.0
 11
-12888.742242957
 21
6933.5331742331373
 31
0.0
  0
ARC
  5
4060
  8
0
 10
-12888.745269919909
 20
6933.5279937413206
 30
0.0
 40
0.005999999999383
 50
300.29775676067908
 51
59.7022432393209
  0
LINE
  5
4061
  8
0
 10
-12888.742242957
 20
6933.5228132495022
 30
0.0
 11
-12888.76729688283
 21
6933.5081742331377
 31
0.0
  0
ARC
  5
4062
  8
0
 10
-12888.76426991992
 20
6933.5029937413201
 30
0.0
 40
0.005999999999383
 50
120.29775676067911
 51
239.7022432437025
  0
LINE
  5
4063
  8
0
 10
-12888.76729688283
 20
6933.4978132495007
 30
0.0
 11
-12888.742242957
 21
6933.483174233138
 31
0.0
  0
ARC
  5
4064
  8
0
 10
-12888.745269919909
 20
6933.4779937413196
 30
0.0
 40
0.005999999999383
 50
300.29775675629759
 51
59.7022432393209
  0
LINE
  5
4065
  8
0
 10
-12888.742242957
 20
6933.4728132495011
 30
0.0
 11
-12888.76729688283
 21
6933.4581742331384
 31
0.0
  0
ARC
  5
4066
  8
0
 10
-12888.76426991992
 20
6933.452993741319
 30
0.0
 40
0.0060000000001682
 50
120.2977567562975
 51
239.70224323932089
  0
LINE
  5
4067
  8
0
 10
-12888.76729688283
 20
6933.4478132494996
 30
0.0
 11
-12888.742242957
 21
6933.4331742331378
 31
0.0
  0
ARC
  5
4068
  8
0
 10
-12888.745269919909
 20
6933.4279937413203
 30
0.0
 40
0.0060000000001682
 50
300.29775676067908
 51
59.702243243702462
  0
LINE
  5
4069
  8
0
 10
-12888.742242957
 20
6933.4228132495009
 30
0.0
 11
-12888.74357035844
 21
6933.4220376484418
 31
0.0
  0
ARC
  5
406A
  8
0
 10
-12888.7400389017
 20
6933.4159937413197
 30
0.0
 40
0.0069999999994772
 50
120.2977567683585
 51
270.0
  0
LINE
  5
406B
  8
0
 10
-12888.7400389017
 20
6933.40899374132
 30
0.0
 11
-12888.5468943366
 21
6933.40899374132
 31
0.0
  0
LINE
  5
406C
  8
0
 10
-12888.5468943366
 20
6933.40899374132
 30
0.0
 11
-12888.52324295699
 21
6933.4228132495009
 31
0.0
  0
ARC
  5
406D
  8
0
 10
-12888.52626991991
 20
6933.4279937413203
 30
0.0
 40
0.005999999999383
 50
300.29775676067908
 51
59.702243243702462
  0
LINE
  5
406E
  8
0
 10
-12888.52324295699
 20
6933.4331742331378
 30
0.0
 11
-12888.54829688284
 21
6933.4478132494996
 31
0.0
  0
ARC
  5
406F
  8
0
 10
-12888.54526991991
 20
6933.452993741319
 30
0.0
 40
0.005999999999383
 50
120.2977567562975
 51
239.70224323932089
  0
LINE
  5
4070
  8
0
 10
-12888.54829688284
 20
6933.4581742331384
 30
0.0
 11
-12888.52324295699
 21
6933.4728132495011
 31
0.0
  0
ARC
  5
4071
  8
0
 10
-12888.52626991991
 20
6933.4779937413196
 30
0.0
 40
0.0060000000001682
 50
300.29775675629759
 51
59.7022432393209
  0
LINE
  5
4072
  8
0
 10
-12888.52324295699
 20
6933.483174233138
 30
0.0
 11
-12888.54829688284
 21
6933.4978132495007
 31
0.0
  0
ARC
  5
4073
  8
0
 10
-12888.54526991991
 20
6933.5029937413201
 30
0.0
 40
0.0060000000001682
 50
120.29775676067911
 51
239.7022432437025
  0
LINE
  5
4074
  8
0
 10
-12888.54829688284
 20
6933.5081742331377
 30
0.0
 11
-12888.52324295699
 21
6933.5228132495022
 31
0.0
  0
ARC
  5
4075
  8
0
 10
-12888.52626991991
 20
6933.5279937413206
 30
0.0
 40
0.005999999999383
 50
300.29775676067908
 51
59.7022432393209
  0
LINE
  5
4076
  8
0
 10
-12888.52324295699
 20
6933.5331742331373
 30
0.0
 11
-12888.54829688284
 21
6933.5478132495009
 31
0.0
  0
ARC
  5
4077
  8
0
 10
-12888.54526991991
 20
6933.5529937413203
 30
0.0
 40
0.005999999999383
 50
120.2977567562975
 51
239.70224323932089
  0
LINE
  5
4078
  8
0
 10
-12888.54829688284
 20
6933.5581742331378
 30
0.0
 11
-12888.52324295699
 21
6933.5728132495015
 31
0.0
  0
ARC
  5
4079
  8
0
 10
-12888.52626991991
 20
6933.5779937413199
 30
0.0
 40
0.005999999999383
 50
300.29775676067908
 51
59.702243243702462
  0
LINE
  5
407A
  8
0
 10
-12888.52324295699
 20
6933.5831742331384
 30
0.0
 11
-12888.54829688284
 21
6933.597813249502
 31
0.0
  0
ARC
  5
407B
  8
0
 10
-12888.54526991991
 20
6933.6029937413196
 30
0.0
 40
0.0060000000001682
 50
120.29775676067911
 51
239.7022432437025
  0
LINE
  5
407C
  8
0
 10
-12888.54829688284
 20
6933.6081742331389
 30
0.0
 11
-12888.52324295699
 21
6933.6228132495007
 31
0.0
  0
ARC
  5
407D
  8
0
 10
-12888.52626991991
 20
6933.627993741321
 30
0.0
 40
0.0060000000001682
 50
300.29775675629759
 51
59.7022432393209
  0
LINE
  5
407E
  8
0
 10
-12888.52324295699
 20
6933.6331742331377
 30
0.0
 11
-12888.54829688284
 21
6933.6478132495022
 31
0.0
  0
ARC
  5
407F
  8
0
 10
-12888.54526991991
 20
6933.6529937413197
 30
0.0
 40
0.005999999999383
 50
120.29775676067911
 51
239.70224323932089
  0
LINE
  5
4080
  8
0
 10
-12888.54829688284
 20
6933.6581742331391
 30
0.0
 11
-12888.52324295699
 21
6933.6728132495009
 31
0.0
  0
ARC
  5
4081
  8
0
 10
-12888.52626991991
 20
6933.6779937413194
 30
0.0
 40
0.005999999999383
 50
300.29775676067908
 51
59.702243243702462
  0
LINE
  5
4082
  8
0
 10
-12888.52324295699
 20
6933.6831742331378
 30
0.0
 11
-12888.54829688284
 21
6933.6978132495015
 31
0.0
  0
ARC
  5
4083
  8
0
 10
-12888.54526991991
 20
6933.702993741319
 30
0.0
 40
0.005999999999383
 50
120.2977567562975
 51
239.70224323932089
  0
LINE
  5
4084
  8
0
 10
-12888.54829688284
 20
6933.7081742331393
 30
0.0
 11
-12888.52324295699
 21
6933.7228132495011
 31
0.0
  0
ARC
  5
4085
  8
0
 10
-12888.52626991991
 20
6933.7279937413196
 30
0.0
 40
0.0060000000001682
 50
300.29775675629759
 51
59.7022432393209
  0
LINE
  5
4086
  8
0
 10
-12888.52324295699
 20
6933.7331742331389
 30
0.0
 11
-12888.54829688284
 21
6933.7478132494998
 31
0.0
  0
ARC
  5
4087
  8
0
 10
-12888.54526991991
 20
6933.752993741321
 30
0.0
 40
0.0060000000001682
 50
120.29775676067911
 51
239.7022432437025
  0
LINE
  5
4088
  8
0
 10
-12888.54829688284
 20
6933.7581742331377
 30
0.0
 11
-12888.52324295699
 21
6933.7728132495013
 31
0.0
  0
ARC
  5
4089
  8
0
 10
-12888.52626991991
 20
6933.7779937413197
 30
0.0
 40
0.005999999999383
 50
300.29775676067908
 51
59.7022432393209
  0
LINE
  5
408A
  8
0
 10
-12888.52324295699
 20
6933.7831742331391
 30
0.0
 11
-12888.54829688284
 21
6933.7978132495009
 31
0.0
  0
ARC
  5
408B
  8
0
 10
-12888.54526991991
 20
6933.8029937413203
 30
0.0
 40
0.005999999999383
 50
120.2977567562975
 51
239.70224323932089
  0
LINE
  5
408C
  8
0
 10
-12888.54829688284
 20
6933.8081742331378
 30
0.0
 11
-12888.52324295699
 21
6933.8228132494996
 31
0.0
  0
ARC
  5
408D
  8
0
 10
-12888.52626991991
 20
6933.827993741319
 30
0.0
 40
0.005999999999383
 50
300.29775676067908
 51
59.702243243702462
  0
LINE
  5
408E
  8
0
 10
-12888.52324295699
 20
6933.8331742331393
 30
0.0
 11
-12888.54829688284
 21
6933.8478132495011
 31
0.0
  0
ARC
  5
408F
  8
0
 10
-12888.54526991991
 20
6933.8529937413223
 30
0.0
 40
0.0060000000001682
 50
120.29775676067911
 51
239.7022432437025
  0
LINE
  5
4090
  8
0
 10
-12888.54829688284
 20
6933.858174233138
 30
0.0
 11
-12888.52324295699
 21
6933.8728132494998
 31
0.0
  0
ARC
  5
4091
  8
0
 10
-12888.52626991991
 20
6933.877993741321
 30
0.0
 40
0.0060000000001682
 50
300.29775675629759
 51
59.7022432393209
  0
LINE
  5
4092
  8
0
 10
-12888.52324295699
 20
6933.8831742331386
 30
0.0
 11
-12888.54829688284
 21
6933.8978132495013
 31
0.0
  0
ARC
  5
4093
  8
0
 10
-12888.54526991991
 20
6933.9029937413197
 30
0.0
 40
0.0060000000003006
 50
90.000000017370056
 51
239.7022432243233
  0
LINE
  5
4094
  8
0
 10
-12888.54526991991
 20
6933.90899374132
 30
0.0
 11
-12888.410269919919
 21
6933.90899374132
 31
0.0
  0
ARC
  5
4095
  8
0
 10
-12888.410269919919
 20
6933.8989937413198
 30
0.0
 40
0.0100000000002183
 50
0.0
 51
90.0
  0
LINE
  5
4096
  8
0
 10
-12888.40026991991
 20
6933.8989937413198
 30
0.0
 11
-12888.40026991991
 21
6928.9189937413194
 31
0.0
  0
ARC
  5
4097
  8
0
 10
-12888.41026991991
 20
6928.9189937413194
 30
0.0
 40
0.0099999999983993
 50
269.99999998957787
 51
0.0
  0
LINE
  5
4098
  8
0
 10
-12888.410269919919
 20
6928.908993741321
 30
0.0
 11
-12888.57292892682
 21
6928.908993741321
 31
0.0
  0
ARC
  5
4099
  8
0
 10
-12888.57292892682
 20
6928.9189937413212
 30
0.0
 40
0.0100000000011278
 50
195.9989558666548
 51
270.00000001042201
  0
LINE
  5
409A
  8
0
 10
-12888.582541594011
 20
6928.9162375429396
 30
0.0
 11
-12888.614110800479
 21
6929.026340022293
 31
0.0
  0
ARC
  5
409B
  8
0
 10
-12888.60834320016
 20
6929.0279937413197
 30
0.0
 40
0.0060000000007213
 50
90.0
 51
195.99895585209421
  0
LINE
  5
409C
  8
0
 10
-12888.60834320016
 20
6929.03399374132
 30
0.0
 11
-12888.535269919919
 21
6929.03399374132
 31
0.0
  0
ARC
  5
409D
  8
0
 10
-12888.53526991991
 20
6929.0439937413203
 30
0.0
 40
0.0099999999993088
 50
269.99999998957787
 51
0.0
  0
LINE
  5
409E
  8
0
 10
-12888.52526991991
 20
6929.0439937413203
 30
0.0
 11
-12888.52526991991
 21
6930.4339937413206
 31
0.0
  0
ARC
  5
409F
  8
0
 10
-12888.65026991991
 20
6930.4339937413206
 30
0.0
 40
0.125
 50
0.0
 51
90.0
  0
LINE
  5
40A0
  8
0
 10
-12888.65026991991
 20
6930.5589937413197
 30
0.0
 11
-12889.76200342075
 21
6930.5589937413197
 31
0.0
  0
ARC
  5
40A1
  8
0
 10
-12889.76200342075
 20
6930.5659937413211
 30
0.0
 40
0.0070000000005166
 50
207.8181392896409
 51
270.0
  0
ARC
  5
40A2
  8
0
 10
-12889.775269919921
 20
6930.5589937413188
 30
0.0
 40
0.0080000000001141
 50
27.818139288908942
 51
152.18186071109099
  0
ARC
  5
40A3
  8
0
 10
-12889.788536419081
 20
6930.5659937413211
 30
0.0
 40
0.0070000000006612
 50
270.0
 51
332.18186071035899
  0
LINE
  5
40A4
  8
0
 10
-12889.788536419081
 20
6930.5589937413197
 30
0.0
 11
-12890.900269919921
 21
6930.5589937413197
 31
0.0
  0
ARC
  5
40A5
  8
0
 10
-12890.900269919921
 20
6930.4339937413206
 30
0.0
 40
0.125
 50
90.0
 51
180.0
  0
LINE
  5
40A6
  8
0
 10
-12891.025269919921
 20
6930.4339937413206
 30
0.0
 11
-12891.025269919921
 21
6929.0439937413203
 31
0.0
  0
ARC
  5
40A7
  8
0
 10
-12891.015269919921
 20
6929.0439937413203
 30
0.0
 40
0.0099999999983993
 50
180.0
 51
270.00000001042201
  0
LINE
  5
40A8
  8
0
 10
-12891.015269919921
 20
6929.03399374132
 30
0.0
 11
-12890.942196639669
 21
6929.03399374132
 31
0.0
  0
ARC
  5
40A9
  8
0
 10
-12890.942196639669
 20
6929.0279937413197
 30
0.0
 40
0.0060000000003129
 50
344.00104414790582
 51
90.0
  0
LINE
  5
40AA
  8
0
 10
-12890.93642903935
 20
6929.026340022293
 30
0.0
 11
-12890.96799824582
 21
6928.9162375429396
 31
0.0
  0
ARC
  5
40AB
  8
0
 10
-12890.977610913011
 20
6928.9189937413212
 30
0.0
 40
0.0100000000000386
 50
269.99999998957787
 51
344.0010441333452
  0
LINE
  5
40AC
  8
0
 10
-12890.977610913011
 20
6928.908993741321
 30
0.0
 11
-12891.140269919921
 21
6928.908993741321
 31
0.0
  0
ARC
  5
40AD
  8
0
 10
-12891.140269919921
 20
6928.9189937413194
 30
0.0
 40
0.0099999999993088
 50
180.0
 51
270.00000001042201
  0
LINE
  5
40AE
  8
0
 10
-12891.15026991991
 20
6928.9189937413194
 30
0.0
 11
-12891.15026991991
 21
6933.8989937413198
 31
0.0
  0
ARC
  5
40AF
  8
0
 10
-12891.140269919921
 20
6933.8989937413198
 30
0.0
 40
0.0100000000002183
 50
90.0
 51
180.0
  0
LINE
  5
40B0
  8
0
 10
-12891.140269919921
 20
6933.90899374132
 30
0.0
 11
-12891.00526991991
 21
6933.90899374132
 31
0.0
  0
ARC
  5
40B1
  8
0
 10
-12890.01526991991
 20
6929.3389937413194
 30
0.0
 40
0.0100000000002183
 50
90.0
 51
180.0
  0
LINE
  5
40B2
  8
0
 10
-12890.025269919921
 20
6929.3389937413194
 30
0.0
 11
-12890.025269919921
 21
6928.8589937413208
 31
0.0
  0
ARC
  5
40B3
  8
0
 10
-12890.03526991991
 20
6928.8589937413208
 30
0.0
 40
0.0099999999983993
 50
269.99999998957787
 51
0.0
  0
LINE
  5
40B4
  8
0
 10
-12890.03526991991
 20
6928.8489937413196
 30
0.0
 11
-12891.140269919921
 21
6928.8489937413196
 31
0.0
  0
ARC
  5
40B5
  8
0
 10
-12891.140269919921
 20
6928.8589937413208
 30
0.0
 40
0.0100000000002183
 50
180.0
 51
270.00000001042201
  0
LINE
  5
40B6
  8
0
 10
-12891.15026991991
 20
6928.8589937413208
 30
0.0
 11
-12891.15026991991
 21
6928.8989937413198
 31
0.0
  0
ARC
  5
40B7
  8
0
 10
-12891.140269919921
 20
6928.8989937413198
 30
0.0
 40
0.0100000000002183
 50
90.0
 51
180.0
  0
LINE
  5
40B8
  8
0
 10
-12891.140269919921
 20
6928.908993741321
 30
0.0
 11
-12890.934734521679
 21
6928.908993741321
 31
0.0
  0
ARC
  5
40B9
  8
0
 10
-12890.934734521679
 20
6928.9189937413194
 30
0.0
 40
0.0099999999993088
 50
270.0
 51
0.0
  0
LINE
  5
40BA
  8
0
 10
-12890.924734521681
 20
6928.9189937413194
 30
0.0
 11
-12890.924734521681
 21
6929.0284937413198
 31
0.0
  0
ARC
  5
40BB
  8
0
 10
-12890.93473452169
 20
6929.0284937413198
 30
0.0
 40
0.0100000000020373
 50
0.0
 51
89.999999989577944
  0
LINE
  5
40BC
  8
0
 10
-12890.934734521679
 20
6929.0384937413201
 30
0.0
 11
-12890.98273452168
 21
6929.0384937413201
 31
0.0
  0
LINE
  5
40BD
  8
0
 10
-12890.98273452168
 20
6929.0384937413201
 30
0.0
 11
-12890.98273452168
 21
6929.0449937413196
 31
0.0
  0
LINE
  5
40BE
  8
0
 10
-12890.98273452168
 20
6929.0449937413196
 30
0.0
 11
-12890.949555889531
 21
6929.2128890609556
 31
0.0
  0
ARC
  5
40BF
  8
0
 10
-12890.939745609039
 20
6929.2109504024611
 30
0.0
 40
0.010000000000487
 50
90.0
 51
168.8215227032988
  0
LINE
  5
40C0
  8
0
 10
-12890.939745609039
 20
6929.2209504024631
 30
0.0
 11
-12890.87473452168
 21
6929.2209504024631
 31
0.0
  0
ARC
  5
40C1
  8
0
 10
-12890.87473452168
 20
6929.210950402462
 30
0.0
 40
0.0100000000002183
 50
0.0
 51
90.0
  0
LINE
  5
40C2
  8
0
 10
-12890.86473452168
 20
6929.210950402462
 30
0.0
 11
-12890.86473452168
 21
6928.9189937413194
 31
0.0
  0
ARC
  5
40C3
  8
0
 10
-12890.85473452169
 20
6928.9189937413194
 30
0.0
 40
0.0099999999983993
 50
180.0
 51
270.00000001042201
  0
LINE
  5
40C4
  8
0
 10
-12890.854734521679
 20
6928.908993741321
 30
0.0
 11
-12890.09526991991
 21
6928.908993741321
 31
0.0
  0
ARC
  5
40C5
  8
0
 10
-12890.09526991991
 20
6928.9189937413194
 30
0.0
 40
0.0099999999993088
 50
270.0
 51
0.0
  0
LINE
  5
40C6
  8
0
 10
-12890.085269919909
 20
6928.9189937413194
 30
0.0
 11
-12890.085269919909
 21
6929.3989937413198
 31
0.0
  0
ARC
  5
40C7
  8
0
 10
-12890.075269919909
 20
6929.3989937413198
 30
0.0
 40
0.0100000000002183
 50
90.0
 51
180.0
  0
LINE
  5
40C8
  8
0
 10
-12890.075269919909
 20
6929.40899374132
 30
0.0
 11
-12889.47526991992
 21
6929.40899374132
 31
0.0
  0
ARC
  5
40C9
  8
0
 10
-12889.47526991992
 20
6929.3989937413198
 30
0.0
 40
0.0100000000002183
 50
0.0
 51
89.999999989577944
  0
LINE
  5
40CA
  8
0
 10
-12889.46526991991
 20
6929.3989937413198
 30
0.0
 11
-12889.46526991991
 21
6928.9189937413194
 31
0.0
  0
ARC
  5
40CB
  8
0
 10
-12889.455269919919
 20
6928.9189937413194
 30
0.0
 40
0.0100000000002183
 50
180.0
 51
270.0
  0
LINE
  5
40CC
  8
0
 10
-12889.455269919919
 20
6928.908993741321
 30
0.0
 11
-12888.69580531815
 21
6928.908993741321
 31
0.0
  0
ARC
  5
40CD
  8
0
 10
-12888.695805318141
 20
6928.9189937413194
 30
0.0
 40
0.0099999999993088
 50
269.99999998957787
 51
0.0
  0
LINE
  5
40CE
  8
0
 10
-12888.68580531814
 20
6928.9189937413194
 30
0.0
 11
-12888.68580531814
 21
6929.210950402462
 31
0.0
  0
ARC
  5
40CF
  8
0
 10
-12888.675805318149
 20
6929.210950402462
 30
0.0
 40
0.0099999999983993
 50
89.999999989577944
 51
180.0
  0
LINE
  5
40D0
  8
0
 10
-12888.675805318149
 20
6929.2209504024631
 30
0.0
 11
-12888.61079423079
 21
6929.2209504024631
 31
0.0
  0
ARC
  5
40D1
  8
0
 10
-12888.61079423079
 20
6929.2109504024611
 30
0.0
 40
0.0100000000011278
 50
11.178477296701191
 51
90.0
  0
LINE
  5
40D2
  8
0
 10
-12888.600983950309
 20
6929.2128890609556
 30
0.0
 11
-12888.56780531814
 21
6929.0449937413196
 31
0.0
  0
LINE
  5
40D3
  8
0
 10
-12888.56780531814
 20
6929.0449937413196
 30
0.0
 11
-12888.56780531814
 21
6929.0384937413201
 31
0.0
  0
LINE
  5
40D4
  8
0
 10
-12888.56780531814
 20
6929.0384937413201
 30
0.0
 11
-12888.61580531815
 21
6929.0384937413201
 31
0.0
  0
ARC
  5
40D5
  8
0
 10
-12888.61580531815
 20
6929.0284937413198
 30
0.0
 40
0.0100000000002183
 50
90.0
 51
180.0
  0
LINE
  5
40D6
  8
0
 10
-12888.62580531815
 20
6929.0284937413198
 30
0.0
 11
-12888.62580531815
 21
6928.9189937413194
 31
0.0
  0
ARC
  5
40D7
  8
0
 10
-12888.61580531815
 20
6928.9189937413194
 30
0.0
 40
0.0100000000002183
 50
180.0
 51
270.0
  0
LINE
  5
40D8
  8
0
 10
-12888.61580531815
 20
6928.908993741321
 30
0.0
 11
-12888.410269919919
 21
6928.908993741321
 31
0.0
  0
ARC
  5
40D9
  8
0
 10
-12888.41026991991
 20
6928.8989937413198
 30
0.0
 40
0.0100000000002183
 50
0.0
 51
90.000000010422042
  0
LINE
  5
40DA
  8
0
 10
-12888.40026991991
 20
6928.8989937413198
 30
0.0
 11
-12888.40026991991
 21
6928.8589937413208
 31
0.0
  0
ARC
  5
40DB
  8
0
 10
-12888.410269919919
 20
6928.8589937413208
 30
0.0
 40
0.0100000000002183
 50
270.0
 51
0.0
  0
LINE
  5
40DC
  8
0
 10
-12888.410269919919
 20
6928.8489937413196
 30
0.0
 11
-12889.515269919921
 21
6928.8489937413196
 31
0.0
  0
ARC
  5
40DD
  8
0
 10
-12889.515269919921
 20
6928.8589937413208
 30
0.0
 40
0.0100000000002183
 50
180.0
 51
270.0
  0
LINE
  5
40DE
  8
0
 10
-12889.52526991991
 20
6928.8589937413208
 30
0.0
 11
-12889.52526991991
 21
6929.3389937413194
 31
0.0
  0
ARC
  5
40DF
  8
0
 10
-12889.535269919919
 20
6929.3389937413194
 30
0.0
 40
0.0100000000002183
 50
0.0
 51
90.0
  0
LINE
  5
40E0
  8
0
 10
-12889.535269919919
 20
6929.3489937413196
 30
0.0
 11
-12890.01526991991
 21
6929.3489937413196
 31
0.0
  0
ARC
  5
40E1
  8
0
 10
-12890.48976991991
 20
6930.8019937413201
 30
0.0
 40
0.0069999999996071
 50
0.0
 51
90.0
  0
LINE
  5
40E2
  8
0
 10
-12890.48976991991
 20
6930.8089937413197
 30
0.0
 11
-12890.600769919911
 21
6930.8089937413197
 31
0.0
  0
ARC
  5
40E3
  8
0
 10
-12890.600769919911
 20
6930.8019937413201
 30
0.0
 40
0.0069999999996071
 50
90.0
 51
180.0
  0
LINE
  5
40E4
  8
0
 10
-12890.60776991991
 20
6930.8019937413201
 30
0.0
 11
-12890.60776991991
 21
6930.7339937413199
 31
0.0
  0
ARC
  5
40E5
  8
0
 10
-12890.65776991991
 20
6930.7339937413199
 30
0.0
 40
0.0499999999992724
 50
270.0
 51
0.0
  0
LINE
  5
40E6
  8
0
 10
-12890.65776991991
 20
6930.6839937413197
 30
0.0
 11
-12890.975269919911
 21
6930.6839937413197
 31
0.0
  0
ARC
  5
40E7
  8
0
 10
-12890.975269919911
 20
6930.7339937413199
 30
0.0
 40
0.0500000000001819
 50
180.0
 51
270.0
  0
LINE
  5
40E8
  8
0
 10
-12891.025269919921
 20
6930.7339937413199
 30
0.0
 11
-12891.025269919921
 21
6931.2339937413199
 31
0.0
  0
ARC
  5
40E9
  8
0
 10
-12890.975269919911
 20
6931.2339937413199
 30
0.0
 40
0.0499999999992724
 50
90.0
 51
180.0
  0
LINE
  5
40EA
  8
0
 10
-12890.975269919911
 20
6931.28399374132
 30
0.0
 11
-12890.65776991991
 21
6931.28399374132
 31
0.0
  0
ARC
  5
40EB
  8
0
 10
-12890.65776991991
 20
6931.2339937413199
 30
0.0
 40
0.0500000000001819
 50
0.0
 51
90.0
  0
LINE
  5
40EC
  8
0
 10
-12890.60776991991
 20
6931.2339937413199
 30
0.0
 11
-12890.60776991991
 21
6931.1659937413197
 31
0.0
  0
ARC
  5
40ED
  8
0
 10
-12890.600769919911
 20
6931.1659937413197
 30
0.0
 40
0.0069999999996071
 50
180.0
 51
270.0
  0
LINE
  5
40EE
  8
0
 10
-12890.600769919911
 20
6931.15899374132
 30
0.0
 11
-12890.48976991991
 21
6931.15899374132
 31
0.0
  0
ARC
  5
40EF
  8
0
 10
-12890.48976991991
 20
6931.1659937413197
 30
0.0
 40
0.0069999999996071
 50
270.0
 51
0.0
  0
LINE
  5
40F0
  8
0
 10
-12890.48276991991
 20
6931.1659937413197
 30
0.0
 11
-12890.48276991991
 21
6931.2769937413186
 31
0.0
  0
ARC
  5
40F1
  8
0
 10
-12890.47576991992
 20
6931.2769937413186
 30
0.0
 40
0.0070000000014261
 50
90.000000014888613
 51
180.0
  0
LINE
  5
40F2
  8
0
 10
-12890.47576991992
 20
6931.28399374132
 30
0.0
 11
-12889.074769919909
 21
6931.28399374132
 31
0.0
  0
ARC
  5
40F3
  8
0
 10
-12889.07476991992
 20
6931.2769937413186
 30
0.0
 40
0.0070000000005166
 50
0.0
 51
89.999999985111373
  0
LINE
  5
40F4
  8
0
 10
-12889.06776991991
 20
6931.2769937413186
 30
0.0
 11
-12889.06776991991
 21
6931.1659937413197
 31
0.0
  0
ARC
  5
40F5
  8
0
 10
-12889.060769919921
 20
6931.1659937413197
 30
0.0
 40
0.0069999999996071
 50
180.0
 51
270.0
  0
LINE
  5
40F6
  8
0
 10
-12889.060769919921
 20
6931.15899374132
 30
0.0
 11
-12888.949769919909
 21
6931.15899374132
 31
0.0
  0
ARC
  5
40F7
  8
0
 10
-12888.949769919909
 20
6931.1659937413197
 30
0.0
 40
0.0069999999996071
 50
270.0
 51
0.0
  0
LINE
  5
40F8
  8
0
 10
-12888.94276991991
 20
6931.1659937413197
 30
0.0
 11
-12888.94276991991
 21
6931.2339937413199
 31
0.0
  0
ARC
  5
40F9
  8
0
 10
-12888.89276991991
 20
6931.2339937413199
 30
0.0
 40
0.0499999999992724
 50
90.0
 51
180.0
  0
LINE
  5
40FA
  8
0
 10
-12888.89276991991
 20
6931.28399374132
 30
0.0
 11
-12888.575269919909
 21
6931.28399374132
 31
0.0
  0
ARC
  5
40FB
  8
0
 10
-12888.575269919909
 20
6931.2339937413199
 30
0.0
 40
0.0500000000001819
 50
0.0
 51
90.0
  0
LINE
  5
40FC
  8
0
 10
-12888.52526991991
 20
6931.2339937413199
 30
0.0
 11
-12888.52526991991
 21
6930.7339937413199
 31
0.0
  0
ARC
  5
40FD
  8
0
 10
-12888.575269919909
 20
6930.7339937413199
 30
0.0
 40
0.0499999999992724
 50
270.0
 51
0.0
  0
LINE
  5
40FE
  8
0
 10
-12888.575269919909
 20
6930.6839937413197
 30
0.0
 11
-12888.89276991991
 21
6930.6839937413197
 31
0.0
  0
ARC
  5
40FF
  8
0
 10
-12888.89276991991
 20
6930.7339937413199
 30
0.0
 40
0.0500000000001819
 50
180.0
 51
270.0
  0
LINE
  5
4100
  8
0
 10
-12888.94276991991
 20
6930.7339937413199
 30
0.0
 11
-12888.94276991991
 21
6930.8019937413201
 31
0.0
  0
ARC
  5
4101
  8
0
 10
-12888.949769919909
 20
6930.8019937413201
 30
0.0
 40
0.0069999999996071
 50
0.0
 51
90.0
  0
LINE
  5
4102
  8
0
 10
-12888.949769919909
 20
6930.8089937413197
 30
0.0
 11
-12889.060769919921
 21
6930.8089937413197
 31
0.0
  0
ARC
  5
4103
  8
0
 10
-12889.060769919921
 20
6930.8019937413201
 30
0.0
 40
0.0069999999996071
 50
90.0
 51
180.0
  0
LINE
  5
4104
  8
0
 10
-12889.06776991991
 20
6930.8019937413201
 30
0.0
 11
-12889.06776991991
 21
6930.6909937413211
 31
0.0
  0
ARC
  5
4105
  8
0
 10
-12889.07476991992
 20
6930.6909937413211
 30
0.0
 40
0.0070000000014261
 50
270.0000000148886
 51
0.0
  0
LINE
  5
4106
  8
0
 10
-12889.074769919909
 20
6930.6839937413197
 30
0.0
 11
-12890.47576991992
 21
6930.6839937413197
 31
0.0
  0
ARC
  5
4107
  8
0
 10
-12890.47576991992
 20
6930.6909937413211
 30
0.0
 40
0.0070000000005166
 50
180.0
 51
269.99999998511129
  0
LINE
  5
4108
  8
0
 10
-12890.48276991991
 20
6930.6909937413211
 30
0.0
 11
-12890.48276991991
 21
6930.8019937413201
 31
0.0
  0
LINE
  5
4127
  8
0
 10
-12891.15026991991
 20
6928.7189937413204
 30
0.0
 11
-12891.15026991991
 21
6927.8575281131953
 31
0.0
  0
LINE
  5
4128
  8
0
 10
-12888.40026991991
 20
6928.7189937413204
 30
0.0
 11
-12888.40026991991
 21
6927.8575281131953
 31
0.0
  0
LINE
  5
4129
  8
0
 10
-12890.900269919921
 20
6928.1375281131959
 30
0.0
 11
-12890.2830751723
 21
6928.1375281131959
 31
0.0
  0
LINE
  5
412A
  8
0
 10
-12888.65026991991
 20
6928.1375281131959
 30
0.0
 11
-12889.26746466753
 21
6928.1375281131959
 31
0.0
  0
SOLID
  5
412B
  8
0
 10
-12890.900269919921
 20
6928.179194779862
 30
0.0
 11
-12890.900269919921
 21
6928.095861446528
 31
0.0
 12
-12891.15026991991
 22
6928.1375281131959
 32
0.0
 13
-12891.15026991991
 23
6928.1375281131959
 33
0.0
  0
SOLID
  5
412C
  8
0
 10
-12888.65026991991
 20
6928.179194779862
 30
0.0
 11
-12888.65026991991
 21
6928.095861446528
 31
0.0
 12
-12888.40026991991
 22
6928.1375281131959
 32
0.0
 13
-12888.40026991991
 23
6928.1375281131959
 33
0.0
  0
INSERT
  5
412D
  8
0
  2
*U38
 10
0.0
 20
0.0
 30
0.0
  0
LINE
  5
412E
  8
0
 10
-12891.28026991992
 20
6933.90899374132
 30
0.0
 11
-12892.17845951136
 21
6933.90899374132
 31
0.0
  0
LINE
  5
412F
  8
0
 10
-12891.28026991992
 20
6928.8489937413196
 30
0.0
 11
-12892.17845951136
 21
6928.8489937413196
 31
0.0
  0
LINE
  5
4130
  8
0
 10
-12891.89845951136
 20
6933.658993741321
 30
0.0
 11
-12891.89845951136
 21
6931.6543424793817
 31
0.0
  0
LINE
  5
4131
  8
0
 10
-12891.89845951136
 20
6929.0989937413196
 30
0.0
 11
-12891.89845951136
 21
6931.103645003258
 31
0.0
  0
SOLID
  5
4132
  8
0
 10
-12891.94012617802
 20
6933.658993741321
 30
0.0
 11
-12891.85679284469
 21
6933.658993741321
 31
0.0
 12
-12891.89845951136
 22
6933.90899374132
 32
0.0
 13
-12891.89845951136
 23
6933.90899374132
 33
0.0
  0
SOLID
  5
4133
  8
0
 10
-12891.94012617802
 20
6929.0989937413196
 30
0.0
 11
-12891.85679284469
 21
6929.0989937413196
 31
0.0
 12
-12891.89845951136
 22
6928.8489937413196
 32
0.0
 13
-12891.89845951136
 23
6928.8489937413196
 33
0.0
  0
INSERT
  5
4134
  8
0
  2
*U39
 10
0.0
 20
0.0
 30
0.0
  0
VIEWPORT
  5
2A7
 67
     1
  8
0
 10
8.3020836328376912
 20
5.3197043843596523
 30
0.0
 40
20.21539652302452
 41
11.112706891694289
 68
     1
 69
     1
1001
ACAD
1000
MVIEW
1002
{
1070
    16
1010
0.0
1020
0.0
1030
0.0
1010
0.0
1020
0.0
1030
1.0
1040
0.0
1040
11.112706891694289
1040
8.3020836328376912
1040
5.3197043843596523
1040
50.0
1040
0.0
1040
0.0
1070
     0
1070
   100
1070
     1
1070
     1
1070
     0
1070
     0
1070
     0
1070
     0
1040
0.0
1040
0.0
1040
0.0
1040
0.5
1040
0.5
1040
0.5
1040
0.5
1070
     0
1002
{
1002
}
1002
}
  0
INSERT
  5
145A
 67
     1
  8
0
  2
*U13
 10
0.0
 20
0.0
 30
0.0
  0
POLYLINE
  5
148B
 67
     1
  8
1-CR
 62
     6
 66
     1
 10
0.0
 20
0.0
 30
0.0
 70
     1
  0
VERTEX
  5
4158
 67
     1
  8
1-CR
 62
     6
 10
12.45807445272189
 20
1.8114688496959861
 30
0.0
  0
VERTEX
  5
4159
 67
     1
  8
1-CR
 62
     6
 10
14.783700779927139
 20
1.8114688496959861
 30
0.0
  0
VERTEX
  5
415A
 67
     1
  8
1-CR
 62
     6
 10
14.783700779927139
 20
1.125000003854963
 30
0.0
  0
VERTEX
  5
415B
 67
     1
  8
1-CR
 62
     6
 10
12.45807445272189
 20
1.125000003854963
 30
0.0
  0
SEQEND
  5
415C
 67
     1
  8
1-CR
 62
     6
  0
POLYLINE
  5
148C
 67
     1
  8
1-CR
 62
     6
 66
     1
 10
0.0
 20
0.0
 30
0.0
 70
     1
  0
VERTEX
  5
415D
 67
     1
  8
1-CR
 62
     6
 10
12.47369945272189
 20
1.7958438496959861
 30
0.0
  0
VERTEX
  5
415E
 67
     1
  8
1-CR
 62
     6
 10
14.768075779927139
 20
1.7958438496959861
 30
0.0
  0
VERTEX
  5
415F
 67
     1
  8
1-CR
 62
     6
 10
14.768075779927139
 20
1.140625003854963
 30
0.0
  0
VERTEX
  5
4160
 67
     1
  8
1-CR
 62
     6
 10
12.47369945272189
 20
1.140625003854963
 30
0.0
  0
SEQEND
  5
4161
 67
     1
  8
1-CR
 62
     6
  0
INSERT
  5
148D
 67
     1
  8
0
  2
*U14
 10
0.0
 20
0.0
 30
0.0
  0
INSERT
  5
14A1
 67
     1
  8
0
  2
*U15
 10
0.0
 20
0.0
 30
0.0
  0
POLYLINE
  5
14A2
 67
     1
  8
1-ALPRO
 62
     6
 66
     1
 10
0.0
 20
0.0
 30
0.0
 70
     1
  0
VERTEX
  5
4174
 67
     1
  8
1-ALPRO
 62
     6
 10
12.47369945272189
 20
1.7958438496959861
 30
0.0
  0
VERTEX
  5
4175
 67
     1
  8
1-ALPRO
 62
     6
 10
14.768075779927139
 20
1.7958438496959861
 30
0.0
  0
VERTEX
  5
4176
 67
     1
  8
1-ALPRO
 62
     6
 10
14.768075779927139
 20
1.140625003854963
 30
0.0
  0
VERTEX
  5
4177
 67
     1
  8
1-ALPRO
 62
     6
 10
12.47369945272189
 20
1.140625003854963
 30
0.0
  0
SEQEND
  5
4178
 67
     1
  8
1-ALPRO
 62
     6
  0
POLYLINE
  5
14A3
 67
     1
  8
1-ALPRO
 62
     6
 66
     1
 10
0.0
 20
0.0
 30
0.0
 70
     1
  0
VERTEX
  5
4179
 67
     1
  8
1-ALPRO
 62
     6
 10
12.45807445272189
 20
1.8114688496959861
 30
0.0
  0
VERTEX
  5
417A
 67
     1
  8
1-ALPRO
 62
     6
 10
14.783700779927139
 20
1.8114688496959861
 30
0.0
  0
VERTEX
  5
417B
 67
     1
  8
1-ALPRO
 62
     6
 10
14.783700779927139
 20
1.125000003854963
 30
0.0
  0
VERTEX
  5
417C
 67
     1
  8
1-ALPRO
 62
     6
 10
12.45807445272189
 20
1.125000003854963
 30
0.0
  0
SEQEND
  5
417D
 67
     1
  8
1-ALPRO
 62
     6
  0
INSERT
  5
14A9
 67
     1
  8
0
  2
*U16
 10
0.0
 20
0.0
 30
0.0
  0
ENDSEC
  0
EOF
