  0
SECTION
  2
HEADER
  9
$ACADVER
  1
AC1015
  9
$ACADMAINTVER
 70
    20
  9
$DWGCODEPAGE
  3
ANSI_1252
  9
$INSBASE
 10
1.235102848601107
 20
11.24774640129371
 30
0.0
  9
$EXTMIN
 10
289.1663382736449
 20
18.67452039262791
 30
0.0
  9
$EXTMAX
 10
401.9253224429323
 20
90.25653656649021
 30
0.0
  9
$LIMMIN
 10
0.0
 20
0.0
  9
$LIMMAX
 10
12.0
 20
9.0
  9
$ORTHOMODE
 70
     1
  9
$REGENMODE
 70
     1
  9
$FILLMODE
 70
     1
  9
$QTEXTMODE
 70
     0
  9
$MIRRTEXT
 70
     0
  9
$LTSCALE
 40
1.0
  9
$ATTMODE
 70
     1
  9
$TEXTSIZE
 40
1.125
  9
$TRACEWID
 40
0.05
  9
$TEXTSTYLE
  7
STD
  9
$CLAYER
  8
0
  9
$CELTYPE
  6
BYLAYER
  9
$CECOLOR
 62
   256
  9
$CELTSCALE
 40
1.0
  9
$DISPSILH
 70
     0
  9
$DIMSCALE
 40
1.0
  9
$DIMASZ
 40
0.18
  9
$DIMEXO
 40
0.0625
  9
$DIMDLI
 40
0.38
  9
$DIMRND
 40
0.0
  9
$DIMDLE
 40
0.0
  9
$DIMEXE
 40
0.18
  9
$DIMTP
 40
0.0
  9
$DIMTM
 40
0.0
  9
$DIMTXT
 40
0.18
  9
$DIMCEN
 40
0.09
  9
$DIMTSZ
 40
0.0
  9
$DIMTOL
 70
     0
  9
$DIMLIM
 70
     0
  9
$DIMTIH
 70
     1
  9
$DIMTOH
 70
     1
  9
$DIMSE1
 70
     0
  9
$DIMSE2
 70
     0
  9
$DIMTAD
 70
     0
  9
$DIMZIN
 70
     0
  9
$DIMBLK
  1

  9
$DIMASO
 70
     1
  9
$DIMSHO
 70
     1
  9
$DIMPOST
  1

  9
$DIMAPOST
  1

  9
$DIMALT
 70
     0
  9
$DIMALTD
 70
     2
  9
$DIMALTF
 40
25.4
  9
$DIMLFAC
 40
1.0
  9
$DIMTOFL
 70
     0
  9
$DIMTVP
 40
0.0
  9
$DIMTIX
 70
     0
  9
$DIMSOXD
 70
     0
  9
$DIMSAH
 70
     0
  9
$DIMBLK1
  1

  9
$DIMBLK2
  1

  9
$DIMSTYLE
  2
Standard
  9
$DIMCLRD
 70
     0
  9
$DIMCLRE
 70
     0
  9
$DIMCLRT
 70
     0
  9
$DIMTFAC
 40
1.0
  9
$DIMGAP
 40
0.09
  9
$DIMJUST
 70
     0
  9
$DIMSD1
 70
     0
  9
$DIMSD2
 70
     0
  9
$DIMTOLJ
 70
     1
  9
$DIMTZIN
 70
     0
  9
$DIMALTZ
 70
     0
  9
$DIMALTTZ
 70
     0
  9
$DIMUPT
 70
     0
  9
$DIMDEC
 70
     4
  9
$DIMTDEC
 70
     4
  9
$DIMALTU
 70
     2
  9
$DIMALTTD
 70
     2
  9
$DIMTXSTY
  7
STANDARD
  9
$DIMAUNIT
 70
     0
  9
$DIMADEC
 70
     0
  9
$DIMALTRND
 40
0.0
  9
$DIMAZIN
 70
     0
  9
$DIMDSEP
 70
    46
  9
$DIMATFIT
 70
     3
  9
$DIMFRAC
 70
     0
  9
$DIMLDRBLK
  1

  9
$DIMLUNIT
 70
     2
  9
$DIMLWD
 70
    -2
  9
$DIMLWE
 70
    -2
  9
$DIMTMOVE
 70
     0
  9
$LUNITS
 70
     5
  9
$LUPREC
 70
     6
  9
$SKETCHINC
 40
0.1
  9
$FILLETRAD
 40
0.0
  9
$AUNITS
 70
     0
  9
$AUPREC
 70
     0
  9
$MENU
  1
.
  9
$ELEVATION
 40
0.0
  9
$PELEVATION
 40
0.0
  9
$THICKNESS
 40
0.0
  9
$LIMCHECK
 70
     0
  9
$CHAMFERA
 40
0.5
  9
$CHAMFERB
 40
0.5
  9
$CHAMFERC
 40
1.0
  9
$CHAMFERD
 40
0.0
  9
$SKPOLY
 70
     0
  9
$TDCREATE
 40
2451225.386950695
  9
$TDUCREATE
 40
2451225.595284028
  9
$TDUPDATE
 40
2456114.543535625
  9
$TDUUPDATE
 40
2456114.751868959
  9
$TDINDWG
 40
0.5894036574
  9
$TDUSRTIMER
 40
0.5894034722
  9
$USRTIMER
 70
     1
  9
$ANGBASE
 50
0.0
  9
$ANGDIR
 70
     0
  9
$PDMODE
 70
     3
  9
$PDSIZE
 40
0.0
  9
$PLINEWID
 40
0.0
  9
$SPLFRAME
 70
     0
  9
$SPLINETYPE
 70
     6
  9
$SPLINESEGS
 70
     8
  9
$HANDSEED
  5
349CD
  9
$SURFTAB1
 70
     6
  9
$SURFTAB2
 70
     6
  9
$SURFTYPE
 70
     6
  9
$SURFU
 70
     6
  9
$SURFV
 70
     6
  9
$UCSBASE
  2

  9
$UCSNAME
  2

  9
$UCSORG
 10
0.0
 20
0.0
 30
0.0
  9
$UCSXDIR
 10
1.0
 20
0.0
 30
0.0
  9
$UCSYDIR
 10
0.0
 20
1.0
 30
0.0
  9
$UCSORTHOREF
  2

  9
$UCSORTHOVIEW
 70
     0
  9
$UCSORGTOP
 10
0.0
 20
0.0
 30
0.0
  9
$UCSORGBOTTOM
 10
0.0
 20
0.0
 30
0.0
  9
$UCSORGLEFT
 10
0.0
 20
0.0
 30
0.0
  9
$UCSORGRIGHT
 10
0.0
 20
0.0
 30
0.0
  9
$UCSORGFRONT
 10
0.0
 20
0.0
 30
0.0
  9
$UCSORGBACK
 10
0.0
 20
0.0
 30
0.0
  9
$PUCSBASE
  2

  9
$PUCSNAME
  2

  9
$PUCSORG
 10
0.0
 20
0.0
 30
0.0
  9
$PUCSXDIR
 10
1.0
 20
0.0
 30
0.0
  9
$PUCSYDIR
 10
0.0
 20
1.0
 30
0.0
  9
$PUCSORTHOREF
  2

  9
$PUCSORTHOVIEW
 70
     0
  9
$PUCSORGTOP
 10
0.0
 20
0.0
 30
0.0
  9
$PUCSORGBOTTOM
 10
0.0
 20
0.0
 30
0.0
  9
$PUCSORGLEFT
 10
0.0
 20
0.0
 30
0.0
  9
$PUCSORGRIGHT
 10
0.0
 20
0.0
 30
0.0
  9
$PUCSORGFRONT
 10
0.0
 20
0.0
 30
0.0
  9
$PUCSORGBACK
 10
0.0
 20
0.0
 30
0.0
  9
$USERI1
 70
     0
  9
$USERI2
 70
     0
  9
$USERI3
 70
     0
  9
$USERI4
 70
     0
  9
$USERI5
 70
     0
  9
$USERR1
 40
0.0
  9
$USERR2
 40
0.0
  9
$USERR3
 40
0.0
  9
$USERR4
 40
0.0
  9
$USERR5
 40
0.0
  9
$WORLDVIEW
 70
     1
  9
$SHADEDGE
 70
     3
  9
$SHADEDIF
 70
    70
  9
$TILEMODE
 70
     1
  9
$MAXACTVP
 70
    48
  9
$PINSBASE
 10
0.0
 20
0.0
 30
0.0
  9
$PLIMCHECK
 70
     0
  9
$PEXTMIN
 10
0.0
 20
0.0
 30
0.0
  9
$PEXTMAX
 10
10.205
 20
7.764780009564798
 30
0.0
  9
$PLIMMIN
 10
-0.2079161059762549
 20
-0.2079166691697489
  9
$PLIMMAX
 10
10.79208365372785
 20
8.29208309053436
  9
$UNITMODE
 70
     0
  9
$VISRETAIN
 70
     1
  9
$PLINEGEN
 70
     0
  9
$PSLTSCALE
 70
     1
  9
$TREEDEPTH
 70
     0
  9
$CMLSTYLE
  2
STANDARD
  9
$CMLJUST
 70
     0
  9
$CMLSCALE
 40
1.0
  9
$PROXYGRAPHICS
 70
     1
  9
$MEASUREMENT
 70
     0
  9
$CELWEIGHT
370
    -1
  9
$ENDCAPS
280
     0
  9
$JOINSTYLE
280
     0
  9
$LWDISPLAY
290
     0
  9
$INSUNITS
 70
     1
  9
$HYPERLINKBASE
  1

  9
$STYLESHEET
  1
5000N-BLACK.CTB
  9
$XEDIT
290
     1
  9
$CEPSNTYPE
380
     0
  9
$PSTYLEMODE
290
     1
  9
$FINGERPRINTGUID
  2
{B3E5E9A9-FEC4-11D2-95EF-00104B2EF1F9}
  9
$VERSIONGUID
  2
{C6A31291-283A-481B-A699-CA5792BCA140}
  9
$EXTNAMES
290
     1
  9
$PSVPSCALE
 40
0.0
  9
$OLESTARTUP
290
     0
  0
ENDSEC
  0
SECTION
  2
CLASSES
  0
CLASS
  1
IDBUFFER
  2
AcDbIdBuffer
  3
ObjectDBX Classes
 90
    32768
280
     0
281
     0
  0
CLASS
  1
ACDBDICTIONARYWDFLT
  2
AcDbDictionaryWithDefault
  3
ObjectDBX Classes
 90
        0
280
     0
281
     0
  0
CLASS
  1
ACDBPLACEHOLDER
  2
AcDbPlaceHolder
  3
ObjectDBX Classes
 90
        0
280
     0
281
     0
  0
CLASS
  1
LAYOUT
  2
AcDbLayout
  3
ObjectDBX Classes
 90
        0
280
     0
281
     0
  0
CLASS
  1
DICTIONARYVAR
  2
AcDbDictionaryVar
  3
ObjectDBX Classes
 90
        0
280
     0
281
     0
  0
CLASS
  1
TABLESTYLE
  2
AcDbTableStyle
  3
ObjectDBX Classes
 90
     4095
280
     0
281
     0
  0
CLASS
  1
PLOTSETTINGS
  2
AcDbPlotSettings
  3
ObjectDBX Classes
 90
        0
280
     0
281
     0
  0
CLASS
  1
MATERIAL
  2
AcDbMaterial
  3
ObjectDBX Classes
 90
     1153
280
     0
281
     0
  0
CLASS
  1
VISUALSTYLE
  2
AcDbVisualStyle
  3
ObjectDBX Classes
 90
     4095
280
     0
281
     0
  0
CLASS
  1
SORTENTSTABLE
  2
AcDbSortentsTable
  3
ObjectDBX Classes
 90
        0
280
     0
281
     0
  0
CLASS
  1
FIELD
  2
AcDbField
  3
ObjectDBX Classes
 90
    33920
280
     0
281
     0
  0
CLASS
  1
FIELDLIST
  2
AcDbFieldList
  3
ObjectDBX Classes
 90
     1152
280
     0
281
     0
  0
CLASS
  1
EXACTERMXREFMAP
  2
ExAcTermXrefMap
  3
EXAC_SERVICE
 90
    33793
280
     0
281
     0
  0
CLASS
  1
NPOCOLLECTION
  2
AcDbImpNonPersistentObjectsCollection
  3
ObjectDBX Classes
 90
    33921
280
     0
281
     0
  0
CLASS
  1
EXACXREFPANELOBJECT
  2
ExAcXREFPanelObject
  3
EXAC_ESW
 90
    33793
280
     0
281
     0
  0
CLASS
  1
ACAD_EVALUATION_GRAPH
  2
AcDbEvalGraph
  3
ObjectDBX Classes
 90
    33921
280
     0
281
     0
  0
CLASS
  1
BLOCKBASEPOINTPARAMETER
  2
AcDbBlockBasepointParameter
  3
ObjectDBX Classes
 90
    33921
280
     0
281
     0
  0
CLASS
  1
BLOCKVISIBILITYPARAMETER
  2
AcDbBlockVisibilityParameter
  3
ObjectDBX Classes
 90
    33921
280
     0
281
     0
  0
CLASS
  1
BLOCKVISIBILITYGRIP
  2
AcDbBlockVisibilityGrip
  3
ObjectDBX Classes
 90
    33921
280
     0
281
     0
  0
CLASS
  1
BLOCKGRIPLOCATIONCOMPONENT
  2
AcDbBlockGripExpr
  3
ObjectDBX Classes
 90
    33921
280
     0
281
     0
  0
CLASS
  1
ACDB_DYNAMICBLOCKPURGEPREVENTER_VERSION
  2
AcDbDynamicBlockPurgePreventer
  3
ObjectDBX Classes
 90
    33921
280
     0
281
     0
  0
CLASS
  1
ACAECUSTOBJ
  2
AcAeEditorObj
  3
AcAeEditorObj
 90
    33792
280
     0
281
     0
  0
CLASS
  1
BASEPOINTPARAMETERENTITY
  2
AcDbBlockBasepointParameterEntity
  3
ObjectDBX Classes
 90
    33793
280
     0
281
     1
  0
CLASS
  1
ACAEEEMGROBJ
  2
AcAeEEMgrObj
  3
AcAeEEMgrObj
 90
    33792
280
     0
281
     0
  0
CLASS
  1
VISIBILITYPARAMETERENTITY
  2
AcDbBlockVisibilityParameterEntity
  3
ObjectDBX Classes
 90
    33793
280
     0
281
     1
  0
CLASS
  1
VISIBILITYGRIPENTITY
  2
AcDbBlockVisibilityGripEntity
  3
ObjectDBX Classes
 90
    33793
280
     0
281
     1
  0
CLASS
  1
ACDB_BLOCKREPRESENTATION_DATA
  2
AcDbBlockRepresentationData
  3
ObjectDBX Classes
 90
    33921
280
     0
281
     0
  0
CLASS
  1
DIMASSOC
  2
AcDbDimAssoc
  3
"AcDbDimAssoc|Product Desc:     AcDim ARX App For Dimension|Company:          Autodesk, Inc.|WEB Address:      www.autodesk.com"
 90
    32768
280
     0
281
     0
  0
CLASS
  1
SCALE
  2
AcDbScale
  3
ObjectDBX Classes
 90
     1153
280
     0
281
     0
  0
CLASS
  1
MLEADERSTYLE
  2
AcDbMLeaderStyle
  3
ACDB_MLEADERSTYLE_CLASS
 90
     4095
280
     0
281
     0
  0
CLASS
  1
CELLSTYLEMAP
  2
AcDbCellStyleMap
  3
ObjectDBX Classes
 90
     1152
280
     0
281
     0
  0
ENDSEC
  0
SECTION
  2
TABLES
  0
TABLE
  2
VPORT
  5
1A
102
{ACAD_XDICTIONARY
360
139C
102
}
330
0
100
AcDbSymbolTable
 70
     1
  0
VPORT
  5
882
330
1A
100
AcDbSymbolTableRecord
100
AcDbViewportTableRecord
  2
*Active
 70
     0
 10
0.0
 20
0.0
 11
1.0
 21
1.0
 12
345.5456316339399
 22
54.46572147546392
 13
0.0
 23
0.0
 14
0.5
 24
0.5
 15
0.5
 25
0.5
 16
0.0
 26
0.0
 36
1.0
 17
0.0
 27
0.0
 37
0.0
 40
72.16290730156689
 41
2.570469798657718
 42
50.0
 43
0.0
 44
0.0
 50
0.0
 51
0.0
 71
     0
 72
   100
 73
     1
 74
     1
 75
     0
 76
     0
 77
     0
 78
     2
281
     0
 65
     1
110
0.0
120
0.0
130
0.0
111
1.0
121
0.0
131
0.0
112
0.0
122
1.0
132
0.0
 79
     0
146
0.0
1001
ACAD_NAV_VCDISPLAY
1070
     3
  0
ENDTAB
  0
TABLE
  2
LTYPE
  5
15
330
0
100
AcDbSymbolTable
 70
     4
  0
LTYPE
  5
16
330
15
100
AcDbSymbolTableRecord
100
AcDbLinetypeTableRecord
  2
BYBLOCK
 70
     0
  3

 72
    65
 73
     0
 40
0.0
  0
LTYPE
  5
17
330
15
100
AcDbSymbolTableRecord
100
AcDbLinetypeTableRecord
  2
BYLAYER
 70
     0
  3

 72
    65
 73
     0
 40
0.0
  0
LTYPE
  5
8
330
15
100
AcDbSymbolTableRecord
100
AcDbLinetypeTableRecord
  2
CONTINUOUS
 70
     0
  3
Solid line
 72
    65
 73
     0
 40
0.0
  0
LTYPE
  5
1A5A
330
15
100
AcDbSymbolTableRecord
100
AcDbLinetypeTableRecord
  2
HIDDEN
 70
     0
  3
Hidden __ __ __ __ __ __ __ __ __ __ __ __ __ _
 72
    65
 73
     2
 40
0.375
 49
0.25
 74
     0
 49
-0.125
 74
     0
  0
LTYPE
  5
1A5D
330
15
100
AcDbSymbolTableRecord
100
AcDbLinetypeTableRecord
  2
PHANTOM
 70
     0
  3
Phantom ______  __  __  ______  __  __  ______
 72
    65
 73
     6
 40
2.5
 49
1.25
 74
     0
 49
-0.25
 74
     0
 49
0.25
 74
     0
 49
-0.25
 74
     0
 49
0.25
 74
     0
 49
-0.25
 74
     0
  0
LTYPE
  5
1A5E
330
15
100
AcDbSymbolTableRecord
100
AcDbLinetypeTableRecord
  2
PHANTOM2
 70
     0
  3
Phantom (.5x) ___ _ _ ___ _ _ ___ _ _ ___ _ _
 72
    65
 73
     6
 40
1.25
 49
0.625
 74
     0
 49
-0.125
 74
     0
 49
0.125
 74
     0
 49
-0.125
 74
     0
 49
0.125
 74
     0
 49
-0.125
 74
     0
  0
ENDTAB
  0
TABLE
  2
LAYER
  5
11
102
{ACAD_XDICTIONARY
360
899
102
}
330
0
100
AcDbSymbolTable
 70
     7
  0
LAYER
  5
4
102
{ACAD_XDICTIONARY
360
346F8
102
}
330
11
100
AcDbSymbolTableRecord
100
AcDbLayerTableRecord
  2
0
 70
     0
 62
     7
  6
CONTINUOUS
370
    -3
390
5
1001
RAK
1000
{ACET-LAYISO
1070
     0
1070
     7
1000
CONTINUOUS
1071
       -3
1071
        1
1005
5
1000
ACET-LAYISO}
  0
LAYER
  5
32
102
{ACAD_XDICTIONARY
360
346FA
102
}
330
11
100
AcDbSymbolTableRecord
100
AcDbLayerTableRecord
  2
TEXT
 70
     0
 62
     3
  6
CONTINUOUS
370
    -3
390
5
1001
RAK
1000
{ACET-LAYISO
1070
     0
1070
     3
1000
CONTINUOUS
1071
       -3
1071
        1
1005
5
1000
ACET-LAYISO}
  0
LAYER
  5
73
330
11
100
AcDbSymbolTableRecord
100
AcDbLayerTableRecord
  2
Defpoints
 70
     0
 62
   252
  6
CONTINUOUS
290
     0
370
    -3
390
5
  0
LAYER
  5
1A61
102
{ACAD_XDICTIONARY
360
1A62
102
}
330
11
100
AcDbSymbolTableRecord
100
AcDbLayerTableRecord
  2
DIM
 70
     0
 62
     1
  6
CONTINUOUS
370
    -3
390
5
  0
LAYER
  5
1A7C
102
{ACAD_XDICTIONARY
360
1A7D
102
}
330
11
100
AcDbSymbolTableRecord
100
AcDbLayerTableRecord
  2
SECTION
 70
     0
 62
   253
  6
PHANTOM
370
    -3
390
5
  0
LAYER
  5
1A7F
102
{ACAD_XDICTIONARY
360
1A80
102
}
330
11
100
AcDbSymbolTableRecord
100
AcDbLayerTableRecord
  2
DETAIL
 70
     0
 62
     1
  6
CONTINUOUS
370
    -3
390
5
  0
LAYER
  5
1A91
102
{ACAD_XDICTIONARY
360
1A92
102
}
330
11
100
AcDbSymbolTableRecord
100
AcDbLayerTableRecord
  2
PANEL
 70
     0
 62
    60
  6
CONTINUOUS
370
    -3
390
5
1001
AcAecLayerStandard
1000

1000

  0
ENDTAB
  0
TABLE
  2
STYLE
  5
12
330
0
100
AcDbSymbolTable
 70
     2
  0
STYLE
  5
13
330
12
100
AcDbSymbolTableRecord
100
AcDbTextStyleTableRecord
  2
STANDARD
 70
     0
 40
0.0
 41
1.0
 50
0.0
 71
     0
 42
0.2
  3
arial.ttf
  4

1001
ACAD
1000
Arial CYR
1071
    52258
  0
STYLE
  5
20
330
12
100
AcDbSymbolTableRecord
100
AcDbTextStyleTableRecord
  2
STD
 70
     0
 40
0.0
 41
1.0
 50
0.0
 71
     0
 42
1.125
  3
arial.ttf
  4

1001
ACAD
1000
Arial CYR
1071
    52258
  0
ENDTAB
  0
TABLE
  2
VIEW
  5
18
330
0
100
AcDbSymbolTable
 70
     0
  0
ENDTAB
  0
TABLE
  2
UCS
  5
19
330
0
100
AcDbSymbolTable
 70
     0
  0
ENDTAB
  0
TABLE
  2
APPID
  5
1C
330
0
100
AcDbSymbolTable
 70
    25
  0
APPID
  5
1D
330
1C
100
AcDbSymbolTableRecord
100
AcDbRegAppTableRecord
  2
ACAD
 70
     0
  0
APPID
  5
9
330
1C
100
AcDbSymbolTableRecord
100
AcDbRegAppTableRecord
  2
RAK
 70
     0
  0
APPID
  5
3A
330
1C
100
AcDbSymbolTableRecord
100
AcDbRegAppTableRecord
  2
DCO15
 70
     0
  0
APPID
  5
126
330
1C
100
AcDbSymbolTableRecord
100
AcDbRegAppTableRecord
  2
ABNSLEADERTOOLS
 70
     0
  0
APPID
  5
895
330
1C
100
AcDbSymbolTableRecord
100
AcDbRegAppTableRecord
  2
ACAD_PSEXT
 70
     0
  0
APPID
  5
A2A
330
1C
100
AcDbSymbolTableRecord
100
AcDbRegAppTableRecord
  2
ACAD_DSTYLE_DIMTEXT_FILL
 70
     0
  0
APPID
  5
10A5
330
1C
100
AcDbSymbolTableRecord
100
AcDbRegAppTableRecord
  2
AcAecLayerStandard
 70
     0
  0
APPID
  5
198C
330
1C
100
AcDbSymbolTableRecord
100
AcDbRegAppTableRecord
  2
AcDbBlockRepETag
 70
     0
  0
APPID
  5
198D
330
1C
100
AcDbSymbolTableRecord
100
AcDbRegAppTableRecord
  2
AcLayerTools
 70
     0
  0
APPID
  5
1A37
330
1C
100
AcDbSymbolTableRecord
100
AcDbRegAppTableRecord
  2
ACAD_DSTYLE_DIMJAG
 70
     0
  0
APPID
  5
1A38
330
1C
100
AcDbSymbolTableRecord
100
AcDbRegAppTableRecord
  2
ACAD_DSTYLE_DIMBREAK
 70
     0
  0
APPID
  5
1A39
330
1C
100
AcDbSymbolTableRecord
100
AcDbRegAppTableRecord
  2
AcadAnnotative
 70
     0
  0
APPID
  5
1A3A
330
1C
100
AcDbSymbolTableRecord
100
AcDbRegAppTableRecord
  2
ACAD_DSTYLE_DIMTALN
 70
     0
  0
APPID
  5
1A3B
330
1C
100
AcDbSymbolTableRecord
100
AcDbRegAppTableRecord
  2
AcadAnnoAV
 70
     0
  0
APPID
  5
1D4C
330
1C
100
AcDbSymbolTableRecord
100
AcDbRegAppTableRecord
  2
ACAD_MLEADERVER
 70
     0
  0
APPID
  5
1D4D
330
1C
100
AcDbSymbolTableRecord
100
AcDbRegAppTableRecord
  2
AcadAnnoPO
 70
     0
  0
APPID
  5
1D4E
330
1C
100
AcDbSymbolTableRecord
100
AcDbRegAppTableRecord
  2
ACAD_DSTYLE_DIMRADIAL_EXTENSION
 70
     0
  0
APPID
  5
8637
330
1C
100
AcDbSymbolTableRecord
100
AcDbRegAppTableRecord
  2
AcDbDynamicBlockTrueName
 70
     0
  0
APPID
  5
8638
330
1C
100
AcDbSymbolTableRecord
100
AcDbRegAppTableRecord
  2
AcDbDynamicBlockGUID
 70
     0
  0
APPID
  5
EECA
330
1C
100
AcDbSymbolTableRecord
100
AcDbRegAppTableRecord
  2
ACAUTHENVIRON
 70
     0
  0
APPID
  5
EED2
330
1C
100
AcDbSymbolTableRecord
100
AcDbRegAppTableRecord
  2
AcDbBlockRepBTag
 70
     0
  0
APPID
  5
31EA1
330
1C
100
AcDbSymbolTableRecord
100
AcDbRegAppTableRecord
  2
ACAD_EXEMPT_FROM_CAD_STANDARDS
 70
     0
  0
APPID
  5
346DB
330
1C
100
AcDbSymbolTableRecord
100
AcDbRegAppTableRecord
  2
GradientColor1ACI
 70
     0
  0
APPID
  5
346DC
330
1C
100
AcDbSymbolTableRecord
100
AcDbRegAppTableRecord
  2
GradientColor2ACI
 70
     0
  0
APPID
  5
34788
330
1C
100
AcDbSymbolTableRecord
100
AcDbRegAppTableRecord
  2
ACAD_NAV_VCDISPLAY
 70
     0
  0
ENDTAB
  0
TABLE
  2
DIMSTYLE
  5
1E
330
0
100
AcDbSymbolTable
 70
     1
100
AcDbDimStyleTable
 71
     0
  0
DIMSTYLE
105
172
330
1E
100
AcDbSymbolTableRecord
100
AcDbDimStyleTableRecord
  2
Standard
 70
     0
340
13
  0
ENDTAB
  0
TABLE
  2
BLOCK_RECORD
  5
1
330
0
100
AcDbSymbolTable
 70
     0
  0
BLOCK_RECORD
  5
2
102
{ACAD_XDICTIONARY
360
31E97
102
}
330
1
100
AcDbSymbolTableRecord
100
AcDbBlockTableRecord
  2
*MODEL_SPACE
340
B
  0
BLOCK_RECORD
  5
D
102
{ACAD_XDICTIONARY
360
1D72
102
}
330
1
100
AcDbSymbolTableRecord
100
AcDbBlockTableRecord
  2
*PAPER_SPACE
340
10
  0
ENDTAB
  0
ENDSEC
  0
SECTION
  2
BLOCKS
  0
BLOCK
  5
3
330
2
100
AcDbEntity
  8
0
100
AcDbBlockBegin
  2
*MODEL_SPACE
 70
     0
 10
0.0
 20
0.0
 30
0.0
  3
*MODEL_SPACE
  1

  0
ENDBLK
  5
A
330
2
100
AcDbEntity
  8
0
100
AcDbBlockEnd
  0
BLOCK
  5
E
330
D
100
AcDbEntity
 67
     1
  8
0
100
AcDbBlockBegin
  2
*PAPER_SPACE
 70
     0
 10
0.0
 20
0.0
 30
0.0
  3
*PAPER_SPACE
  1

  0
ENDBLK
  5
F
330
D
100
AcDbEntity
 67
     1
  8
0
100
AcDbBlockEnd
  0
ENDSEC
  0
SECTION
  2
ENTITIES
  0
LINE
  5
32E50
330
2
100
AcDbEntity
  8
DETAIL
100
AcDbLine
 10
322.1704255948576
 20
80.14877332170122
 30
0.0
 11
322.9810253727999
 21
80.61677332170132
 31
0.0
  0
LINE
  5
32E51
330
2
100
AcDbEntity
  8
DETAIL
100
AcDbLine
 10
322.9533125598788
 20
80.63277332170136
 30
0.0
 11
322.1427127819365
 21
80.16477332170124
 31
0.0
  0
LINE
  5
32E53
330
2
100
AcDbEntity
  8
DETAIL
100
AcDbLine
 10
322.9810253727999
 20
80.68077332170132
 30
0.0
 11
321.3598258169154
 21
81.61677332170132
 31
0.0
  0
LINE
  5
32E54
330
2
100
AcDbEntity
  8
DETAIL
100
AcDbLine
 10
321.3321130039944
 20
81.60077332170144
 30
0.0
 11
322.9533125598788
 21
80.66477332170142
 31
0.0
  0
LINE
  5
32E55
330
2
100
AcDbEntity
  8
DETAIL
100
AcDbLine
 10
303.1178667062335
 20
69.14877331860303
 30
0.0
 11
303.1178667116
 21
21.14877332170141
 31
0.0
  0
LINE
  5
32E56
330
2
100
AcDbEntity
  8
DETAIL
100
AcDbLine
 10
302.1964156819734
 20
68.68077332170132
 30
0.0
 11
302.1964156819734
 21
20.68077332170132
 31
0.0
  0
LINE
  5
32E57
330
2
100
AcDbEntity
  8
DETAIL
100
AcDbLine
 10
302.3072669336577
 20
68.68077332170128
 30
0.0
 11
302.3072669336577
 21
20.68077332170132
 31
0.0
  0
LINE
  5
32E58
330
2
100
AcDbEntity
  8
DETAIL
100
AcDbLine
 10
300.5522580908253
 20
69.64877331935567
 30
0.0
 11
300.5522580908253
 21
21.64877331818287
 31
0.0
  0
LINE
  5
32E59
330
2
100
AcDbEntity
  8
DETAIL
100
AcDbLine
 10
302.1686905553484
 20
68.72878041946427
 30
0.0
 11
322.8978869340366
 21
80.69677332170142
 31
0.0
  0
LINE
  5
32E5B
330
2
100
AcDbEntity
  8
DETAIL
100
AcDbLine
 10
302.2241284948945
 20
68.6967733217014
 30
0.0
 11
300.6029289390101
 21
69.6327733217014
 31
0.0
  0
LINE
  5
32E5C
330
2
100
AcDbEntity
  8
DETAIL
100
AcDbLine
 10
300.5752161260889
 20
69.61677332170132
 30
0.0
 11
302.1964156819734
 21
68.68077332170132
 31
0.0
  0
LINE
  5
32E5D
330
2
100
AcDbEntity
  8
DETAIL
100
AcDbLine
 10
300.60292893901
 20
69.6647733217013
 30
0.0
 11
321.2766750658703
 21
81.60076621320181
 31
0.0
  0
LINE
  5
32E5E
330
2
100
AcDbEntity
  8
DETAIL
100
AcDbLine
 10
321.2489499406677
 20
81.61675908805904
 30
0.0
 11
300.5752161260889
 21
69.68077332170132
 31
0.0
  0
LINE
  5
32E5F
330
2
100
AcDbEntity
  8
DETAIL
100
AcDbLine
 10
321.3287508885779
 20
81.57459668697919
 30
0.0
 11
300.6239175119568
 21
69.62065556346067
 31
0.0
  0
ELLIPSE
  5
32E60
330
2
100
AcDbEntity
  8
DETAIL
100
AcDbEllipse
 10
300.6306417519311
 20
69.64877332170131
 30
0.0
 11
0.0783836611058137
 21
0.0000000035184723
 31
0.0
210
0.0
220
0.0
230
-0.9999999999999998
 40
0.5773502699998802
 41
2.355749999999464
 42
3.92654632679525
  0
ELLIPSE
  5
32E61
330
2
100
AcDbEntity
  8
DETAIL
100
AcDbEllipse
 10
300.6306417519311
 20
69.64877332170131
 30
0.0
 11
0.0391918305529099
 21
0.0000000017592296
 31
0.0
210
0.0
220
0.0
230
-1.0
 40
0.5773502699999017
 41
2.355749999999261
 42
3.926546326795037
  0
LINE
  5
32E62
330
2
100
AcDbEntity
  8
DETAIL
100
AcDbLine
 10
322.1427127819365
 20
80.06877332170152
 30
0.0
 11
321.765125700882
 21
79.8507733188122
 31
0.0
  0
LINE
  5
32E63
330
2
100
AcDbEntity
  8
DETAIL
100
AcDbLine
 10
303.11786671092
 20
68.14877332130861
 30
0.0
 11
303.5508732566402
 21
68.3987697670411
 31
0.0
  0
LINE
  5
32E64
330
2
100
AcDbEntity
  8
DETAIL
100
AcDbLine
 10
303.0901538986789
 20
69.1647733217014
 30
0.0
 11
302.2795541207366
 21
68.6967733217013
 31
0.0
  0
LINE
  5
32E65
330
2
100
AcDbEntity
  8
DETAIL
100
AcDbLine
 10
302.3072669336577
 20
68.6807733217013
 30
0.0
 11
303.1178667116
 21
69.1487733217014
 31
0.0
  0
ELLIPSE
  5
32E66
330
2
100
AcDbEntity
  8
DETAIL
100
AcDbEllipse
 10
302.2518413078155
 20
68.71277332170129
 30
0.0
 11
0.039191830552991
 21
0.0000000017592391
 31
0.0
210
0.0
220
0.0
230
-1.0
 40
0.5773502699973526
 41
0.7849536732077334
 42
2.35574999999739
  0
ELLIPSE
  5
32E67
330
2
100
AcDbEntity
  8
DETAIL
100
AcDbEllipse
 10
302.2518413078155
 20
68.71277332170129
 30
0.0
 11
0.0783836611058103
 21
0.0000000035184723
 31
0.0
210
0.0
220
0.0
230
-1.0
 40
0.5773502699999299
 41
0.7849536732054144
 42
2.355749999999508
  0
ARC
  5
32E69
330
2
100
AcDbEntity
  8
DETAIL
100
AcDbCircle
 10
302.6893278206714
 20
68.27917331789274
 30
0.0
 40
0.0529701551798176
100
AcDbArc
 50
204.3428701752519
 51
259.4951064290484
  0
ARC
  5
32E6A
330
2
100
AcDbEntity
  8
DETAIL
100
AcDbCircle
 10
302.7428380721929
 20
68.3033823393371
 30
0.0
 40
0.1117019501224253
100
AcDbArc
 50
179.9999999999992
 51
204.342870175284
  0
ARC
  5
32E6B
330
2
100
AcDbEntity
  8
DETAIL
100
AcDbCircle
 10
302.8060797510668
 20
68.3033823393371
 30
0.0
 40
0.1749436289962763
100
AcDbArc
 50
163.4494755261593
 51
179.9999999999996
  0
ARC
  5
32E6D
330
2
100
AcDbEntity
  8
DETAIL
100
AcDbCircle
 10
302.8917263968196
 20
68.27793047406247
 30
0.0
 40
0.2642920781975703
100
AcDbArc
 50
136.5505244738613
 51
163.4495036819143
  0
ARC
  5
32E6E
330
2
100
AcDbEntity
  8
DETAIL
100
AcDbCircle
 10
302.8268611120416
 20
68.33937671239621
 30
0.0
 40
0.1749436289961171
100
AcDbArc
 50
119.9999999999999
 51
136.5505244738631
  0
ARC
  5
32E6F
330
2
100
AcDbEntity
  8
DETAIL
100
AcDbCircle
 10
302.7952402726048
 20
68.39414561287878
 30
0.0
 40
0.1117019501224736
100
AcDbArc
 50
95.65712982472787
 51
120.0
  0
ARC
  5
32E71
330
2
100
AcDbEntity
  8
DETAIL
100
AcDbCircle
 10
302.7894507744156
 20
68.45259136078145
 30
0.0
 40
0.0529701551798141
100
AcDbArc
 50
40.50489956591126
 51
95.65713736203536
  0
ARC
  5
32E72
330
2
100
AcDbEntity
  8
DETAIL
100
AcDbCircle
 10
302.7101042769675
 20
68.38279005384986
 30
0.0
 40
0.1586456038630305
100
AcDbArc
 50
258.3836217487397
 51
41.61637825126628
  0
LINE
  5
32E73
330
2
100
AcDbEntity
  8
DETAIL
100
AcDbLine
 10
303.1178667116
 20
69.1487733217014
 30
0.0
 11
303.0901538986789
 21
69.1647733217014
 31
0.0
  0
LINE
  5
32E74
330
2
100
AcDbEntity
  8
DETAIL
100
AcDbLine
 10
321.3321130039943
 20
81.57632747983125
 30
0.0
 11
321.3321130039944
 21
81.60077332170144
 31
0.0
  0
LINE
  5
32E75
330
2
100
AcDbEntity
  8
DETAIL
100
AcDbLine
 10
321.2766750658703
 20
81.54453069672067
 30
0.0
 11
321.2766750658703
 21
81.60076621320213
 31
0.0
  0
ELLIPSE
  5
32E76
330
2
100
AcDbEntity
  8
DETAIL
100
AcDbEllipse
 10
321.3875386298366
 20
81.47277332170153
 30
0.0
 11
0.0587877412587505
 21
-0.1018233652777333
 31
0.0
210
0.0
220
0.0
230
-1.0
 40
0.5773502699989601
 41
3.141592627675336
 42
3.926842653590771
  0
ELLIPSE
  5
32E77
330
2
100
AcDbEntity
  8
DETAIL
100
AcDbEllipse
 10
321.3044001910732
 20
81.58477332170134
 30
0.0
 11
0.0783836611056495
 21
0.0000000035183433
 31
0.0
210
0.0
220
0.0
230
-1.0
 40
0.5773502700010253
 41
3.926546326792355
 42
5.497342653589549
  0
ELLIPSE
  5
32E78
330
2
100
AcDbEntity
  8
DETAIL
100
AcDbEllipse
 10
321.3044001910732
 20
81.58477332170134
 30
0.0
 11
0.0391918305530003
 21
0.0000000017592264
 31
0.0
210
0.0
220
0.0
230
-1.0
 40
0.5773502699972948
 41
3.9265463267972
 42
5.497342653586913
  0
LINE
  5
32E79
330
2
100
AcDbEntity
  8
DETAIL
100
AcDbLine
 10
322.1427127819365
 20
80.16477332170124
 30
0.0
 11
322.1704255948576
 21
80.14877332170122
 31
0.0
  0
LINE
  5
32E7A
330
2
100
AcDbEntity
  8
DETAIL
100
AcDbLine
 10
303.1178667115838
 20
21.23700883817368
 30
0.0
 11
322.1427127819365
 21
32.22100883818291
 31
0.0
  0
LINE
  5
32E7B
330
2
100
AcDbEntity
  8
DETAIL
100
AcDbLine
 10
322.1427127819366
 20
32.26077332170145
 30
0.0
 11
303.1178667115764
 21
21.27677332168772
 31
0.0
  0
LINE
  5
32E7C
330
2
100
AcDbEntity
  8
DETAIL
100
AcDbLine
 10
323.0039834011742
 20
80.64875435023838
 30
0.0
 11
323.0039833926967
 21
32.64880166124819
 31
0.0
  0
LINE
  5
32E7D
330
2
100
AcDbEntity
  8
DETAIL
100
AcDbLine
 10
322.1704255948576
 20
80.14877332170128
 30
0.0
 11
322.1704255948576
 21
32.14877332170122
 31
0.0
  0
LINE
  5
32E7E
330
2
100
AcDbEntity
  8
DETAIL
100
AcDbLine
 10
322.1427127819365
 20
80.16477332170127
 30
0.0
 11
322.1427127819366
 21
32.16477332170122
 31
0.0
  0
LINE
  5
32E7F
330
2
100
AcDbEntity
  8
DETAIL
100
AcDbLine
 10
303.1178667115999
 20
24.43077332170127
 30
0.0
 11
322.1427127819365
 21
35.41477332170122
 31
0.0
  0
LINE
  5
32E80
330
2
100
AcDbEntity
  8
DETAIL
100
AcDbLine
 10
303.1178667116
 20
24.46277332170136
 30
0.0
 11
322.1427127819366
 21
35.4467733217013
 31
0.0
  0
LINE
  5
32E81
330
2
100
AcDbEntity
  8
DETAIL
100
AcDbLine
 10
302.3072669336577
 20
20.68077332170132
 30
0.0
 11
303.1178667116
 21
21.14877332170141
 31
0.0
  0
LINE
  5
32E82
330
2
100
AcDbEntity
  8
DETAIL
100
AcDbLine
 10
300.5752161260889
 20
21.61677332170133
 30
0.0
 11
302.1964156819734
 21
20.68077332170132
 31
0.0
  0
ELLIPSE
  5
32E83
330
2
100
AcDbEntity
  8
DETAIL
100
AcDbEllipse
 10
300.6306417519311
 20
21.64877332170132
 30
0.0
 11
0.0783836611057929
 21
0.0000000035184856
 31
0.0
210
0.0
220
0.0
230
-0.9999999999999998
 40
0.5773502700000341
 41
2.355749999999817
 42
3.141592679505873
  0
ELLIPSE
  5
32E84
330
2
100
AcDbEntity
  8
DETAIL
100
AcDbEllipse
 10
302.2518413078155
 20
20.71277332170132
 30
0.0
 11
0.0783836611057933
 21
0.0000000035184862
 31
0.0
210
0.0
220
0.0
230
-1.0
 40
0.5773502700000224
 41
0.7849536732049951
 42
2.355749999999813
  0
ARC
  5
32E86
330
2
100
AcDbEntity
  8
DETAIL
100
AcDbCircle
 10
302.6893278206715
 20
23.29691304448552
 30
0.0
 40
0.0529701551798185
100
AcDbArc
 50
204.3428701752527
 51
259.4951064290484
  0
ARC
  5
32E87
330
2
100
AcDbEntity
  8
DETAIL
100
AcDbCircle
 10
302.7428380721929
 20
23.32112206592988
 30
0.0
 40
0.1117019501224278
100
AcDbArc
 50
179.9999999999996
 51
204.3428701752837
  0
ARC
  5
32E88
330
2
100
AcDbEntity
  8
DETAIL
100
AcDbCircle
 10
302.8060797510668
 20
23.32112206592988
 30
0.0
 40
0.1749436289962775
100
AcDbArc
 50
163.4494755261593
 51
179.9999999999996
  0
ARC
  5
32E8A
330
2
100
AcDbEntity
  8
DETAIL
100
AcDbCircle
 10
302.8917263968196
 20
23.29567020065525
 30
0.0
 40
0.2642920781975703
100
AcDbArc
 50
136.5505244738613
 51
163.4495036819143
  0
ARC
  5
32E8B
330
2
100
AcDbEntity
  8
DETAIL
100
AcDbCircle
 10
302.8268611120416
 20
23.35711643898898
 30
0.0
 40
0.1749436289961177
100
AcDbArc
 50
120.0000000000001
 51
136.5505244738631
  0
ARC
  5
32E8C
330
2
100
AcDbEntity
  8
DETAIL
100
AcDbCircle
 10
302.7952402726048
 20
23.41188533947155
 30
0.0
 40
0.1117019501224736
100
AcDbArc
 50
95.65712982472787
 51
120.0
  0
ARC
  5
32E8E
330
2
100
AcDbEntity
  8
DETAIL
100
AcDbCircle
 10
302.7894507744156
 20
23.47033108737423
 30
0.0
 40
0.0529701551798141
100
AcDbArc
 50
40.5048995659079
 51
95.65713736203536
  0
ARC
  5
32E8F
330
2
100
AcDbEntity
  8
DETAIL
100
AcDbCircle
 10
302.7101042769676
 20
23.40052978044264
 30
0.0
 40
0.1586456038630305
100
AcDbArc
 50
258.3836217487397
 51
41.61637825126628
  0
ARC
  5
32E91
330
2
100
AcDbEntity
  8
DETAIL
100
AcDbCircle
 10
302.6893278206715
 20
21.38062117058964
 30
0.0
 40
0.0529701551798185
100
AcDbArc
 50
204.3428701752527
 51
259.4951064290484
  0
ARC
  5
32E92
330
2
100
AcDbEntity
  8
DETAIL
100
AcDbCircle
 10
302.7428380721929
 20
21.40483019203399
 30
0.0
 40
0.1117019501224278
100
AcDbArc
 50
179.9999999999996
 51
204.3428701752837
  0
ARC
  5
32E93
330
2
100
AcDbEntity
  8
DETAIL
100
AcDbCircle
 10
302.8060797510668
 20
21.40483019203399
 30
0.0
 40
0.1749436289962775
100
AcDbArc
 50
163.4494755261593
 51
179.9999999999996
  0
ARC
  5
32E95
330
2
100
AcDbEntity
  8
DETAIL
100
AcDbCircle
 10
302.8917263968196
 20
21.37937832675937
 30
0.0
 40
0.2642920781975703
100
AcDbArc
 50
136.5505244738613
 51
163.4495036819143
  0
ARC
  5
32E96
330
2
100
AcDbEntity
  8
DETAIL
100
AcDbCircle
 10
302.8268611120416
 20
21.44082456509312
 30
0.0
 40
0.1749436289961177
100
AcDbArc
 50
120.0000000000001
 51
136.5505244738631
  0
ARC
  5
32E97
330
2
100
AcDbEntity
  8
DETAIL
100
AcDbCircle
 10
302.7952402726048
 20
21.49559346557567
 30
0.0
 40
0.1117019501224736
100
AcDbArc
 50
95.65712982472787
 51
120.0
  0
ARC
  5
32E99
330
2
100
AcDbEntity
  8
DETAIL
100
AcDbCircle
 10
302.7894507744156
 20
21.55403921347835
 30
0.0
 40
0.0529701551798141
100
AcDbArc
 50
40.5048995659079
 51
95.65713736203536
  0
ARC
  5
32E9A
330
2
100
AcDbEntity
  8
DETAIL
100
AcDbCircle
 10
302.7101042769676
 20
21.48423790654677
 30
0.0
 40
0.1586456038630305
100
AcDbArc
 50
258.3836217487397
 51
41.61637825126628
  0
LINE
  5
32E9B
330
2
100
AcDbEntity
  8
DETAIL
100
AcDbLine
 10
321.3321130039944
 20
34.9787733217014
 30
0.0
 11
321.3321130039944
 21
55.64877332170141
 31
0.0
  0
LINE
  5
32E9C
330
2
100
AcDbEntity
  8
DETAIL
100
AcDbLine
 10
321.3321130039944
 20
59.21277329858643
 30
0.0
 11
321.3321130039944
 21
77.49277332170128
 31
0.0
  0
LINE
  5
32E9D
330
2
100
AcDbEntity
  8
DETAIL
100
AcDbLine
 10
321.2766750658705
 20
34.94676621320218
 30
0.0
 11
321.2766750658705
 21
55.61676621320223
 31
0.0
  0
LINE
  5
32E9E
330
2
100
AcDbEntity
  8
DETAIL
100
AcDbLine
 10
321.2766750658705
 20
59.18076619008727
 30
0.0
 11
321.2766750658703
 21
77.46076621320209
 31
0.0
  0
ARC
  5
32EA0
330
2
100
AcDbEntity
  8
DETAIL
100
AcDbCircle
 10
322.5887864126733
 20
79.7530792211698
 30
0.0
 40
0.0529701551798141
100
AcDbArc
 50
204.3428701752505
 51
259.4951064290484
  0
ARC
  5
32EA1
330
2
100
AcDbEntity
  8
DETAIL
100
AcDbCircle
 10
322.6422966641948
 20
79.77728824261415
 30
0.0
 40
0.1117019501224264
100
AcDbArc
 50
179.9999999999988
 51
204.3428701752837
  0
ARC
  5
32EA2
330
2
100
AcDbEntity
  8
DETAIL
100
AcDbCircle
 10
322.7055383430687
 20
79.77728824261415
 30
0.0
 40
0.1749436289962771
100
AcDbArc
 50
163.4494755261593
 51
179.9999999999996
  0
ARC
  5
32EA4
330
2
100
AcDbEntity
  8
DETAIL
100
AcDbCircle
 10
322.7911849888216
 20
79.75183637733953
 30
0.0
 40
0.2642920781975703
100
AcDbArc
 50
136.5505244738613
 51
163.4495036819143
  0
ARC
  5
32EA5
330
2
100
AcDbEntity
  8
DETAIL
100
AcDbCircle
 10
322.7263197040435
 20
79.81328261567326
 30
0.0
 40
0.1749436289961179
100
AcDbArc
 50
120.0
 51
136.5505244738631
  0
ARC
  5
32EA6
330
2
100
AcDbEntity
  8
DETAIL
100
AcDbCircle
 10
322.6946988646067
 20
79.86805151615583
 30
0.0
 40
0.1117019501224754
100
AcDbArc
 50
95.65712982472787
 51
119.9999999999996
  0
ARC
  5
32EA8
330
2
100
AcDbEntity
  8
DETAIL
100
AcDbCircle
 10
322.6889093664175
 20
79.92649726405851
 30
0.0
 40
0.0529701551798141
100
AcDbArc
 50
40.5048995659079
 51
95.65713736203536
  0
ARC
  5
32EA9
330
2
100
AcDbEntity
  8
DETAIL
100
AcDbCircle
 10
322.6095628689695
 20
79.85669595712692
 30
0.0
 40
0.1586456038630305
100
AcDbArc
 50
258.3836217487397
 51
41.61637825126628
  0
ELLIPSE
  5
32EAA
330
2
100
AcDbEntity
  8
DETAIL
100
AcDbEllipse
 10
322.8978869340366
 20
80.60077332170134
 30
0.0
 11
0.0587877412583986
 21
-0.1018233652774691
 31
0.0
210
0.0
220
0.0
230
-1.0
 40
0.5773502700019563
 41
3.926842653586462
 42
4.71053268663163
  0
ELLIPSE
  5
32EAB
330
2
100
AcDbEntity
  8
DETAIL
100
AcDbEllipse
 10
322.9255997469577
 20
80.64877332170132
 30
0.0
 11
0.0783836611058098
 21
0.0000000035184827
 31
0.0
210
0.0
220
0.0
230
-1.0
 40
0.577350269999849
 41
-0.7858426535901325
 42
0.7849536732056373
  0
ELLIPSE
  5
32EAC
330
2
100
AcDbEntity
  8
DETAIL
100
AcDbEllipse
 10
322.9255997469577
 20
80.64877332170134
 30
0.0
 11
0.0391918305529199
 21
0.0000000017592267
 31
0.0
210
0.0
220
0.0
230
-1.0
 40
0.5773502699996551
 41
-0.7858426535900779
 42
0.7849536732053754
  0
ARC
  5
32EAE
330
2
100
AcDbEntity
  8
DETAIL
100
AcDbCircle
 10
322.5887864126733
 20
34.77081894776238
 30
0.0
 40
0.0529701551798176
100
AcDbArc
 50
204.3428701752519
 51
259.4951064290484
  0
ARC
  5
32EAF
330
2
100
AcDbEntity
  8
DETAIL
100
AcDbCircle
 10
322.6422966641948
 20
34.79502796920673
 30
0.0
 40
0.1117019501224264
100
AcDbArc
 50
179.9999999999988
 51
204.3428701752837
  0
ARC
  5
32EB0
330
2
100
AcDbEntity
  8
DETAIL
100
AcDbCircle
 10
322.7055383430686
 20
34.79502796920673
 30
0.0
 40
0.1749436289962771
100
AcDbArc
 50
163.4494755261593
 51
179.9999999999996
  0
ARC
  5
32EB2
330
2
100
AcDbEntity
  8
DETAIL
100
AcDbCircle
 10
322.7911849888215
 20
34.76957610393211
 30
0.0
 40
0.2642920781975703
100
AcDbArc
 50
136.5505244738613
 51
163.4495036819143
  0
ARC
  5
32EB3
330
2
100
AcDbEntity
  8
DETAIL
100
AcDbCircle
 10
322.7263197040433
 20
34.83102234226585
 30
0.0
 40
0.1749436289961179
100
AcDbArc
 50
120.0
 51
136.5505244738631
  0
ARC
  5
32EB4
330
2
100
AcDbEntity
  8
DETAIL
100
AcDbCircle
 10
322.6946988646066
 20
34.88579124274841
 30
0.0
 40
0.1117019501224736
100
AcDbArc
 50
95.65712982472787
 51
120.0
  0
ARC
  5
32EB6
330
2
100
AcDbEntity
  8
DETAIL
100
AcDbCircle
 10
322.6889093664174
 20
34.94423699065109
 30
0.0
 40
0.0529701551798141
100
AcDbArc
 50
40.5048995659079
 51
95.65713736203536
  0
ARC
  5
32EB7
330
2
100
AcDbEntity
  8
DETAIL
100
AcDbCircle
 10
322.6095628689694
 20
34.87443568371951
 30
0.0
 40
0.1586456038630305
100
AcDbArc
 50
258.3836217487397
 51
41.61637825126628
  0
LINE
  5
32EB8
330
2
100
AcDbEntity
  8
DETAIL
100
AcDbLine
 10
322.1704255948576
 20
32.14877332170126
 30
0.0
 11
322.9810253727998
 21
32.61677332170116
 31
0.0
  0
ARC
  5
32EBA
330
2
100
AcDbEntity
  8
DETAIL
100
AcDbCircle
 10
322.5887864126733
 20
32.85452707386641
 30
0.0
 40
0.0529701551798176
100
AcDbArc
 50
204.3428701752519
 51
259.4951064290484
  0
ARC
  5
32EBB
330
2
100
AcDbEntity
  8
DETAIL
100
AcDbCircle
 10
322.6422966641947
 20
32.87873609531076
 30
0.0
 40
0.1117019501224264
100
AcDbArc
 50
179.9999999999988
 51
204.3428701752837
  0
ARC
  5
32EBC
330
2
100
AcDbEntity
  8
DETAIL
100
AcDbCircle
 10
322.7055383430685
 20
32.87873609531076
 30
0.0
 40
0.1749436289962771
100
AcDbArc
 50
163.4494755261593
 51
179.9999999999996
  0
ARC
  5
32EBE
330
2
100
AcDbEntity
  8
DETAIL
100
AcDbCircle
 10
322.7911849888215
 20
32.85328423003614
 30
0.0
 40
0.2642920781975703
100
AcDbArc
 50
136.5505244738613
 51
163.4495036819143
  0
ARC
  5
32EBF
330
2
100
AcDbEntity
  8
DETAIL
100
AcDbCircle
 10
322.7263197040433
 20
32.91473046836988
 30
0.0
 40
0.1749436289961179
100
AcDbArc
 50
120.0
 51
136.5505244738631
  0
ARC
  5
32EC0
330
2
100
AcDbEntity
  8
DETAIL
100
AcDbCircle
 10
322.6946988646066
 20
32.96949936885245
 30
0.0
 40
0.1117019501224736
100
AcDbArc
 50
95.65712982472787
 51
120.0
  0
ARC
  5
32EC2
330
2
100
AcDbEntity
  8
DETAIL
100
AcDbCircle
 10
322.6889093664174
 20
33.02794511675512
 30
0.0
 40
0.0529701551798141
100
AcDbArc
 50
40.5048995659079
 51
95.65713736203536
  0
ARC
  5
32EC3
330
2
100
AcDbEntity
  8
DETAIL
100
AcDbCircle
 10
322.6095628689693
 20
32.95814380982353
 30
0.0
 40
0.1586456038630305
100
AcDbArc
 50
258.3836217487397
 51
41.61637825126628
  0
LINE
  5
32EC4
330
2
100
AcDbEntity
  8
DETAIL
100
AcDbLine
 10
322.1427127819365
 20
32.16477332170125
 30
0.0
 11
322.1704255948576
 21
32.14877332170126
 31
0.0
  0
ELLIPSE
  5
32EC5
330
2
100
AcDbEntity
  8
DETAIL
100
AcDbEllipse
 10
322.9255997469576
 20
32.64877332170114
 30
0.0
 11
0.078383661105782
 21
0.0000000035184589
 31
0.0
210
0.0
220
0.0
230
-1.0
 40
0.5773502699997555
 41
-0.0006286039303136
 42
0.784953673204778
  0
ARC
  5
32ECB
330
2
100
AcDbEntity
  8
DETAIL
100
AcDbCircle
 10
319.5837762921964
 20
33.4337380637834
 30
0.0
 40
0.0529701551798176
100
AcDbArc
 50
204.3428701752519
 51
259.4951064290484
  0
ARC
  5
32ECC
330
2
100
AcDbEntity
  8
DETAIL
100
AcDbCircle
 10
319.6372865437179
 20
33.45794708522774
 30
0.0
 40
0.1117019501224264
100
AcDbArc
 50
179.9999999999988
 51
204.3428701752837
  0
ARC
  5
32ECD
330
2
100
AcDbEntity
  8
DETAIL
100
AcDbCircle
 10
319.7005282225917
 20
33.45794708522774
 30
0.0
 40
0.1749436289962771
100
AcDbArc
 50
163.4494755261593
 51
179.9999999999996
  0
ARC
  5
32ECF
330
2
100
AcDbEntity
  8
DETAIL
100
AcDbCircle
 10
319.7861748683446
 20
33.43249521995311
 30
0.0
 40
0.2642920781975703
100
AcDbArc
 50
136.5505244738613
 51
163.4495036819143
  0
ARC
  5
32ED0
330
2
100
AcDbEntity
  8
DETAIL
100
AcDbCircle
 10
319.7213095835665
 20
33.49394145828686
 30
0.0
 40
0.1749436289961179
100
AcDbArc
 50
120.0
 51
136.5505244738631
  0
ARC
  5
32ED1
330
2
100
AcDbEntity
  8
DETAIL
100
AcDbCircle
 10
319.6896887441297
 20
33.54871035876942
 30
0.0
 40
0.1117019501224736
100
AcDbArc
 50
95.65712982472787
 51
120.0
  0
ARC
  5
32ED3
330
2
100
AcDbEntity
  8
DETAIL
100
AcDbCircle
 10
319.6838992459405
 20
33.6071561066721
 30
0.0
 40
0.0529701551798141
100
AcDbArc
 50
40.5048995659079
 51
95.65713736203536
  0
ARC
  5
32ED4
330
2
100
AcDbEntity
  8
DETAIL
100
AcDbCircle
 10
319.6045527484924
 20
33.53735479974051
 30
0.0
 40
0.1586456038630305
100
AcDbArc
 50
258.3836217487397
 51
41.61637825126628
  0
ARC
  5
32ED6
330
2
100
AcDbEntity
  8
DETAIL
100
AcDbCircle
 10
316.1196746770587
 20
31.43373806378347
 30
0.0
 40
0.0529701551798176
100
AcDbArc
 50
204.3428701752519
 51
259.4951064290484
  0
ARC
  5
32ED7
330
2
100
AcDbEntity
  8
DETAIL
100
AcDbCircle
 10
316.1731849285802
 20
31.45794708522782
 30
0.0
 40
0.1117019501224264
100
AcDbArc
 50
179.9999999999988
 51
204.3428701752837
  0
ARC
  5
32ED8
330
2
100
AcDbEntity
  8
DETAIL
100
AcDbCircle
 10
316.2364266074539
 20
31.45794708522782
 30
0.0
 40
0.1749436289962771
100
AcDbArc
 50
163.4494755261593
 51
179.9999999999996
  0
ARC
  5
32EDA
330
2
100
AcDbEntity
  8
DETAIL
100
AcDbCircle
 10
316.3220732532068
 20
31.43249521995318
 30
0.0
 40
0.2642920781975703
100
AcDbArc
 50
136.5505244738613
 51
163.4495036819143
  0
ARC
  5
32EDB
330
2
100
AcDbEntity
  8
DETAIL
100
AcDbCircle
 10
316.2572079684287
 20
31.49394145828694
 30
0.0
 40
0.1749436289961179
100
AcDbArc
 50
120.0
 51
136.5505244738631
  0
ARC
  5
32EDC
330
2
100
AcDbEntity
  8
DETAIL
100
AcDbCircle
 10
316.2255871289919
 20
31.54871035876948
 30
0.0
 40
0.1117019501224736
100
AcDbArc
 50
95.65712982472787
 51
120.0
  0
ARC
  5
32EDE
330
2
100
AcDbEntity
  8
DETAIL
100
AcDbCircle
 10
316.2197976308028
 20
31.60715610667216
 30
0.0
 40
0.0529701551798141
100
AcDbArc
 50
40.5048995659079
 51
95.65713736203536
  0
ARC
  5
32EDF
330
2
100
AcDbEntity
  8
DETAIL
100
AcDbCircle
 10
316.1404511333547
 20
31.53735479974058
 30
0.0
 40
0.1586456038630305
100
AcDbArc
 50
258.3836217487397
 51
41.61637825126628
  0
ARC
  5
32EE1
330
2
100
AcDbEntity
  8
DETAIL
100
AcDbCircle
 10
312.6555730619209
 20
29.43373806378343
 30
0.0
 40
0.0529701551798176
100
AcDbArc
 50
204.3428701752519
 51
259.4951064290484
  0
ARC
  5
32EE2
330
2
100
AcDbEntity
  8
DETAIL
100
AcDbCircle
 10
312.7090833134423
 20
29.45794708522777
 30
0.0
 40
0.1117019501224264
100
AcDbArc
 50
179.9999999999988
 51
204.3428701752837
  0
ARC
  5
32EE3
330
2
100
AcDbEntity
  8
DETAIL
100
AcDbCircle
 10
312.7723249923162
 20
29.45794708522777
 30
0.0
 40
0.1749436289962771
100
AcDbArc
 50
163.4494755261593
 51
179.9999999999996
  0
ARC
  5
32EE5
330
2
100
AcDbEntity
  8
DETAIL
100
AcDbCircle
 10
312.857971638069
 20
29.43249521995316
 30
0.0
 40
0.2642920781975703
100
AcDbArc
 50
136.5505244738613
 51
163.4495036819143
  0
ARC
  5
32EE6
330
2
100
AcDbEntity
  8
DETAIL
100
AcDbCircle
 10
312.793106353291
 20
29.4939414582869
 30
0.0
 40
0.1749436289961179
100
AcDbArc
 50
120.0
 51
136.5505244738631
  0
ARC
  5
32EE7
330
2
100
AcDbEntity
  8
DETAIL
100
AcDbCircle
 10
312.7614855138542
 20
29.54871035876946
 30
0.0
 40
0.1117019501224736
100
AcDbArc
 50
95.65712982472787
 51
120.0
  0
ARC
  5
32EE9
330
2
100
AcDbEntity
  8
DETAIL
100
AcDbCircle
 10
312.755696015665
 20
29.60715610667214
 30
0.0
 40
0.0529701551798141
100
AcDbArc
 50
40.5048995659079
 51
95.65713736203536
  0
ARC
  5
32EEA
330
2
100
AcDbEntity
  8
DETAIL
100
AcDbCircle
 10
312.676349518217
 20
29.53735479974054
 30
0.0
 40
0.1586456038630305
100
AcDbArc
 50
258.3836217487397
 51
41.61637825126628
  0
ARC
  5
32EEC
330
2
100
AcDbEntity
  8
DETAIL
100
AcDbCircle
 10
309.1914714467832
 20
27.4337380637834
 30
0.0
 40
0.0529701551798176
100
AcDbArc
 50
204.3428701752519
 51
259.4951064290484
  0
ARC
  5
32EED
330
2
100
AcDbEntity
  8
DETAIL
100
AcDbCircle
 10
309.2449816983046
 20
27.45794708522775
 30
0.0
 40
0.1117019501224278
100
AcDbArc
 50
179.9999999999996
 51
204.3428701752837
  0
ARC
  5
32EEE
330
2
100
AcDbEntity
  8
DETAIL
100
AcDbCircle
 10
309.3082233771784
 20
27.45794708522775
 30
0.0
 40
0.1749436289962779
100
AcDbArc
 50
163.4494755261597
 51
180.0
  0
ARC
  5
32EF0
330
2
100
AcDbEntity
  8
DETAIL
100
AcDbCircle
 10
309.3938700229313
 20
27.43249521995311
 30
0.0
 40
0.2642920781975703
100
AcDbArc
 50
136.5505244738613
 51
163.4495036819143
  0
ARC
  5
32EF1
330
2
100
AcDbEntity
  8
DETAIL
100
AcDbCircle
 10
309.3290047381533
 20
27.49394145828686
 30
0.0
 40
0.1749436289961179
100
AcDbArc
 50
120.0
 51
136.5505244738631
  0
ARC
  5
32EF2
330
2
100
AcDbEntity
  8
DETAIL
100
AcDbCircle
 10
309.2973838987164
 20
27.54871035876941
 30
0.0
 40
0.1117019501224736
100
AcDbArc
 50
95.65712982472787
 51
120.0
  0
ARC
  5
32EF4
330
2
100
AcDbEntity
  8
DETAIL
100
AcDbCircle
 10
309.2915944005272
 20
27.60715610667209
 30
0.0
 40
0.0529701551798141
100
AcDbArc
 50
40.5048995659079
 51
95.65713736203536
  0
ARC
  5
32EF5
330
2
100
AcDbEntity
  8
DETAIL
100
AcDbCircle
 10
309.2122479030792
 20
27.53735479974051
 30
0.0
 40
0.1586456038630305
100
AcDbArc
 50
258.3836217487397
 51
41.61637825126628
  0
ARC
  5
32EF7
330
2
100
AcDbEntity
  8
DETAIL
100
AcDbCircle
 10
305.7273698316454
 20
25.43373806378346
 30
0.0
 40
0.0529701551798176
100
AcDbArc
 50
204.3428701752519
 51
259.4951064290484
  0
ARC
  5
32EF8
330
2
100
AcDbEntity
  8
DETAIL
100
AcDbCircle
 10
305.7808800831669
 20
25.45794708522781
 30
0.0
 40
0.1117019501224278
100
AcDbArc
 50
179.9999999999996
 51
204.3428701752837
  0
ARC
  5
32EF9
330
2
100
AcDbEntity
  8
DETAIL
100
AcDbCircle
 10
305.8441217620407
 20
25.45794708522781
 30
0.0
 40
0.1749436289962779
100
AcDbArc
 50
163.4494755261597
 51
180.0
  0
ARC
  5
32EFB
330
2
100
AcDbEntity
  8
DETAIL
100
AcDbCircle
 10
305.9297684077936
 20
25.43249521995318
 30
0.0
 40
0.2642920781975703
100
AcDbArc
 50
136.5505244738613
 51
163.4495036819143
  0
ARC
  5
32EFC
330
2
100
AcDbEntity
  8
DETAIL
100
AcDbCircle
 10
305.8649031230156
 20
25.49394145828693
 30
0.0
 40
0.1749436289961179
100
AcDbArc
 50
120.0
 51
136.5505244738631
  0
ARC
  5
32EFD
330
2
100
AcDbEntity
  8
DETAIL
100
AcDbCircle
 10
305.8332822835787
 20
25.54871035876948
 30
0.0
 40
0.1117019501224736
100
AcDbArc
 50
95.65712982472787
 51
120.0
  0
ARC
  5
32EFF
330
2
100
AcDbEntity
  8
DETAIL
100
AcDbCircle
 10
305.8274927853895
 20
25.60715610667216
 30
0.0
 40
0.0529701551798141
100
AcDbArc
 50
40.5048995659079
 51
95.65713736203536
  0
ARC
  5
32F00
330
2
100
AcDbEntity
  8
DETAIL
100
AcDbCircle
 10
305.7481462879415
 20
25.53735479974057
 30
0.0
 40
0.1586456038630305
100
AcDbArc
 50
258.3836217487397
 51
41.61637825126628
  0
ARC
  5
32F02
330
2
100
AcDbEntity
  8
DETAIL
100
AcDbCircle
 10
319.5699137288837
 20
78.14374161266538
 30
0.0
 40
0.0529701551798141
100
AcDbArc
 50
204.3428701752505
 51
259.4951064290484
  0
ARC
  5
32F03
330
2
100
AcDbEntity
  8
DETAIL
100
AcDbCircle
 10
319.6234239804052
 20
78.16795063410975
 30
0.0
 40
0.1117019501224253
100
AcDbArc
 50
179.9999999999992
 51
204.342870175284
  0
ARC
  5
32F04
330
2
100
AcDbEntity
  8
DETAIL
100
AcDbCircle
 10
319.6866656592791
 20
78.16795063410975
 30
0.0
 40
0.1749436289962755
100
AcDbArc
 50
163.4494755261593
 51
179.9999999999996
  0
ARC
  5
32F06
330
2
100
AcDbEntity
  8
DETAIL
100
AcDbCircle
 10
319.772312305032
 20
78.14249876883512
 30
0.0
 40
0.2642920781975703
100
AcDbArc
 50
136.5505244738613
 51
163.4495036819143
  0
ARC
  5
32F07
330
2
100
AcDbEntity
  8
DETAIL
100
AcDbCircle
 10
319.7074470202539
 20
78.20394500716886
 30
0.0
 40
0.1749436289961179
100
AcDbArc
 50
120.0
 51
136.5505244738631
  0
ARC
  5
32F08
330
2
100
AcDbEntity
  8
DETAIL
100
AcDbCircle
 10
319.6758261808171
 20
78.25871390765144
 30
0.0
 40
0.1117019501224754
100
AcDbArc
 50
95.65712982472787
 51
119.9999999999996
  0
ARC
  5
32F0A
330
2
100
AcDbEntity
  8
DETAIL
100
AcDbCircle
 10
319.6700366826279
 20
78.31715965555409
 30
0.0
 40
0.0529701551798141
100
AcDbArc
 50
40.50489956591126
 51
95.65713736203536
  0
ARC
  5
32F0B
330
2
100
AcDbEntity
  8
DETAIL
100
AcDbCircle
 10
319.5906901851798
 20
78.24735834862251
 30
0.0
 40
0.1586456038630305
100
AcDbArc
 50
258.3836217487397
 51
41.61637825126628
  0
ARC
  5
32F0D
330
2
100
AcDbEntity
  8
DETAIL
100
AcDbCircle
 10
316.105812113746
 20
76.14374161266535
 30
0.0
 40
0.0529701551798141
100
AcDbArc
 50
204.3428701752505
 51
259.4951064290484
  0
ARC
  5
32F0E
330
2
100
AcDbEntity
  8
DETAIL
100
AcDbCircle
 10
316.1593223652674
 20
76.16795063410972
 30
0.0
 40
0.1117019501224253
100
AcDbArc
 50
179.9999999999992
 51
204.342870175284
  0
ARC
  5
32F0F
330
2
100
AcDbEntity
  8
DETAIL
100
AcDbCircle
 10
316.2225640441413
 20
76.16795063410972
 30
0.0
 40
0.1749436289962755
100
AcDbArc
 50
163.4494755261593
 51
179.9999999999996
  0
ARC
  5
32F11
330
2
100
AcDbEntity
  8
DETAIL
100
AcDbCircle
 10
316.3082106898942
 20
76.14249876883508
 30
0.0
 40
0.2642920781975703
100
AcDbArc
 50
136.5505244738613
 51
163.4495036819143
  0
ARC
  5
32F12
330
2
100
AcDbEntity
  8
DETAIL
100
AcDbCircle
 10
316.2433454051162
 20
76.20394500716884
 30
0.0
 40
0.1749436289961179
100
AcDbArc
 50
120.0
 51
136.5505244738631
  0
ARC
  5
32F13
330
2
100
AcDbEntity
  8
DETAIL
100
AcDbCircle
 10
316.2117245656793
 20
76.25871390765138
 30
0.0
 40
0.1117019501224754
100
AcDbArc
 50
95.65712982472787
 51
119.9999999999996
  0
ARC
  5
32F15
330
2
100
AcDbEntity
  8
DETAIL
100
AcDbCircle
 10
316.2059350674902
 20
76.31715965555406
 30
0.0
 40
0.0529701551798141
100
AcDbArc
 50
40.50489956591126
 51
95.65713736203536
  0
ARC
  5
32F16
330
2
100
AcDbEntity
  8
DETAIL
100
AcDbCircle
 10
316.1265885700421
 20
76.24735834862248
 30
0.0
 40
0.1586456038630305
100
AcDbArc
 50
258.3836217487397
 51
41.61637825126628
  0
ARC
  5
32F18
330
2
100
AcDbEntity
  8
DETAIL
100
AcDbCircle
 10
312.6417104986082
 20
74.14374161266533
 30
0.0
 40
0.0529701551798141
100
AcDbArc
 50
204.3428701752505
 51
259.4951064290484
  0
ARC
  5
32F19
330
2
100
AcDbEntity
  8
DETAIL
100
AcDbCircle
 10
312.6952207501297
 20
74.16795063410967
 30
0.0
 40
0.1117019501224253
100
AcDbArc
 50
179.9999999999992
 51
204.342870175284
  0
ARC
  5
32F1A
330
2
100
AcDbEntity
  8
DETAIL
100
AcDbCircle
 10
312.7584624290035
 20
74.16795063410969
 30
0.0
 40
0.1749436289962755
100
AcDbArc
 50
163.4494755261593
 51
179.9999999999996
  0
ARC
  5
32F1C
330
2
100
AcDbEntity
  8
DETAIL
100
AcDbCircle
 10
312.8441090747564
 20
74.14249876883506
 30
0.0
 40
0.2642920781975703
100
AcDbArc
 50
136.5505244738613
 51
163.4495036819143
  0
ARC
  5
32F1D
330
2
100
AcDbEntity
  8
DETAIL
100
AcDbCircle
 10
312.7792437899783
 20
74.2039450071688
 30
0.0
 40
0.1749436289961179
100
AcDbArc
 50
120.0
 51
136.5505244738631
  0
ARC
  5
32F1E
330
2
100
AcDbEntity
  8
DETAIL
100
AcDbCircle
 10
312.7476229505415
 20
74.25871390765135
 30
0.0
 40
0.1117019501224754
100
AcDbArc
 50
95.65712982472787
 51
119.9999999999996
  0
ARC
  5
32F20
330
2
100
AcDbEntity
  8
DETAIL
100
AcDbCircle
 10
312.7418334523524
 20
74.31715965555405
 30
0.0
 40
0.0529701551798141
100
AcDbArc
 50
40.50489956591126
 51
95.65713736203536
  0
ARC
  5
32F21
330
2
100
AcDbEntity
  8
DETAIL
100
AcDbCircle
 10
312.6624869549043
 20
74.24735834862244
 30
0.0
 40
0.1586456038630305
100
AcDbArc
 50
258.3836217487397
 51
41.61637825126628
  0
ARC
  5
32F23
330
2
100
AcDbEntity
  8
DETAIL
100
AcDbCircle
 10
309.1776088834705
 20
72.14374161266538
 30
0.0
 40
0.0529701551798141
100
AcDbArc
 50
204.3428701752505
 51
259.4951064290484
  0
ARC
  5
32F24
330
2
100
AcDbEntity
  8
DETAIL
100
AcDbCircle
 10
309.2311191349919
 20
72.16795063410973
 30
0.0
 40
0.1117019501224253
100
AcDbArc
 50
179.9999999999992
 51
204.342870175284
  0
ARC
  5
32F25
330
2
100
AcDbEntity
  8
DETAIL
100
AcDbCircle
 10
309.2943608138658
 20
72.16795063410973
 30
0.0
 40
0.1749436289962755
100
AcDbArc
 50
163.4494755261593
 51
179.9999999999996
  0
ARC
  5
32F27
330
2
100
AcDbEntity
  8
DETAIL
100
AcDbCircle
 10
309.3800074596187
 20
72.14249876883511
 30
0.0
 40
0.2642920781975703
100
AcDbArc
 50
136.5505244738613
 51
163.4495036819143
  0
ARC
  5
32F28
330
2
100
AcDbEntity
  8
DETAIL
100
AcDbCircle
 10
309.3151421748406
 20
72.20394500716887
 30
0.0
 40
0.1749436289961179
100
AcDbArc
 50
120.0
 51
136.5505244738631
  0
ARC
  5
32F29
330
2
100
AcDbEntity
  8
DETAIL
100
AcDbCircle
 10
309.2835213354038
 20
72.25871390765141
 30
0.0
 40
0.1117019501224754
100
AcDbArc
 50
95.65712982472787
 51
119.9999999999996
  0
ARC
  5
32F2B
330
2
100
AcDbEntity
  8
DETAIL
100
AcDbCircle
 10
309.2777318372147
 20
72.31715965555409
 30
0.0
 40
0.0529701551798141
100
AcDbArc
 50
40.50489956591126
 51
95.65713736203536
  0
ARC
  5
32F2C
330
2
100
AcDbEntity
  8
DETAIL
100
AcDbCircle
 10
309.1983853397666
 20
72.24735834862251
 30
0.0
 40
0.1586456038630305
100
AcDbArc
 50
258.3836217487397
 51
41.61637825126628
  0
ARC
  5
32F2E
330
2
100
AcDbEntity
  8
DETAIL
100
AcDbCircle
 10
305.7135072683327
 20
70.14374161266537
 30
0.0
 40
0.0529701551798176
100
AcDbArc
 50
204.3428701752519
 51
259.4951064290484
  0
ARC
  5
32F2F
330
2
100
AcDbEntity
  8
DETAIL
100
AcDbCircle
 10
305.7670175198542
 20
70.1679506341097
 30
0.0
 40
0.1117019501224253
100
AcDbArc
 50
179.9999999999992
 51
204.342870175284
  0
ARC
  5
32F30
330
2
100
AcDbEntity
  8
DETAIL
100
AcDbCircle
 10
305.830259198728
 20
70.1679506341097
 30
0.0
 40
0.1749436289962763
100
AcDbArc
 50
163.4494755261593
 51
179.9999999999996
  0
ARC
  5
32F32
330
2
100
AcDbEntity
  8
DETAIL
100
AcDbCircle
 10
305.9159058444809
 20
70.14249876883508
 30
0.0
 40
0.2642920781975703
100
AcDbArc
 50
136.5505244738613
 51
163.4495036819143
  0
ARC
  5
32F33
330
2
100
AcDbEntity
  8
DETAIL
100
AcDbCircle
 10
305.8510405597029
 20
70.20394500716881
 30
0.0
 40
0.1749436289961171
100
AcDbArc
 50
119.9999999999999
 51
136.5505244738631
  0
ARC
  5
32F34
330
2
100
AcDbEntity
  8
DETAIL
100
AcDbCircle
 10
305.8194197202661
 20
70.25871390765138
 30
0.0
 40
0.1117019501224754
100
AcDbArc
 50
95.65712982472787
 51
119.9999999999996
  0
ARC
  5
32F36
330
2
100
AcDbEntity
  8
DETAIL
100
AcDbCircle
 10
305.8136302220769
 20
70.31715965555406
 30
0.0
 40
0.0529701551798141
100
AcDbArc
 50
40.50489956591126
 51
95.65713736203536
  0
ARC
  5
32F37
330
2
100
AcDbEntity
  8
DETAIL
100
AcDbCircle
 10
305.7342837246288
 20
70.24735834862247
 30
0.0
 40
0.1586456038630305
100
AcDbArc
 50
258.3836217487397
 51
41.61637825126628
  0
LINE
  5
32F38
330
2
100
AcDbEntity
  8
DETAIL
100
AcDbLine
 10
321.8058227430121
 20
78.97026976704109
 30
0.0
 11
322.1427127819364
 21
79.1647733217014
 31
0.0
  0
LINE
  5
32F39
330
2
100
AcDbEntity
  8
DETAIL
100
AcDbLine
 10
303.5508732566401
 20
69.33476976704127
 30
0.0
 11
303.1178667115565
 21
69.08477332167638
 31
0.0
  0
LINE
  5
32F3A
330
2
100
AcDbEntity
  8
DETAIL
100
AcDbLine
 10
321.9002256688768
 20
33.10276621815912
 30
0.0
 11
321.9002256688768
 21
34.10276621815921
 31
0.0
  0
LINE
  5
32F3B
330
2
100
AcDbEntity
  8
DETAIL
100
AcDbLine
 10
321.8188192809212
 20
34.74976621815923
 30
0.0
 11
321.7971686458264
 21
34.78726621815922
 31
0.0
  0
LINE
  5
32F3D
330
2
100
AcDbEntity
  8
DETAIL
100
AcDbLine
 10
321.818819280921
 20
34.79976621815922
 30
0.0
 11
321.818819280921
 21
35.0717662181592
 31
0.0
  0
LINE
  5
32F3E
330
2
100
AcDbEntity
  8
DETAIL
100
AcDbLine
 10
321.818819280921
 20
35.0717662181592
 30
0.0
 11
321.7512692994259
 21
35.18876621815919
 31
0.0
  0
LINE
  5
32F3F
330
2
100
AcDbEntity
  8
DETAIL
100
AcDbLine
 10
321.9002256688768
 20
34.10276621815921
 30
0.0
 11
321.818819280921
 21
34.24376621815915
 31
0.0
  0
LINE
  5
32F40
330
2
100
AcDbEntity
  8
DETAIL
100
AcDbLine
 10
321.818819280921
 20
34.24376621815915
 30
0.0
 11
321.8188192809212
 21
34.74976621815923
 31
0.0
  0
LINE
  5
32F41
330
2
100
AcDbEntity
  8
DETAIL
100
AcDbLine
 10
303.7136921894036
 20
22.60276621815917
 30
0.0
 11
321.9002256688768
 21
33.10276621815912
 31
0.0
  0
LINE
  5
32F42
330
2
100
AcDbEntity
  8
DETAIL
100
AcDbLine
 10
303.7136921894036
 20
23.60276621815926
 30
0.0
 11
321.9002256688768
 21
34.10276621815921
 31
0.0
  0
LINE
  5
32F43
330
2
100
AcDbEntity
  8
DETAIL
100
AcDbLine
 10
303.6322858014479
 20
23.74376621815919
 30
0.0
 11
321.818819280921
 21
34.24376621815915
 31
0.0
  0
LINE
  5
32F44
330
2
100
AcDbEntity
  8
DETAIL
100
AcDbLine
 10
303.6322858014479
 20
24.57176621815924
 30
0.0
 11
321.818819280921
 21
35.0717662181592
 31
0.0
  0
LINE
  5
32F45
330
2
100
AcDbEntity
  8
DETAIL
100
AcDbLine
 10
303.5647358199527
 20
24.68876621815923
 30
0.0
 11
321.7512692994259
 21
35.18876621815919
 31
0.0
  0
LINE
  5
32F46
330
2
100
AcDbEntity
  8
DETAIL
100
AcDbLine
 10
303.6322858014479
 20
24.24976621815926
 30
0.0
 11
305.6732368510677
 21
25.42810985606013
 31
0.0
  0
LINE
  5
32F48
330
2
100
AcDbEntity
  8
DETAIL
100
AcDbLine
 10
303.6244915728138
 20
23.25426621815918
 30
0.0
 11
303.6461422079085
 21
23.21676621815918
 31
0.0
  0
LINE
  5
32F49
330
2
100
AcDbEntity
  8
DETAIL
100
AcDbLine
 10
303.7136921894036
 20
22.60276621815917
 30
0.0
 11
303.7136921894036
 21
23.60276621815926
 31
0.0
  0
LINE
  5
32F4A
330
2
100
AcDbEntity
  8
DETAIL
100
AcDbLine
 10
303.6461422079085
 20
23.26676621815916
 30
0.0
 11
303.6244915728138
 21
23.25426621815918
 31
0.0
  0
LINE
  5
32F4B
330
2
100
AcDbEntity
  8
DETAIL
100
AcDbLine
 10
303.6461422079085
 20
23.54776621815922
 30
0.0
 11
303.6461422079085
 21
23.26676621815916
 31
0.0
  0
LINE
  5
32F4C
330
2
100
AcDbEntity
  8
DETAIL
100
AcDbLine
 10
303.6322858014479
 20
24.57176621815924
 30
0.0
 11
303.5647358199527
 21
24.68876621815923
 31
0.0
  0
LINE
  5
32F4D
330
2
100
AcDbEntity
  8
DETAIL
100
AcDbLine
 10
303.6322858014479
 20
24.29976621815925
 30
0.0
 11
303.6322858014479
 21
24.57176621815924
 31
0.0
  0
LINE
  5
32F4E
330
2
100
AcDbEntity
  8
DETAIL
100
AcDbLine
 10
303.6106351663533
 20
24.28726621815926
 30
0.0
 11
305.6701461626853
 21
25.47632544629064
 31
0.0
  0
LINE
  5
32F4F
330
2
100
AcDbEntity
  8
DETAIL
100
AcDbLine
 10
303.6322858014479
 20
24.24976621815926
 30
0.0
 11
303.6106351663533
 21
24.28726621815926
 31
0.0
  0
LINE
  5
32F50
330
2
100
AcDbEntity
  8
DETAIL
100
AcDbLine
 10
303.6322858014479
 20
23.74376621815919
 30
0.0
 11
303.6322858014479
 21
24.24976621815926
 31
0.0
  0
LINE
  5
32F51
330
2
100
AcDbEntity
  8
DETAIL
100
AcDbLine
 10
303.5647358199527
 20
24.68876621815923
 30
0.0
 11
303.5647358199527
 21
23.68876621815926
 31
0.0
  0
LINE
  5
32F52
330
2
100
AcDbEntity
  8
DETAIL
100
AcDbLine
 10
303.5647358199527
 20
23.68876621815926
 30
0.0
 11
303.6461422079085
 21
23.54776621815922
 31
0.0
  0
LINE
  5
32F53
330
2
100
AcDbEntity
  8
DETAIL
100
AcDbLine
 10
303.7136921894036
 20
23.60276621815926
 30
0.0
 11
303.6322858014479
 21
23.74376621815919
 31
0.0
  0
LINE
  5
32F54
330
2
100
AcDbEntity
  8
DETAIL
100
AcDbLine
 10
303.6461422079085
 20
23.21676621815918
 30
0.0
 11
303.6461422079085
 21
22.71976621815926
 31
0.0
  0
LINE
  5
32F55
330
2
100
AcDbEntity
  8
DETAIL
100
AcDbLine
 10
303.6461422079085
 20
22.71976621815926
 30
0.0
 11
303.7136921894036
 21
22.60276621815917
 31
0.0
  0
LINE
  5
32F56
330
2
100
AcDbEntity
  8
DETAIL
100
AcDbLine
 10
319.7483455365733
 20
33.60437764450999
 30
0.0
 11
321.818819280921
 21
34.79976621815922
 31
0.0
  0
LINE
  5
32F57
330
2
100
AcDbEntity
  8
DETAIL
100
AcDbLine
 10
319.7612952410643
 20
33.56185415988384
 30
0.0
 11
321.8188192809212
 21
34.74976621815931
 31
0.0
  0
LINE
  5
32F58
330
2
100
AcDbEntity
  8
DETAIL
100
AcDbLine
 10
316.2971936259266
 20
31.56185415988379
 30
0.0
 11
319.5296433116187
 21
33.42810985606009
 31
0.0
  0
LINE
  5
32F59
330
2
100
AcDbEntity
  8
DETAIL
100
AcDbLine
 10
316.2842439214356
 20
31.60437764451005
 30
0.0
 11
319.5265526232364
 21
33.47632544629057
 31
0.0
  0
LINE
  5
32F5A
330
2
100
AcDbEntity
  8
DETAIL
100
AcDbLine
 10
312.8201423062979
 20
29.60437764451004
 30
0.0
 11
316.0624510080987
 21
31.47632544629065
 31
0.0
  0
LINE
  5
32F5B
330
2
100
AcDbEntity
  8
DETAIL
100
AcDbLine
 10
312.8330920107888
 20
29.56185415988388
 30
0.0
 11
316.065541696481
 21
31.42810985606014
 31
0.0
  0
LINE
  5
32F5C
330
2
100
AcDbEntity
  8
DETAIL
100
AcDbLine
 10
305.8919390760224
 20
25.60437764451004
 30
0.0
 11
309.1342477778231
 21
27.47632544629058
 31
0.0
  0
LINE
  5
32F5D
330
2
100
AcDbEntity
  8
DETAIL
100
AcDbLine
 10
305.9048887805133
 20
25.56185415988379
 30
0.0
 11
309.1373384662054
 21
27.42810985606008
 31
0.0
  0
LINE
  5
32F5E
330
2
100
AcDbEntity
  8
DETAIL
100
AcDbLine
 10
321.8863631055642
 20
77.81276976704099
 30
0.0
 11
321.8863631055642
 21
78.81276976704106
 31
0.0
  0
LINE
  5
32F5F
330
2
100
AcDbEntity
  8
DETAIL
100
AcDbLine
 10
321.8049567176085
 20
79.45976976704108
 30
0.0
 11
321.7833060825139
 21
79.49726976704106
 31
0.0
  0
LINE
  5
32F61
330
2
100
AcDbEntity
  8
DETAIL
100
AcDbLine
 10
321.8049567176085
 20
79.50976976704106
 30
0.0
 11
321.8049567176085
 21
79.78176976704107
 31
0.0
  0
LINE
  5
32F62
330
2
100
AcDbEntity
  8
DETAIL
100
AcDbLine
 10
321.8049567176085
 20
79.78176976704107
 30
0.0
 11
321.7374067361133
 21
79.89876976704106
 31
0.0
  0
LINE
  5
32F63
330
2
100
AcDbEntity
  8
DETAIL
100
AcDbLine
 10
321.8863631055642
 20
78.81276976704106
 30
0.0
 11
321.8049567176084
 21
78.95376976704101
 31
0.0
  0
LINE
  5
32F64
330
2
100
AcDbEntity
  8
DETAIL
100
AcDbLine
 10
321.8049567176084
 20
78.95376976704101
 30
0.0
 11
321.8049567176085
 21
79.45976976704108
 31
0.0
  0
LINE
  5
32F65
330
2
100
AcDbEntity
  8
DETAIL
100
AcDbLine
 10
303.699829626091
 20
67.31276976704103
 30
0.0
 11
321.8863631055642
 21
77.81276976704099
 31
0.0
  0
LINE
  5
32F66
330
2
100
AcDbEntity
  8
DETAIL
100
AcDbLine
 10
303.6998296260911
 20
68.31276976704112
 30
0.0
 11
321.8863631055643
 21
78.81276976704106
 31
0.0
  0
LINE
  5
32F67
330
2
100
AcDbEntity
  8
DETAIL
100
AcDbLine
 10
303.6184232381353
 20
68.45376976704104
 30
0.0
 11
321.8049567176084
 21
78.95376976704101
 31
0.0
  0
LINE
  5
32F68
330
2
100
AcDbEntity
  8
DETAIL
100
AcDbLine
 10
303.6184232381353
 20
69.28176976704111
 30
0.0
 11
321.8049567176085
 21
79.78176976704107
 31
0.0
  0
LINE
  5
32F69
330
2
100
AcDbEntity
  8
DETAIL
100
AcDbLine
 10
303.5508732566401
 20
69.3987697670411
 30
0.0
 11
321.7374067361133
 21
79.89876976704106
 31
0.0
  0
LINE
  5
32F6A
330
2
100
AcDbEntity
  8
DETAIL
100
AcDbLine
 10
303.6184232381353
 20
68.95976976704112
 30
0.0
 11
305.659374287755
 21
70.13811340494192
 31
0.0
  0
LINE
  5
32F6C
330
2
100
AcDbEntity
  8
DETAIL
100
AcDbLine
 10
303.6106290095012
 20
67.96426976704103
 30
0.0
 11
303.6322796445958
 21
67.92676976704105
 31
0.0
  0
LINE
  5
32F6D
330
2
100
AcDbEntity
  8
DETAIL
100
AcDbLine
 10
303.699829626091
 20
67.31276976704103
 30
0.0
 11
303.6998296260911
 21
68.31276976704112
 31
0.0
  0
LINE
  5
32F6E
330
2
100
AcDbEntity
  8
DETAIL
100
AcDbLine
 10
303.6322796445958
 20
67.97676976704102
 30
0.0
 11
303.6106290095012
 21
67.96426976704103
 31
0.0
  0
LINE
  5
32F6F
330
2
100
AcDbEntity
  8
DETAIL
100
AcDbLine
 10
303.6322796445958
 20
68.25776976704108
 30
0.0
 11
303.6322796445958
 21
67.97676976704102
 31
0.0
  0
LINE
  5
32F70
330
2
100
AcDbEntity
  8
DETAIL
100
AcDbLine
 10
303.6184232381353
 20
69.28176976704111
 30
0.0
 11
303.5508732566401
 21
69.3987697670411
 31
0.0
  0
LINE
  5
32F71
330
2
100
AcDbEntity
  8
DETAIL
100
AcDbLine
 10
303.6184232381353
 20
69.00976976704112
 30
0.0
 11
303.6184232381353
 21
69.28176976704111
 31
0.0
  0
LINE
  5
32F72
330
2
100
AcDbEntity
  8
DETAIL
100
AcDbLine
 10
303.5967726030407
 20
68.99726976704112
 30
0.0
 11
305.6562835993727
 21
70.18632899517243
 31
0.0
  0
LINE
  5
32F73
330
2
100
AcDbEntity
  8
DETAIL
100
AcDbLine
 10
303.6184232381353
 20
68.95976976704112
 30
0.0
 11
303.5967726030407
 21
68.99726976704112
 31
0.0
  0
LINE
  5
32F74
330
2
100
AcDbEntity
  8
DETAIL
100
AcDbLine
 10
303.6184232381353
 20
68.45376976704104
 30
0.0
 11
303.6184232381353
 21
68.95976976704112
 31
0.0
  0
LINE
  5
32F75
330
2
100
AcDbEntity
  8
DETAIL
100
AcDbLine
 10
303.5508732566401
 20
69.3987697670411
 30
0.0
 11
303.5508732566401
 21
68.39876976704111
 31
0.0
  0
LINE
  5
32F76
330
2
100
AcDbEntity
  8
DETAIL
100
AcDbLine
 10
303.5508732566401
 20
68.39876976704111
 30
0.0
 11
303.6322796445958
 21
68.25776976704108
 31
0.0
  0
LINE
  5
32F77
330
2
100
AcDbEntity
  8
DETAIL
100
AcDbLine
 10
303.6998296260911
 20
68.31276976704112
 30
0.0
 11
303.6184232381353
 21
68.45376976704104
 31
0.0
  0
LINE
  5
32F78
330
2
100
AcDbEntity
  8
DETAIL
100
AcDbLine
 10
303.6322796445958
 20
67.92676976704105
 30
0.0
 11
303.6322796445959
 21
67.42976976704112
 31
0.0
  0
LINE
  5
32F79
330
2
100
AcDbEntity
  8
DETAIL
100
AcDbLine
 10
303.6322796445959
 20
67.42976976704112
 30
0.0
 11
303.699829626091
 21
67.31276976704103
 31
0.0
  0
LINE
  5
32F7A
330
2
100
AcDbEntity
  8
DETAIL
100
AcDbLine
 10
305.8780765127098
 20
70.31438119339194
 30
0.0
 11
309.1203852145105
 21
72.18632899517245
 31
0.0
  0
LINE
  5
32F7B
330
2
100
AcDbEntity
  8
DETAIL
100
AcDbLine
 10
305.8910262172007
 20
70.27185770876567
 30
0.0
 11
309.1234759028929
 21
72.13811340494192
 31
0.0
  0
LINE
  5
32F7C
330
2
100
AcDbEntity
  8
DETAIL
100
AcDbLine
 10
309.3551278323385
 20
72.2718577087657
 30
0.0
 11
312.5875775180305
 21
74.13811340494188
 31
0.0
  0
LINE
  5
32F7D
330
2
100
AcDbEntity
  8
DETAIL
100
AcDbLine
 10
309.3421781278475
 20
72.31438119339195
 30
0.0
 11
312.5844868296483
 21
74.1863289951724
 31
0.0
  0
LINE
  5
32F7E
330
2
100
AcDbEntity
  8
DETAIL
100
AcDbLine
 10
312.8062797429852
 20
74.3143811933919
 30
0.0
 11
316.048588444786
 21
76.18632899517243
 31
0.0
  0
LINE
  5
32F7F
330
2
100
AcDbEntity
  8
DETAIL
100
AcDbLine
 10
312.8192294474762
 20
74.27185770876562
 30
0.0
 11
316.0516791331683
 21
76.13811340494192
 31
0.0
  0
LINE
  5
32F80
330
2
100
AcDbEntity
  8
DETAIL
100
AcDbLine
 10
316.283331062614
 20
76.27185770876566
 30
0.0
 11
319.5157807483061
 21
78.13811340494204
 31
0.0
  0
LINE
  5
32F81
330
2
100
AcDbEntity
  8
DETAIL
100
AcDbLine
 10
316.2703813581229
 20
76.31438119339183
 30
0.0
 11
319.5126900599237
 21
78.18632899517234
 31
0.0
  0
LINE
  5
32F82
330
2
100
AcDbEntity
  8
DETAIL
100
AcDbLine
 10
319.7344829732608
 20
78.31438119339181
 30
0.0
 11
321.8049567176085
 21
79.50976976704106
 31
0.0
  0
LINE
  5
32F83
330
2
100
AcDbEntity
  8
DETAIL
100
AcDbLine
 10
319.7474326777517
 20
78.27185770876572
 30
0.0
 11
321.8049567176085
 21
79.45976976704118
 31
0.0
  0
LINE
  5
32F84
330
2
100
AcDbEntity
  8
DETAIL
100
AcDbLine
 10
309.35604069116
 20
27.60437764451
 30
0.0
 11
312.5983493929609
 21
29.4763254462906
 31
0.0
  0
LINE
  5
32F85
330
2
100
AcDbEntity
  8
DETAIL
100
AcDbLine
 10
309.368990395651
 20
27.56185415988385
 30
0.0
 11
312.6014400813432
 21
29.42810985606012
 31
0.0
  0
LINE
  5
32F88
330
2
100
AcDbEntity
  8
DETAIL
100
AcDbLine
 10
303.1178667089924
 20
45.13277332019582
 30
0.0
 11
322.1427127818123
 21
56.11677332162968
 31
0.0
  0
LINE
  5
32F89
330
2
100
AcDbEntity
  8
DETAIL
100
AcDbLine
 10
303.1178667086175
 20
47.16477331997936
 30
0.0
 11
322.1427127818123
 21
58.14877332162968
 31
0.0
  0
LINE
  5
32F8A
330
2
100
AcDbEntity
  8
DETAIL
100
AcDbLine
 10
303.1178667086234
 20
47.13277331998279
 30
0.0
 11
322.1427127818123
 21
58.11677332162966
 31
0.0
  0
LINE
  5
32F8B
330
2
100
AcDbEntity
  8
DETAIL
100
AcDbLine
 10
303.1178667083348
 20
48.69677329670127
 30
0.0
 11
321.3417091400066
 21
59.21831363029625
 31
0.0
  0
LINE
  5
32F8C
330
2
100
AcDbEntity
  8
DETAIL
100
AcDbLine
 10
303.1178667083407
 20
48.66477329670468
 30
0.0
 11
321.3694219529277
 21
59.20231363029626
 31
0.0
  0
LINE
  5
32F8D
330
2
100
AcDbEntity
  8
DETAIL
100
AcDbLine
 10
303.1178667084153
 20
48.26077330830517
 30
0.0
 11
321.3694219529277
 21
58.79831364185371
 31
0.0
  0
LINE
  5
32F8E
330
2
100
AcDbEntity
  8
DETAIL
100
AcDbLine
 10
303.1178667084389
 20
48.13277330831883
 30
0.0
 11
321.4248475787699
 21
58.70231364185375
 31
0.0
  0
ELLIPSE
  5
32F8F
330
2
100
AcDbEntity
  8
DETAIL
100
AcDbEllipse
 10
321.4248475787699
 20
58.76631364185377
 30
0.0
 11
-0.039191827505828
 21
0.0678822435185644
 31
0.0
210
0.0
220
0.0
230
-0.9999999999999998
 40
0.5773502699994243
 41
3.92684265359021
 42
5.49763898038342
  0
LINE
  5
32F90
330
2
100
AcDbEntity
  8
DETAIL
100
AcDbLine
 10
321.3694219529277
 20
59.20231363029626
 30
0.0
 11
321.3417091400066
 21
59.21831363029625
 31
0.0
  0
LINE
  5
32F91
330
2
100
AcDbEntity
  8
DETAIL
100
AcDbLine
 10
321.3694219529277
 20
58.79831364185371
 30
0.0
 11
321.3694219529277
 21
59.20231363029626
 31
0.0
  0
LINE
  5
32F92
330
2
100
AcDbEntity
  8
DETAIL
100
AcDbLine
 10
321.4248557879058
 20
58.70230891001185
 30
0.0
 11
322.1427127818123
 21
58.28785398134027
 31
0.0
  0
LINE
  5
32FA3
330
2
100
AcDbEntity
  8
DETAIL
  6
HIDDEN
100
AcDbLine
 10
393.1320641646946
 20
41.27169239786327
 30
0.0
 11
393.4801728330729
 21
41.27169239786327
 31
0.0
  0
LINE
  5
32FA4
330
2
100
AcDbEntity
  8
DETAIL
  6
HIDDEN
100
AcDbLine
 10
392.7101891646947
 20
40.84981739786328
 30
0.0
 11
393.0582978330729
 21
40.84981739786328
 31
0.0
  0
ARC
  5
32FA5
330
2
100
AcDbEntity
  8
DETAIL
  6
HIDDEN
100
AcDbCircle
 10
391.8586871729286
 20
39.4650249645149
 30
0.0
 40
1.386285345504487
100
AcDbArc
 50
89.67602067421742
 51
139.918056013902
  0
LINE
  5
32FA6
330
2
100
AcDbEntity
  8
DETAIL
  6
HIDDEN
100
AcDbLine
 10
391.9230064989636
 20
41.27169239786327
 30
0.0
 11
392.2869301398205
 21
41.27169239786327
 31
0.0
  0
LINE
  5
32FA7
330
2
100
AcDbEntity
  8
DETAIL
  6
HIDDEN
100
AcDbLine
 10
391.9146940358599
 20
40.84981739786328
 30
0.0
 11
392.262802704238
 21
40.84981739786328
 31
0.0
  0
LINE
  5
32FA8
330
2
100
AcDbEntity
  8
DETAIL
  6
HIDDEN
100
AcDbLine
 10
392.5903502686554
 20
40.77961739786323
 30
0.0
 11
392.6399891646949
 21
40.77961739786323
 31
0.0
  0
LINE
  5
32FA9
330
2
100
AcDbEntity
  8
DETAIL
  6
HIDDEN
100
AcDbLine
 10
392.192602704238
 20
40.77961739786323
 30
0.0
 11
392.2422416002772
 21
40.77961739786323
 31
0.0
  0
LINE
  5
32FAA
330
2
100
AcDbEntity
  8
DETAIL
  6
HIDDEN
100
AcDbLine
 10
392.3124416002774
 20
40.84981739786328
 30
0.0
 11
392.6605502686553
 21
40.84981739786328
 31
0.0
  0
LINE
  5
32FAB
330
2
100
AcDbEntity
  8
DETAIL
  6
HIDDEN
100
AcDbLine
 10
391.7948551398207
 20
40.77961739786323
 30
0.0
 11
391.8444940358599
 21
40.77961739786323
 31
0.0
  0
LINE
  5
32FAC
330
2
100
AcDbEntity
  8
DETAIL
  6
HIDDEN
100
AcDbLine
 10
392.4067690358598
 20
41.34189239786329
 30
0.0
 11
391.8444940358599
 21
40.77961739786323
 31
0.0
  0
LINE
  5
32FAD
330
2
100
AcDbEntity
  8
DETAIL
  6
HIDDEN
100
AcDbLine
 10
392.3571301398204
 20
41.34189239786329
 30
0.0
 11
391.7948551398207
 21
40.77961739786323
 31
0.0
  0
LINE
  5
32FAE
330
2
100
AcDbEntity
  8
DETAIL
  6
HIDDEN
100
AcDbLine
 10
392.754877704238
 20
41.34189239786329
 30
0.0
 11
392.192602704238
 21
40.77961739786323
 31
0.0
  0
LINE
  5
32FAF
330
2
100
AcDbEntity
  8
DETAIL
  6
HIDDEN
100
AcDbLine
 10
392.8045166002773
 20
41.34189239786329
 30
0.0
 11
392.2422416002772
 21
40.77961739786323
 31
0.0
  0
LINE
  5
32FB0
330
2
100
AcDbEntity
  8
DETAIL
  6
HIDDEN
100
AcDbLine
 10
393.1526252686554
 20
41.34189239786329
 30
0.0
 11
392.5903502686554
 21
40.77961739786323
 31
0.0
  0
LINE
  5
32FB1
330
2
100
AcDbEntity
  8
DETAIL
  6
HIDDEN
100
AcDbLine
 10
393.2022641646948
 20
41.34189239786329
 30
0.0
 11
392.6399891646949
 21
40.77961739786323
 31
0.0
  0
LINE
  5
32FB2
330
2
100
AcDbEntity
  8
DETAIL
  6
HIDDEN
100
AcDbLine
 10
393.1526252686554
 20
41.34189239786329
 30
0.0
 11
393.2022641646948
 21
41.34189239786329
 31
0.0
  0
LINE
  5
32FB3
330
2
100
AcDbEntity
  8
DETAIL
  6
HIDDEN
100
AcDbLine
 10
392.3571301398204
 20
41.34189239786329
 30
0.0
 11
392.4067690358598
 21
41.34189239786329
 31
0.0
  0
LINE
  5
32FB4
330
2
100
AcDbEntity
  8
DETAIL
  6
HIDDEN
100
AcDbLine
 10
392.754877704238
 20
41.34189239786329
 30
0.0
 11
392.8045166002773
 21
41.34189239786329
 31
0.0
  0
LINE
  5
32FB5
330
2
100
AcDbEntity
  8
DETAIL
  6
HIDDEN
100
AcDbLine
 10
392.3365690358599
 20
41.27169239786327
 30
0.0
 11
392.684677704238
 21
41.27169239786327
 31
0.0
  0
LINE
  5
32FB6
330
2
100
AcDbEntity
  8
DETAIL
  6
HIDDEN
100
AcDbLine
 10
392.7343166002773
 20
41.27169239786327
 30
0.0
 11
393.0824252686553
 21
41.27169239786327
 31
0.0
  0
LINE
  5
32FB7
330
2
100
AcDbEntity
  8
DETAIL
  6
HIDDEN
100
AcDbLine
 10
394.5790880907426
 20
40.77961739786323
 30
0.0
 11
394.628726986782
 21
40.77961739786323
 31
0.0
  0
LINE
  5
32FB8
330
2
100
AcDbEntity
  8
DETAIL
  6
HIDDEN
100
AcDbLine
 10
395.1406982354193
 20
41.34122754253986
 30
0.0
 11
395.1737908327787
 21
41.32468124386011
 31
0.0
  0
LINE
  5
32FB9
330
2
100
AcDbEntity
  8
DETAIL
  6
HIDDEN
100
AcDbLine
 10
395.1737908327787
 20
41.32468124386011
 30
0.0
 11
394.628726986782
 21
40.77961739786323
 31
0.0
  0
LINE
  5
32FBA
330
2
100
AcDbEntity
  8
DETAIL
  6
HIDDEN
100
AcDbLine
 10
395.1406982354193
 20
41.34122754253986
 30
0.0
 11
394.5790880907426
 21
40.77961739786323
 31
0.0
  0
LINE
  5
32FBB
330
2
100
AcDbEntity
  8
DETAIL
  6
HIDDEN
100
AcDbLine
 10
395.1125288374421
 20
41.26341924852336
 30
0.0
 11
395.3446012830273
 21
41.14738302573068
 31
0.0
  0
LINE
  5
32FBC
330
2
100
AcDbEntity
  8
DETAIL
  6
HIDDEN
100
AcDbLine
 10
395.3776938803871
 20
41.13083672705093
 30
0.0
 11
395.5178575387622
 21
41.06075489786327
 31
0.0
  0
LINE
  5
32FBD
330
2
100
AcDbEntity
  8
DETAIL
  6
HIDDEN
100
AcDbLine
 10
395.396925273701
 20
41.19970701640418
 30
0.0
 11
395.4300178710606
 21
41.18316071772444
 31
0.0
  0
LINE
  5
32FBE
330
2
100
AcDbEntity
  8
DETAIL
  6
HIDDEN
100
AcDbLine
 10
394.6989269867822
 20
40.84981739786328
 30
0.0
 11
395.0470356551601
 21
40.84981739786328
 31
0.0
  0
LINE
  5
32FBF
330
2
100
AcDbEntity
  8
DETAIL
  6
HIDDEN
100
AcDbLine
 10
395.5178575387622
 20
41.06075489786327
 30
0.0
 11
395.0959825387623
 21
40.84981739786328
 31
0.0
  0
LINE
  5
32FC0
330
2
100
AcDbEntity
  8
DETAIL
  6
HIDDEN
100
AcDbLine
 10
394.9768356551601
 20
40.77961739786323
 30
0.0
 11
395.0264745511993
 21
40.77961739786323
 31
0.0
  0
LINE
  5
32FC1
330
2
100
AcDbEntity
  8
DETAIL
  6
HIDDEN
100
AcDbLine
 10
395.396925273701
 20
41.19970701640418
 30
0.0
 11
394.9768356551601
 21
40.77961739786323
 31
0.0
  0
LINE
  5
32FC2
330
2
100
AcDbEntity
  8
DETAIL
  6
HIDDEN
100
AcDbLine
 10
395.4300178710606
 20
41.18316071772444
 30
0.0
 11
395.0264745511993
 21
40.77961739786323
 31
0.0
  0
LINE
  5
32FC3
330
2
100
AcDbEntity
  8
DETAIL
  6
HIDDEN
100
AcDbLine
 10
390.7980064989636
 20
41.76387989786327
 30
0.0
 11
390.7980064989636
 21
40.35762989786327
 31
0.0
  0
LINE
  5
32FC4
330
2
100
AcDbEntity
  8
DETAIL
  6
HIDDEN
100
AcDbLine
 10
392.9880978330729
 20
40.77961739786323
 30
0.0
 11
393.0377367291122
 21
40.77961739786323
 31
0.0
  0
ARC
  5
32FC5
330
2
100
AcDbEntity
  8
DETAIL
  6
HIDDEN
100
AcDbCircle
 10
391.8586871729286
 20
42.65648483121164
 30
0.0
 40
1.386285345504487
100
AcDbArc
 50
220.0819439860988
 51
272.659300552587
  0
LINE
  5
32FC6
330
2
100
AcDbEntity
  8
DETAIL
  6
HIDDEN
100
AcDbLine
 10
393.9275592935297
 20
41.27169239786327
 30
0.0
 11
394.2756679619076
 21
41.27169239786327
 31
0.0
  0
LINE
  5
32FC7
330
2
100
AcDbEntity
  8
DETAIL
  6
HIDDEN
100
AcDbLine
 10
393.9034318579471
 20
40.84981739786328
 30
0.0
 11
394.2515405263251
 21
40.84981739786328
 31
0.0
  0
LINE
  5
32FC8
330
2
100
AcDbEntity
  8
DETAIL
  6
HIDDEN
100
AcDbLine
 10
393.5056842935297
 20
40.84981739786328
 30
0.0
 11
393.8537929619077
 21
40.84981739786328
 31
0.0
  0
LINE
  5
32FC9
330
2
100
AcDbEntity
  8
DETAIL
  6
HIDDEN
100
AcDbLine
 10
393.5298117291122
 20
41.27169239786327
 30
0.0
 11
393.8779203974903
 21
41.27169239786327
 31
0.0
  0
LINE
  5
32FCA
330
2
100
AcDbEntity
  8
DETAIL
  6
HIDDEN
100
AcDbLine
 10
393.9481203974903
 20
41.34189239786329
 30
0.0
 11
393.9977592935297
 21
41.34189239786329
 31
0.0
  0
LINE
  5
32FCB
330
2
100
AcDbEntity
  8
DETAIL
  6
HIDDEN
100
AcDbLine
 10
393.5503728330728
 20
41.34189239786329
 30
0.0
 11
393.6000117291122
 21
41.34189239786329
 31
0.0
  0
LINE
  5
32FCC
330
2
100
AcDbEntity
  8
DETAIL
  6
HIDDEN
100
AcDbLine
 10
394.3458679619078
 20
41.34189239786329
 30
0.0
 11
394.3955068579472
 21
41.34189239786329
 31
0.0
  0
LINE
  5
32FCD
330
2
100
AcDbEntity
  8
DETAIL
  6
HIDDEN
100
AcDbLine
 10
394.3955068579472
 20
41.34189239786329
 30
0.0
 11
393.8332318579472
 21
40.77961739786323
 31
0.0
  0
LINE
  5
32FCE
330
2
100
AcDbEntity
  8
DETAIL
  6
HIDDEN
100
AcDbLine
 10
394.3458679619078
 20
41.34189239786329
 30
0.0
 11
393.7835929619078
 21
40.77961739786323
 31
0.0
  0
LINE
  5
32FCF
330
2
100
AcDbEntity
  8
DETAIL
  6
HIDDEN
100
AcDbLine
 10
393.9977592935297
 20
41.34189239786329
 30
0.0
 11
393.4354842935297
 21
40.77961739786323
 31
0.0
  0
LINE
  5
32FD0
330
2
100
AcDbEntity
  8
DETAIL
  6
HIDDEN
100
AcDbLine
 10
393.9481203974903
 20
41.34189239786329
 30
0.0
 11
393.3858453974904
 21
40.77961739786323
 31
0.0
  0
LINE
  5
32FD1
330
2
100
AcDbEntity
  8
DETAIL
  6
HIDDEN
100
AcDbLine
 10
393.3858453974904
 20
40.77961739786323
 30
0.0
 11
393.4354842935297
 21
40.77961739786323
 31
0.0
  0
LINE
  5
32FD2
330
2
100
AcDbEntity
  8
DETAIL
  6
HIDDEN
100
AcDbLine
 10
393.7835929619078
 20
40.77961739786323
 30
0.0
 11
393.8332318579472
 21
40.77961739786323
 31
0.0
  0
LINE
  5
32FD3
330
2
100
AcDbEntity
  8
DETAIL
  6
HIDDEN
100
AcDbLine
 10
394.1813405263251
 20
40.77961739786323
 30
0.0
 11
394.2309794223647
 21
40.77961739786323
 31
0.0
  0
LINE
  5
32FD4
330
2
100
AcDbEntity
  8
DETAIL
  6
HIDDEN
100
AcDbLine
 10
394.7230544223645
 20
41.27169239786327
 30
0.0
 11
395.0711630907428
 21
41.27169239786327
 31
0.0
  0
LINE
  5
32FD5
330
2
100
AcDbEntity
  8
DETAIL
  6
HIDDEN
100
AcDbLine
 10
394.7436155263251
 20
41.34189239786329
 30
0.0
 11
394.7932544223645
 21
41.34189239786329
 31
0.0
  0
LINE
  5
32FD6
330
2
100
AcDbEntity
  8
DETAIL
  6
HIDDEN
100
AcDbLine
 10
394.3011794223643
 20
40.84981739786328
 30
0.0
 11
394.6492880907428
 21
40.84981739786328
 31
0.0
  0
LINE
  5
32FD7
330
2
100
AcDbEntity
  8
DETAIL
  6
HIDDEN
100
AcDbLine
 10
394.325306857947
 20
41.27169239786327
 30
0.0
 11
394.6734155263251
 21
41.27169239786327
 31
0.0
  0
LINE
  5
32FD8
330
2
100
AcDbEntity
  8
DETAIL
  6
HIDDEN
100
AcDbLine
 10
394.7436155263251
 20
41.34189239786329
 30
0.0
 11
394.1813405263251
 21
40.77961739786323
 31
0.0
  0
LINE
  5
32FD9
330
2
100
AcDbEntity
  8
DETAIL
  6
HIDDEN
100
AcDbLine
 10
394.7932544223645
 20
41.34189239786329
 30
0.0
 11
394.2309794223647
 21
40.77961739786323
 31
0.0
  0
LINE
  5
32FDA
330
2
100
AcDbEntity
  8
DETAIL
  6
HIDDEN
100
AcDbLine
 10
393.1079367291122
 20
40.84981739786328
 30
0.0
 11
393.4560453974903
 21
40.84981739786328
 31
0.0
  0
LINE
  5
32FDB
330
2
100
AcDbEntity
  8
DETAIL
  6
HIDDEN
100
AcDbLine
 10
393.5503728330728
 20
41.34189239786329
 30
0.0
 11
392.9880978330729
 21
40.77961739786323
 31
0.0
  0
LINE
  5
32FDC
330
2
100
AcDbEntity
  8
DETAIL
  6
HIDDEN
100
AcDbLine
 10
393.6000117291122
 20
41.34189239786329
 30
0.0
 11
393.0377367291122
 21
40.77961739786323
 31
0.0
  0
LINE
  5
32FFC
330
2
100
AcDbEntity
  8
PANEL
100
AcDbLine
 10
366.7553192157504
 20
51.37302074153335
 30
0.0
 11
366.7553192157504
 21
68.06157351378651
 31
0.0
  0
LINE
  5
32FFF
330
2
100
AcDbEntity
  8
PANEL
100
AcDbLine
 10
379.1393192157502
 20
67.86957351378585
 30
0.0
 11
379.1393192157502
 21
68.06157351378651
 31
0.0
  0
LINE
  5
33001
330
2
100
AcDbEntity
  8
DETAIL
100
AcDbLine
 10
378.88731921575
 20
68.06157351378651
 30
0.0
 11
367.0073192157499
 21
68.06157351378651
 31
0.0
  0
LINE
  5
33015
330
2
100
AcDbEntity
  8
PANEL
100
AcDbLine
 10
366.7553192157507
 20
68.06157351378651
 30
0.0
 11
379.1393192157512
 21
68.06157351378651
 31
0.0
  0
LINE
  5
33016
330
2
100
AcDbEntity
  8
PANEL
100
AcDbLine
 10
379.1393192157512
 20
51.37302074153335
 30
0.0
 11
379.1393192157512
 21
61.86957351378495
 31
0.0
  0
LINE
  5
33018
330
2
100
AcDbEntity
  8
PANEL
100
AcDbLine
 10
366.9473192157503
 20
51.37302074153335
 30
0.0
 11
366.9473192157503
 21
68.06157351378651
 31
0.0
  0
LINE
  5
33019
330
2
100
AcDbEntity
  8
PANEL
100
AcDbLine
 10
378.9473192157496
 20
51.37302074153335
 30
0.0
 11
378.9473192157496
 21
68.06157351378651
 31
0.0
  0
LINE
  5
33187
330
2
100
AcDbEntity
  8
DETAIL
100
AcDbLine
 10
368.1265582450669
 20
66.32436935397691
 30
0.0
 11
368.1265582450669
 21
65.10301707645914
 31
0.0
1001
AcDbBlockRepETag
1070
     1
1071
        0
1005
33187
  0
LINE
  5
33188
330
2
100
AcDbEntity
  8
DETAIL
100
AcDbLine
 10
368.053155554869
 20
66.43495276466372
 30
0.0
 11
368.053155554869
 21
64.99243366577236
 31
0.0
1001
AcDbBlockRepETag
1070
     1
1071
        1
1005
33188
  0
LINE
  5
33189
330
2
100
AcDbEntity
  8
DETAIL
100
AcDbLine
 10
367.398721905947
 20
66.43495276466372
 30
0.0
 11
367.398721905947
 21
64.99243366577236
 31
0.0
1001
AcDbBlockRepETag
1070
     1
1071
        2
1005
33189
  0
LINE
  5
3318A
330
2
100
AcDbEntity
  8
DETAIL
100
AcDbLine
 10
367.3253192157498
 20
66.32436935397691
 30
0.0
 11
367.3253192157498
 21
65.10301707645914
 31
0.0
1001
AcDbBlockRepETag
1070
     1
1071
        3
1005
3318A
  0
LINE
  5
3318B
330
2
100
AcDbEntity
  8
DETAIL
100
AcDbLine
 10
366.7553192157504
 20
66.46369321521802
 30
0.0
 11
366.7553192157504
 21
64.96369321521803
 31
0.0
1001
AcDbBlockRepETag
1070
     1
1071
        4
1005
3318B
  0
LINE
  5
3318C
330
2
100
AcDbEntity
  8
DETAIL
100
AcDbLine
 10
366.6876949106907
 20
66.46369321521802
 30
0.0
 11
366.6876949106907
 21
64.96369321521803
 31
0.0
1001
AcDbBlockRepETag
1070
     1
1071
        5
1005
3318C
  0
LINE
  5
3318D
330
2
100
AcDbEntity
  8
DETAIL
100
AcDbLine
 10
366.562158813742
 20
66.08326426211085
 30
0.0
 11
366.562158813742
 21
65.34412216832521
 31
0.0
1001
AcDbBlockRepETag
1070
     1
1071
        6
1005
3318D
  0
ARC
  5
3318E
330
2
100
AcDbEntity
  8
DETAIL
100
AcDbCircle
 10
368.006558245067
 20
66.32436935397691
 30
0.0
 40
0.1199999999998966
100
AcDbArc
 50
0.0
 51
67.15055964441013
1001
AcDbBlockRepETag
1070
     1
1071
        7
1005
3318E
  0
ARC
  5
3318F
330
2
100
AcDbEntity
  8
DETAIL
100
AcDbCircle
 10
368.006558245067
 20
65.10301707645914
 30
0.0
 40
0.1199999999998966
100
AcDbArc
 50
292.8494403555898
 51
0.0
1001
AcDbBlockRepETag
1070
     1
1071
        8
1005
3318F
  0
ARC
  5
33190
330
2
100
AcDbEntity
  8
DETAIL
100
AcDbCircle
 10
367.7259387304078
 20
65.7689753295827
 30
0.0
 40
0.8426670788894179
100
AcDbArc
 50
247.1505596444454
 51
292.8494403556042
1001
AcDbBlockRepETag
1070
     1
1071
        9
1005
33190
  0
ARC
  5
33191
330
2
100
AcDbEntity
  8
DETAIL
100
AcDbCircle
 10
367.7259387304078
 20
65.65841110085336
 30
0.0
 40
0.8426670788894178
100
AcDbArc
 50
67.1505596443817
 51
112.8494403555336
1001
AcDbBlockRepETag
1070
     1
1071
       10
1005
33191
  0
ARC
  5
33192
330
2
100
AcDbEntity
  8
DETAIL
100
AcDbCircle
 10
367.4453192157497
 20
66.32436935397691
 30
0.0
 40
0.1199999999999465
100
AcDbArc
 50
112.8494403555898
 51
180.0
1001
AcDbBlockRepETag
1070
     1
1071
       11
1005
33192
  0
ARC
  5
33193
330
2
100
AcDbEntity
  8
DETAIL
100
AcDbCircle
 10
367.4453192157497
 20
65.10301707645914
 30
0.0
 40
0.1199999999999465
100
AcDbArc
 50
180.0
 51
247.1505596444102
1001
AcDbBlockRepETag
1070
     1
1071
       12
1005
33193
  0
ARC
  5
33194
330
2
100
AcDbEntity
  8
DETAIL
100
AcDbCircle
 10
367.8582364703697
 20
65.71369321521803
 30
0.0
 40
0.3750000000000893
100
AcDbArc
 50
315.6862194133058
 51
44.313780586824
1001
AcDbBlockRepETag
1070
     1
1071
       13
1005
33194
  0
LINE
  5
33195
330
2
100
AcDbEntity
  8
DETAIL
100
AcDbLine
 10
366.6876949106907
 20
64.96369321521803
 30
0.0
 11
366.7553192157504
 21
64.96369321521803
 31
0.0
1001
AcDbBlockRepETag
1070
     1
1071
       14
1005
33195
  0
LINE
  5
33196
330
2
100
AcDbEntity
  8
DETAIL
100
AcDbLine
 10
366.6876949106907
 20
66.46369321521802
 30
0.0
 11
366.7553192157504
 21
66.46369321521802
 31
0.0
1001
AcDbBlockRepETag
1070
     1
1071
       15
1005
33196
  0
ARC
  5
33197
330
2
100
AcDbEntity
  8
DETAIL
100
AcDbCircle
 10
367.2013594257574
 20
66.08326426211085
 30
0.0
 40
0.6392006120156913
100
AcDbArc
 50
143.4757025940329
 51
180.0
1001
AcDbBlockRepETag
1070
     1
1071
       16
1005
33197
  0
ARC
  5
33198
330
2
100
AcDbEntity
  8
DETAIL
100
AcDbCircle
 10
367.2013594257574
 20
65.34412216832521
 30
0.0
 40
0.6392006120156913
100
AcDbArc
 50
180.0
 51
216.5242974059667
1001
AcDbBlockRepETag
1070
     1
1071
       17
1005
33198
  0
LINE
  5
33199
330
2
100
AcDbEntity
  8
DETAIL
100
AcDbLine
 10
377.7680801864331
 20
66.42224965254539
 30
0.0
 11
377.7680801864331
 21
65.20089737502762
 31
0.0
1001
AcDbBlockRepETag
1070
     1
1071
        0
1005
33187
  0
LINE
  5
3319A
330
2
100
AcDbEntity
  8
DETAIL
100
AcDbLine
 10
377.8414828766311
 20
66.53283306323219
 30
0.0
 11
377.8414828766311
 21
65.09031396434084
 31
0.0
1001
AcDbBlockRepETag
1070
     1
1071
        1
1005
33188
  0
LINE
  5
3319B
330
2
100
AcDbEntity
  8
DETAIL
100
AcDbLine
 10
378.4959165255531
 20
66.53283306323219
 30
0.0
 11
378.4959165255531
 21
65.09031396434084
 31
0.0
1001
AcDbBlockRepETag
1070
     1
1071
        2
1005
33189
  0
LINE
  5
3319C
330
2
100
AcDbEntity
  8
DETAIL
100
AcDbLine
 10
378.5693192157503
 20
66.42224965254539
 30
0.0
 11
378.5693192157503
 21
65.20089737502762
 31
0.0
1001
AcDbBlockRepETag
1070
     1
1071
        3
1005
3318A
  0
LINE
  5
3319D
330
2
100
AcDbEntity
  8
DETAIL
100
AcDbLine
 10
379.4153192157494
 20
66.56157351378651
 30
0.0
 11
379.4153192157494
 21
65.06157351378651
 31
0.0
1001
AcDbBlockRepETag
1070
     1
1071
        4
1005
3318B
  0
LINE
  5
3319E
330
2
100
AcDbEntity
  8
DETAIL
100
AcDbLine
 10
379.4829435208091
 20
66.56157351378651
 30
0.0
 11
379.4829435208091
 21
65.06157351378651
 31
0.0
1001
AcDbBlockRepETag
1070
     1
1071
        5
1005
3318C
  0
LINE
  5
3319F
330
2
100
AcDbEntity
  8
DETAIL
100
AcDbLine
 10
379.6084796177578
 20
66.18114456067933
 30
0.0
 11
379.6084796177578
 21
65.4420024668937
 31
0.0
1001
AcDbBlockRepETag
1070
     1
1071
        6
1005
3318D
  0
ARC
  5
331A0
330
2
100
AcDbEntity
  8
DETAIL
100
AcDbCircle
 10
377.888080186433
 20
66.42224965254539
 30
0.0
 40
0.1199999999998966
100
AcDbArc
 50
112.8494403555899
 51
180.0
1001
AcDbBlockRepETag
1070
     1
1071
        7
1005
3318E
  0
ARC
  5
331A1
330
2
100
AcDbEntity
  8
DETAIL
100
AcDbCircle
 10
377.888080186433
 20
65.20089737502762
 30
0.0
 40
0.1199999999998966
100
AcDbArc
 50
180.0
 51
247.15055964441
1001
AcDbBlockRepETag
1070
     1
1071
        8
1005
3318F
  0
ARC
  5
331A2
330
2
100
AcDbEntity
  8
DETAIL
100
AcDbCircle
 10
378.1686997010922
 20
65.86685562815119
 30
0.0
 40
0.8426670788894179
100
AcDbArc
 50
247.1505596443958
 51
292.8494403555547
1001
AcDbBlockRepETag
1070
     1
1071
        9
1005
33190
  0
ARC
  5
331A3
330
2
100
AcDbEntity
  8
DETAIL
100
AcDbCircle
 10
378.1686997010922
 20
65.75629139942184
 30
0.0
 40
0.8426670788894178
100
AcDbArc
 50
67.1505596444665
 51
112.8494403556183
1001
AcDbBlockRepETag
1070
     1
1071
       10
1005
33191
  0
ARC
  5
331A4
330
2
100
AcDbEntity
  8
DETAIL
100
AcDbCircle
 10
378.4493192157504
 20
66.42224965254539
 30
0.0
 40
0.1199999999999465
100
AcDbArc
 50
0.0000000000000072
 51
67.15055964440999
1001
AcDbBlockRepETag
1070
     1
1071
       11
1005
33192
  0
ARC
  5
331A5
330
2
100
AcDbEntity
  8
DETAIL
100
AcDbCircle
 10
378.4493192157504
 20
65.20089737502762
 30
0.0
 40
0.1199999999999465
100
AcDbArc
 50
292.84944035559
 51
0.0000000000000072
1001
AcDbBlockRepETag
1070
     1
1071
       12
1005
33193
  0
ARC
  5
331A6
330
2
100
AcDbEntity
  8
DETAIL
100
AcDbCircle
 10
378.0364019611305
 20
65.81157351378651
 30
0.0
 40
0.3750000000000893
100
AcDbArc
 50
135.6862194131781
 51
224.3137805866963
1001
AcDbBlockRepETag
1070
     1
1071
       13
1005
33194
  0
LINE
  5
331A7
330
2
100
AcDbEntity
  8
DETAIL
100
AcDbLine
 10
379.4829435208091
 20
65.06157351378651
 30
0.0
 11
379.4153192157494
 21
65.06157351378651
 31
0.0
1001
AcDbBlockRepETag
1070
     1
1071
       14
1005
33195
  0
LINE
  5
331A8
330
2
100
AcDbEntity
  8
DETAIL
100
AcDbLine
 10
379.4829435208091
 20
66.56157351378651
 30
0.0
 11
379.4153192157494
 21
66.56157351378651
 31
0.0
1001
AcDbBlockRepETag
1070
     1
1071
       15
1005
33196
  0
ARC
  5
331A9
330
2
100
AcDbEntity
  8
DETAIL
100
AcDbCircle
 10
378.9692790057423
 20
66.18114456067933
 30
0.0
 40
0.6392006120156913
100
AcDbArc
 50
0.0000000000000072
 51
36.52429740596675
1001
AcDbBlockRepETag
1070
     1
1071
       16
1005
33197
  0
ARC
  5
331AA
330
2
100
AcDbEntity
  8
DETAIL
100
AcDbCircle
 10
378.9692790057423
 20
65.4420024668937
 30
0.0
 40
0.6392006120156913
100
AcDbArc
 50
323.4757025940335
 51
0.0000000000000072
1001
AcDbBlockRepETag
1070
     1
1071
       17
1005
33198
  0
ARC
  5
331C6
330
2
100
AcDbEntity
  8
DETAIL
100
AcDbCircle
 10
302.6695819683049
 20
46.39809317340676
 30
0.0
 40
0.0529701551798181
100
AcDbArc
 50
204.3428701752523
 51
259.4951064290484
  0
ARC
  5
331C7
330
2
100
AcDbEntity
  8
DETAIL
100
AcDbCircle
 10
302.7230922198264
 20
46.42230219485112
 30
0.0
 40
0.1117019501224269
100
AcDbArc
 50
180.0
 51
204.3428701752844
  0
ARC
  5
331C8
330
2
100
AcDbEntity
  8
DETAIL
100
AcDbCircle
 10
302.7863338987002
 20
46.42230219485112
 30
0.0
 40
0.1749436289962766
100
AcDbArc
 50
163.4494755261597
 51
180.0
  0
ARC
  5
331CA
330
2
100
AcDbEntity
  8
DETAIL
100
AcDbCircle
 10
302.8719805444532
 20
46.3968503295765
 30
0.0
 40
0.2642920781975707
100
AcDbArc
 50
136.5505244738613
 51
163.4495036819143
  0
ARC
  5
331CB
330
2
100
AcDbEntity
  8
DETAIL
100
AcDbCircle
 10
302.8071152596751
 20
46.45829656791024
 30
0.0
 40
0.1749436289961172
100
AcDbArc
 50
119.9999999999999
 51
136.5505244738631
  0
ARC
  5
331CC
330
2
100
AcDbEntity
  8
DETAIL
100
AcDbCircle
 10
302.7754944202382
 20
46.51306546839278
 30
0.0
 40
0.1117019501224735
100
AcDbArc
 50
95.65712982472787
 51
119.9999999999999
  0
ARC
  5
331CE
330
2
100
AcDbEntity
  8
DETAIL
100
AcDbCircle
 10
302.7697049220491
 20
46.57151121629548
 30
0.0
 40
0.0529701551798142
100
AcDbArc
 50
40.50489956591126
 51
95.65713736203536
  0
ARC
  5
331CF
330
2
100
AcDbEntity
  8
DETAIL
100
AcDbCircle
 10
302.690358424601
 20
46.50170990936389
 30
0.0
 40
0.1586456038630305
100
AcDbArc
 50
258.3836217487398
 51
41.61637825126628
  0
ARC
  5
331D1
330
2
100
AcDbEntity
  8
DETAIL
100
AcDbCircle
 10
302.6695819683049
 20
45.25563430685086
 30
0.0
 40
0.0529701551798181
100
AcDbArc
 50
204.3428701752523
 51
259.4951064290484
  0
ARC
  5
331D2
330
2
100
AcDbEntity
  8
DETAIL
100
AcDbCircle
 10
302.7230922198264
 20
45.27984332829522
 30
0.0
 40
0.1117019501224269
100
AcDbArc
 50
180.0
 51
204.3428701752844
  0
ARC
  5
331D3
330
2
100
AcDbEntity
  8
DETAIL
100
AcDbCircle
 10
302.7863338987002
 20
45.27984332829522
 30
0.0
 40
0.1749436289962766
100
AcDbArc
 50
163.4494755261597
 51
180.0
  0
ARC
  5
331D5
330
2
100
AcDbEntity
  8
DETAIL
100
AcDbCircle
 10
302.8719805444532
 20
45.25439146302058
 30
0.0
 40
0.2642920781975707
100
AcDbArc
 50
136.5505244738613
 51
163.4495036819143
  0
ARC
  5
331D6
330
2
100
AcDbEntity
  8
DETAIL
100
AcDbCircle
 10
302.8071152596751
 20
45.31583770135434
 30
0.0
 40
0.1749436289961172
100
AcDbArc
 50
119.9999999999999
 51
136.5505244738631
  0
ARC
  5
331D7
330
2
100
AcDbEntity
  8
DETAIL
100
AcDbCircle
 10
302.7754944202382
 20
45.3706066018369
 30
0.0
 40
0.1117019501224735
100
AcDbArc
 50
95.65712982472787
 51
119.9999999999999
  0
ARC
  5
331D9
330
2
100
AcDbEntity
  8
DETAIL
100
AcDbCircle
 10
302.7697049220491
 20
45.42905234973956
 30
0.0
 40
0.0529701551798142
100
AcDbArc
 50
40.50489956591126
 51
95.65713736203536
  0
ARC
  5
331DA
330
2
100
AcDbEntity
  8
DETAIL
100
AcDbCircle
 10
302.690358424601
 20
45.35925104280797
 30
0.0
 40
0.1586456038630305
100
AcDbArc
 50
258.3836217487398
 51
41.61637825126628
  0
ARC
  5
331DC
330
2
100
AcDbEntity
  8
DETAIL
100
AcDbCircle
 10
322.5415251658553
 20
57.73223022787774
 30
0.0
 40
0.0529701551798181
100
AcDbArc
 50
204.3428701752523
 51
259.4951064290484
  0
ARC
  5
331DD
330
2
100
AcDbEntity
  8
DETAIL
100
AcDbCircle
 10
322.5950354173769
 20
57.75643924932209
 30
0.0
 40
0.1117019501224269
100
AcDbArc
 50
180.0
 51
204.3428701752844
  0
ARC
  5
331DE
330
2
100
AcDbEntity
  8
DETAIL
100
AcDbCircle
 10
322.6582770962506
 20
57.75643924932209
 30
0.0
 40
0.1749436289962766
100
AcDbArc
 50
163.4494755261597
 51
180.0
  0
ARC
  5
331E0
330
2
100
AcDbEntity
  8
DETAIL
100
AcDbCircle
 10
322.7439237420035
 20
57.73098738404747
 30
0.0
 40
0.2642920781975707
100
AcDbArc
 50
136.5505244738613
 51
163.4495036819143
  0
ARC
  5
331E1
330
2
100
AcDbEntity
  8
DETAIL
100
AcDbCircle
 10
322.6790584572255
 20
57.79243362238121
 30
0.0
 40
0.1749436289961172
100
AcDbArc
 50
119.9999999999999
 51
136.5505244738631
  0
ARC
  5
331E2
330
2
100
AcDbEntity
  8
DETAIL
100
AcDbCircle
 10
322.6474376177886
 20
57.84720252286376
 30
0.0
 40
0.1117019501224735
100
AcDbArc
 50
95.65712982472787
 51
119.9999999999999
  0
ARC
  5
331E4
330
2
100
AcDbEntity
  8
DETAIL
100
AcDbCircle
 10
322.6416481195995
 20
57.90564827076645
 30
0.0
 40
0.0529701551798142
100
AcDbArc
 50
40.50489956591126
 51
95.65713736203536
  0
ARC
  5
331E5
330
2
100
AcDbEntity
  8
DETAIL
100
AcDbCircle
 10
322.5623016221514
 20
57.83584696383486
 30
0.0
 40
0.1586456038630305
100
AcDbArc
 50
258.3836217487398
 51
41.61637825126628
  0
ARC
  5
331E7
330
2
100
AcDbEntity
  8
DETAIL
100
AcDbCircle
 10
322.5415251658553
 20
56.58977136132183
 30
0.0
 40
0.0529701551798181
100
AcDbArc
 50
204.3428701752523
 51
259.4951064290484
  0
ARC
  5
331E8
330
2
100
AcDbEntity
  8
DETAIL
100
AcDbCircle
 10
322.5950354173769
 20
56.61398038276619
 30
0.0
 40
0.1117019501224269
100
AcDbArc
 50
180.0
 51
204.3428701752844
  0
ARC
  5
331E9
330
2
100
AcDbEntity
  8
DETAIL
100
AcDbCircle
 10
322.6582770962506
 20
56.61398038276619
 30
0.0
 40
0.1749436289962766
100
AcDbArc
 50
163.4494755261597
 51
180.0
  0
ARC
  5
331EB
330
2
100
AcDbEntity
  8
DETAIL
100
AcDbCircle
 10
322.7439237420035
 20
56.58852851749156
 30
0.0
 40
0.2642920781975707
100
AcDbArc
 50
136.5505244738613
 51
163.4495036819143
  0
ARC
  5
331EC
330
2
100
AcDbEntity
  8
DETAIL
100
AcDbCircle
 10
322.6790584572255
 20
56.64997475582531
 30
0.0
 40
0.1749436289961172
100
AcDbArc
 50
119.9999999999999
 51
136.5505244738631
  0
ARC
  5
331ED
330
2
100
AcDbEntity
  8
DETAIL
100
AcDbCircle
 10
322.6474376177886
 20
56.70474365630787
 30
0.0
 40
0.1117019501224735
100
AcDbArc
 50
95.65712982472787
 51
119.9999999999999
  0
ARC
  5
331EF
330
2
100
AcDbEntity
  8
DETAIL
100
AcDbCircle
 10
322.6416481195995
 20
56.76318940421055
 30
0.0
 40
0.0529701551798142
100
AcDbArc
 50
40.50489956591126
 51
95.65713736203536
  0
ARC
  5
331F0
330
2
100
AcDbEntity
  8
DETAIL
100
AcDbCircle
 10
322.5623016221514
 20
56.69338809727896
 30
0.0
 40
0.1586456038630305
100
AcDbArc
 50
258.3836217487398
 51
41.61637825126628
  0
TEXT
  5
33228
330
2
100
AcDbEntity
  8
DIM
100
AcDbText
 10
310.4394603180013
 20
78.31005600757006
 30
0.0
 40
1.5
  1
A
  7
STD
 72
     4
 11
311.1383006999931
 21
79.06005600757005
 31
0.0
100
AcDbText
  0
TEXT
  5
33229
330
2
100
AcDbEntity
  8
DIM
100
AcDbText
 10
310.4394603180013
 20
67.07835994510261
 30
0.0
 40
1.5
  1
A
  7
STD
 72
     4
 11
311.1383006999931
 21
67.82835994510262
 31
0.0
100
AcDbText
  0
TEXT
  5
34789
330
2
100
AcDbEntity
  8
Defpoints
100
AcDbText
 10
380.0422995800084
 20
19.41840837367077
 30
0.0
 40
1.5
  1
SCALED UP 6X
  7
STD
100
AcDbText
  0
LINE
  5
3478A
330
2
100
AcDbEntity
  8
0
 62
     4
100
AcDbLine
 10
390.6480064989637
 20
41.06075489786327
 30
0.0
 11
390.7980064989636
 21
40.91075489786324
 31
0.0
  0
LINE
  5
3478B
330
2
100
AcDbEntity
  8
0
 62
     4
100
AcDbLine
 10
390.7980064989636
 20
40.91075489786324
 30
0.0
 11
390.7980064989636
 21
37.92875489786333
 31
0.0
  0
LINE
  5
3478C
330
2
100
AcDbEntity
  8
0
 62
     4
100
AcDbLine
 10
390.7980064989636
 20
37.92875489786333
 30
0.0
 11
391.2660064989635
 21
37.46075489786331
 31
0.0
  0
LINE
  5
3478D
330
2
100
AcDbEntity
  8
0
 62
     4
100
AcDbLine
 10
391.2660064989635
 20
37.46075489786331
 30
0.0
 11
391.2660064989635
 21
43.46075489786331
 31
0.0
  0
LINE
  5
3478E
330
2
100
AcDbEntity
  8
0
 62
     4
100
AcDbLine
 10
391.2660064989635
 20
43.46075489786331
 30
0.0
 11
390.7020064989632
 21
44.02475489786335
 31
0.0
  0
LINE
  5
3478F
330
2
100
AcDbEntity
  8
0
 62
     4
100
AcDbLine
 10
390.7020064989632
 20
44.02475489786335
 30
0.0
 11
390.7020064989632
 21
47.06075489786336
 31
0.0
  0
LINE
  5
34790
330
2
100
AcDbEntity
  8
0
 62
     4
100
AcDbLine
 10
390.7020064989632
 20
47.06075489786336
 30
0.0
 11
390.5520064989633
 21
47.21075489786339
 31
0.0
  0
LINE
  5
34791
330
2
100
AcDbEntity
  8
0
 62
     4
100
AcDbLine
 10
390.5520064989633
 20
47.21075489786339
 30
0.0
 11
390.7020064989632
 21
47.36075489786342
 31
0.0
  0
LINE
  5
34792
330
2
100
AcDbEntity
  8
0
 62
     4
100
AcDbLine
 10
390.7020064989632
 20
47.36075489786342
 30
0.0
 11
390.7020064989632
 21
48.99275489786337
 31
0.0
  0
LINE
  5
34793
330
2
100
AcDbEntity
  8
0
 62
     4
100
AcDbLine
 10
390.7020064989632
 20
48.99275489786337
 30
0.0
 11
390.2340064989633
 21
49.46075489786339
 31
0.0
  0
LINE
  5
34794
330
2
100
AcDbEntity
  8
0
 62
     4
100
AcDbLine
 10
390.2340064989633
 20
49.46075489786339
 30
0.0
 11
390.2340064989633
 21
43.46075489786331
 31
0.0
  0
LINE
  5
34795
330
2
100
AcDbEntity
  8
0
 62
     4
100
AcDbLine
 10
390.2340064989633
 20
43.46075489786331
 30
0.0
 11
390.7980064989636
 21
42.89675489786334
 31
0.0
  0
LINE
  5
34796
330
2
100
AcDbEntity
  8
0
 62
     4
100
AcDbLine
 10
390.7980064989636
 20
42.89675489786334
 30
0.0
 11
390.7980064989636
 21
41.21075489786313
 31
0.0
  0
LINE
  5
34797
330
2
100
AcDbEntity
  8
0
 62
     4
100
AcDbLine
 10
390.7980064989636
 20
41.21075489786313
 30
0.0
 11
390.6480064989637
 21
41.06075489786327
 31
0.0
  0
LINE
  5
34798
330
2
100
AcDbEntity
  8
0
 62
     4
100
AcDbLine
 10
379.5113192157499
 20
59.51157351378636
 30
0.0
 11
379.5113192157499
 21
56.52957351378645
 31
0.0
  0
LINE
  5
34799
330
2
100
AcDbEntity
  8
0
 62
     4
100
AcDbLine
 10
379.5113192157499
 20
56.52957351378645
 30
0.0
 11
379.9793192157498
 21
56.06157351378643
 31
0.0
  0
LINE
  5
3479A
330
2
100
AcDbEntity
  8
0
 62
     4
100
AcDbLine
 10
379.9793192157498
 20
56.06157351378643
 30
0.0
 11
379.9793192157498
 21
62.06157351378642
 31
0.0
  0
LINE
  5
3479B
330
2
100
AcDbEntity
  8
0
 62
     4
100
AcDbLine
 10
379.9793192157498
 20
62.06157351378642
 30
0.0
 11
379.4153192157494
 21
62.62557351378648
 31
0.0
  0
LINE
  5
3479C
330
2
100
AcDbEntity
  8
0
 62
     4
100
AcDbLine
 10
379.4153192157494
 20
62.62557351378648
 30
0.0
 11
379.4153192157494
 21
65.66157351378648
 31
0.0
  0
LINE
  5
3479D
330
2
100
AcDbEntity
  8
0
 62
     4
100
AcDbLine
 10
379.4153192157494
 20
65.66157351378648
 30
0.0
 11
379.2653192157496
 21
65.81157351378651
 31
0.0
  0
LINE
  5
3479E
330
2
100
AcDbEntity
  8
0
 62
     4
100
AcDbLine
 10
379.2653192157496
 20
65.81157351378651
 30
0.0
 11
379.4153192157494
 21
65.96157351378653
 31
0.0
  0
LINE
  5
3479F
330
2
100
AcDbEntity
  8
0
 62
     4
100
AcDbLine
 10
379.4153192157494
 20
65.96157351378653
 30
0.0
 11
379.4153192157494
 21
67.5935735137865
 31
0.0
  0
LINE
  5
347A0
330
2
100
AcDbEntity
  8
0
 62
     4
100
AcDbLine
 10
379.4153192157494
 20
67.5935735137865
 30
0.0
 11
378.9473192157496
 21
68.06157351378651
 31
0.0
  0
LINE
  5
347A1
330
2
100
AcDbEntity
  8
0
 62
     4
100
AcDbLine
 10
378.9473192157496
 20
68.06157351378651
 30
0.0
 11
378.9473192157496
 21
62.06157351378642
 31
0.0
  0
LINE
  5
347A2
330
2
100
AcDbEntity
  8
0
 62
     4
100
AcDbLine
 10
378.9473192157496
 20
62.06157351378642
 30
0.0
 11
379.5113192157499
 21
61.49757351378646
 31
0.0
  0
LINE
  5
347A3
330
2
100
AcDbEntity
  8
0
 62
     4
100
AcDbLine
 10
379.5113192157499
 20
61.49757351378646
 30
0.0
 11
379.5113192157499
 21
59.81157351378626
 31
0.0
  0
LINE
  5
347A4
330
2
100
AcDbEntity
  8
0
 62
     4
100
AcDbLine
 10
379.5113192157499
 20
59.81157351378626
 30
0.0
 11
379.36131921575
 21
59.66157351378639
 31
0.0
  0
LINE
  5
347A5
330
2
100
AcDbEntity
  8
0
 62
     4
100
AcDbLine
 10
379.36131921575
 20
59.66157351378639
 30
0.0
 11
379.5113192157499
 21
59.51157351378636
 31
0.0
  0
LINE
  5
347A6
330
2
100
AcDbEntity
  8
DETAIL
100
AcDbLine
 10
392.2456889969027
 20
71.81703224563371
 30
0.0
 11
392.426473012127
 21
72.03248224526091
 31
0.0
1001
ACAD
1010
0.0
1020
0.0
1030
0.0
  0
LINE
  5
347A7
330
2
100
AcDbEntity
  8
DETAIL
100
AcDbLine
 10
392.7660064989635
 20
68.99631174392242
 30
0.0
 11
392.9467905141878
 21
69.21176174354963
 31
0.0
1001
ACAD
1010
0.0
1020
0.0
1030
0.0
  0
LINE
  5
347A8
330
2
100
AcDbEntity
  8
DETAIL
100
AcDbLine
 10
393.2863240010243
 20
66.17559124221118
 30
0.0
 11
393.4671080162486
 21
66.39104124183839
 31
0.0
1001
ACAD
1010
0.0
1020
0.0
1030
0.0
  0
LINE
  5
347A9
330
2
100
AcDbEntity
  8
DETAIL
100
AcDbLine
 10
392.2456889979147
 20
71.81703224529747
 30
0.0
 11
392.4698328049854
 21
71.79742220317925
 31
0.0
1001
ACAD
1010
0.0
1020
0.0
1030
0.0
  0
LINE
  5
347AA
330
2
100
AcDbEntity
  8
DETAIL
100
AcDbLine
 10
392.7660064989635
 20
68.99631174392244
 30
0.0
 11
392.9901503060341
 21
68.97670170180422
 31
0.0
1001
ACAD
1010
0.0
1020
0.0
1030
0.0
  0
LINE
  5
347AB
330
2
100
AcDbEntity
  8
DETAIL
100
AcDbLine
 10
393.2863240000123
 20
66.17559124254738
 30
0.0
 11
393.5104678070829
 21
66.15598120042918
 31
0.0
1001
ACAD
1010
0.0
1020
0.0
1030
0.0
  0
LINE
  5
347AC
330
2
100
AcDbEntity
  8
DETAIL
100
AcDbLine
 10
393.5104655972132
 20
66.15598081786162
 30
0.0
 11
393.4671059902729
 21
66.39104088618907
 31
0.0
1001
ACAD
1010
0.0
1020
0.0
1030
0.0
  0
LINE
  5
347AD
330
2
100
AcDbEntity
  8
DETAIL
100
AcDbLine
 10
392.9901502989634
 20
68.9767017189224
 30
0.0
 11
392.9467906920232
 21
69.21176178724987
 31
0.0
1001
ACAD
1010
0.0
1020
0.0
1030
0.0
  0
LINE
  5
347AE
330
2
100
AcDbEntity
  8
DETAIL
100
AcDbLine
 10
392.4698350007138
 20
71.7974226199832
 30
0.0
 11
392.4264753937734
 21
72.03248268831067
 31
0.0
1001
ACAD
1010
0.0
1020
0.0
1030
0.0
  0
LINE
  5
347AF
330
2
100
AcDbEntity
  8
DETAIL
100
AcDbLine
 10
392.7660064989635
 20
69.74631174392243
 30
0.0
 11
393.0580883568305
 21
70.05072380664325
 31
0.0
1001
ACAD
1010
0.0
1020
0.0
1030
0.0
  0
LINE
  5
347B0
330
2
100
AcDbEntity
  8
DETAIL
100
AcDbLine
 10
393.2631781369053
 20
65.47267068753885
 30
0.0
 11
393.5552599947723
 21
65.77708275025965
 31
0.0
1001
ACAD
1010
0.0
1020
0.0
1030
0.0
  0
LINE
  5
347B1
330
2
100
AcDbEntity
  8
DETAIL
100
AcDbLine
 10
393.5933943295593
 20
65.44925418158779
 30
0.0
 11
393.5552568291541
 21
65.77708281029507
 31
0.0
1001
ACAD
1010
0.0
1020
0.0
1030
0.0
  0
LINE
  5
347B2
330
2
100
AcDbEntity
  8
DETAIL
100
AcDbLine
 10
393.0995192927134
 20
69.69458684267245
 30
0.0
 11
393.0580886009643
 21
70.05072362977763
 31
0.0
1001
ACAD
1010
0.0
1020
0.0
1030
0.0
  0
LINE
  5
347B3
330
2
100
AcDbEntity
  8
DETAIL
100
AcDbLine
 10
392.7660064989635
 20
69.74631174392242
 30
0.0
 11
393.0995193266772
 21
69.69458705203935
 31
0.0
1001
ACAD
1010
0.0
1020
0.0
1030
0.0
  0
LINE
  5
347B4
330
2
100
AcDbEntity
  8
DETAIL
100
AcDbLine
 10
393.263178137277
 20
65.47267068785572
 30
0.0
 11
393.4141641545208
 21
65.4492541815878
 31
0.0
1001
ACAD
1010
0.0
1020
0.0
1030
0.0
  0
LINE
  5
347B5
330
2
100
AcDbEntity
  8
DETAIL
100
AcDbLine
 10
394.0534389929473
 20
72.27812441363283
 30
0.0
 11
394.2660064989635
 21
72.35972143420962
 31
0.0
1001
ACAD
1010
0.0
1020
0.0
1030
0.0
  0
LINE
  5
347B6
330
2
100
AcDbEntity
  8
DETAIL
100
AcDbLine
 10
393.1410064989634
 20
69.55881174392243
 30
0.0
 11
393.4035759939158
 21
69.65960272973204
 31
0.0
1001
ACAD
1010
0.0
1020
0.0
1030
0.0
  0
LINE
  5
347B7
330
2
100
AcDbEntity
  8
DETAIL
100
AcDbLine
 10
392.2285740049797
 20
66.83949907421203
 30
0.0
 11
392.491143499932
 21
66.94029006002164
 31
0.0
1001
ACAD
1010
0.0
1020
0.0
1030
0.0
  0
LINE
  5
347B8
330
2
100
AcDbEntity
  8
DETAIL
100
AcDbLine
 10
394.0534389936694
 20
72.27812441284815
 30
0.0
 11
394.2399724474943
 21
72.15230600956722
 31
0.0
1001
ACAD
1010
0.0
1020
0.0
1030
0.0
  0
LINE
  5
347B9
330
2
100
AcDbEntity
  8
DETAIL
100
AcDbLine
 10
393.1410064989634
 20
69.55881174392243
 30
0.0
 11
393.3275399527884
 21
69.43299334064153
 31
0.0
1001
ACAD
1010
0.0
1020
0.0
1030
0.0
  0
LINE
  5
347BA
330
2
100
AcDbEntity
  8
DETAIL
100
AcDbLine
 10
392.2285740042577
 20
66.83949907499672
 30
0.0
 11
392.4151074580823
 21
66.71368067171581
 31
0.0
1001
ACAD
1010
0.0
1020
0.0
1030
0.0
  0
LINE
  5
347BB
330
2
100
AcDbEntity
  8
DETAIL
100
AcDbLine
 10
392.4151052576247
 20
66.71368127086187
 30
0.0
 11
392.4911414733617
 21
66.94029059355736
 31
0.0
1001
ACAD
1010
0.0
1020
0.0
1030
0.0
  0
LINE
  5
347BC
330
2
100
AcDbEntity
  8
DETAIL
100
AcDbLine
 10
393.3275398727135
 20
69.43299322142244
 30
0.0
 11
393.4035760884506
 21
69.65960254411796
 31
0.0
1001
ACAD
1010
0.0
1020
0.0
1030
0.0
  0
LINE
  5
347BD
330
2
100
AcDbEntity
  8
DETAIL
100
AcDbLine
 10
394.2399744878023
 20
72.15230517198304
 30
0.0
 11
394.2660064989634
 21
72.22988789174924
 31
0.0
1001
ACAD
1010
0.0
1020
0.0
1030
0.0
  0
LINE
  5
347DB
330
2
100
AcDbEntity
  8
DETAIL
100
AcDbLine
 10
391.2660064989635
 20
65.44925418158777
 30
0.0
 11
391.2660064989635
 21
72.54336930625708
 31
0.0
  0
LINE
  5
347DC
330
2
100
AcDbEntity
  8
DETAIL
100
AcDbLine
 10
391.2660064989635
 20
72.54336930625708
 30
0.0
 11
394.2660064989635
 21
72.54336930625708
 31
0.0
  0
LINE
  5
347DD
330
2
100
AcDbEntity
  8
DETAIL
100
AcDbLine
 10
394.2660064989635
 20
72.54336930625708
 30
0.0
 11
394.2660064989635
 21
65.44925418158779
 31
0.0
  0
TEXT
  5
347DE
330
2
100
AcDbEntity
  8
DIM
100
AcDbText
 10
387.3734806966841
 20
63.22774131020036
 30
0.0
 40
1.5
  1
FLUSHMOUNT
  7
STD
100
AcDbText
  0
SOLID
  5
347DF
330
2
100
AcDbEntity
  8
DIM
100
AcDbTrace
 10
381.221780224533
 20
59.93838058586868
 30
0.0
 11
379.9793192157498
 21
59.06157351378642
 31
0.0
 12
380.8702503087882
 22
60.29394593617229
 32
0.0
 13
380.8702503087882
 23
60.29394593617229
 33
0.0
1001
ACAD
1000
DSTYLE
1002
{
1070
   147
1040
0.09
1070
    77
1070
     0
1002
}
  0
LWPOLYLINE
  5
347E0
330
2
100
AcDbEntity
  8
DIM
100
AcDbPolyline
 90
        3
 70
     0
 43
0.0
 10
381.0460152666606
 20
60.11616326102049
 10
384.9653770131916
 20
63.99104281088249
 10
386.4653770131917
 20
63.99104281088249
1001
ACAD
1000
DSTYLE
1002
{
1070
   147
1040
0.09
1070
    77
1070
     0
1002
}
  0
TEXT
  5
347E1
330
2
100
AcDbEntity
  8
DIM
100
AcDbText
 10
369.2917955517643
 20
42.73505433932522
 30
0.0
 40
1.5
  1
HANGER STRIP
  7
STD
100
AcDbText
  0
SOLID
  5
347E2
330
2
100
AcDbEntity
  8
DIM
100
AcDbTrace
 10
389.0328855549967
 20
45.52811966479286
 30
0.0
 11
390.2340064989633
 21
46.46075489786335
 31
0.0
 12
389.4002873032338
 22
45.18897964151014
 32
0.0
 13
389.4002873032338
 23
45.18897964151014
 33
0.0
1001
ACAD
1000
DSTYLE
1002
{
1070
   147
1040
0.09
1070
    77
1070
     0
1002
}
  0
LWPOLYLINE
  5
347E3
330
2
100
AcDbEntity
  8
DIM
100
AcDbPolyline
 90
        3
 70
     0
 43
0.0
 10
389.2165864291152
 20
45.35854965315151
 10
387.4990124685446
 20
43.49784424382727
 10
385.9990124685446
 20
43.49784424382727
1001
ACAD
1000
DSTYLE
1002
{
1070
   147
1040
0.09
1070
    77
1070
     0
1002
}
  0
TEXT
  5
347E4
330
2
100
AcDbEntity
  8
DIM
100
AcDbText
 10
379.8676817398038
 20
37.0567532682385
 30
0.0
 40
1.5
  1
FIELD
  7
STD
100
AcDbText
  0
TEXT
  5
347E5
330
2
100
AcDbEntity
  8
DIM
100
AcDbText
 10
374.5440118898721
 20
34.54396336373644
 30
0.0
 40
1.5
  1
FASTENER
  7
STD
100
AcDbText
  0
SOLID
  5
347E6
330
2
100
AcDbEntity
  8
DIM
100
AcDbTrace
 10
389.6578463668388
 20
39.90450697954825
 30
0.0
 11
390.7980064989636
 21
40.91075489786324
 31
0.0
 12
390.0458273204614
 22
39.58911709444374
 32
0.0
 13
390.0458273204614
 23
39.58911709444374
 33
0.0
1001
ACAD
1000
DSTYLE
1002
{
1070
   147
1040
0.09
1070
    77
1070
     0
1002
}
  0
LWPOLYLINE
  5
347E7
330
2
100
AcDbEntity
  8
DIM
100
AcDbPolyline
 90
        3
 70
     0
 43
0.0
 10
389.8518368436501
 20
39.74681203699599
 10
388.2747622309362
 20
37.8067532682385
 10
386.7747622309362
 20
37.8067532682385
1001
ACAD
1000
DSTYLE
1002
{
1070
   147
1040
0.09
1070
    77
1070
     0
1002
}
  0
TEXT
  5
347E8
330
2
100
AcDbEntity
  8
DIM
100
AcDbText
 10
354.1762567083561
 20
59.21015167131804
 30
0.0
 40
1.5
  1
PANEL
  7
STD
100
AcDbText
  0
TEXT
  5
347E9
330
2
100
AcDbEntity
  8
DIM
100
AcDbText
 10
355.4971980453276
 20
56.69736176681603
 30
0.0
 40
1.5
  1
FACE
  7
STD
100
AcDbText
  0
SOLID
  5
347EA
330
2
100
AcDbEntity
  8
DIM
100
AcDbTrace
 10
366.0000729722867
 20
57.35969757820623
 30
0.0
 11
366.7553192157507
 21
56.03981004067379
 31
0.0
 12
365.6128254597606
 22
57.04340757829721
 32
0.0
 13
365.6128254597606
 23
57.04340757829721
 33
0.0
1001
ACAD
1000
DSTYLE
1002
{
1070
   147
1040
0.09
1070
    77
1070
     0
1002
}
  0
LWPOLYLINE
  5
347EB
330
2
100
AcDbEntity
  8
DIM
100
AcDbPolyline
 90
        3
 70
     0
 43
0.0
 10
365.8064492160237
 20
57.20155257825171
 10
363.5533235569237
 20
59.96015167131806
 10
362.0533235569237
 20
59.96015167131806
1001
ACAD
1000
DSTYLE
1002
{
1070
   147
1040
0.09
1070
    77
1070
     0
1002
}
  0
TEXT
  5
347EC
330
2
100
AcDbEntity
  8
DIM
100
AcDbText
 10
376.4399324546939
 20
72.01267525367787
 30
0.0
 40
1.5
  1
C-CHANNEL
  7
STD
100
AcDbText
  0
SOLID
  5
347ED
330
2
100
AcDbEntity
  8
DIM
100
AcDbTrace
 10
373.5080299632013
 20
69.47511638816014
 30
0.0
 11
372.9473192157499
 21
68.06157351378651
 31
0.0
 12
373.0192749365152
 22
69.58056079952959
 32
0.0
 13
373.0192749365152
 23
69.58056079952959
 33
0.0
1001
ACAD
1000
DSTYLE
1002
{
1070
   147
1040
0.09
1070
    77
1070
     0
1002
}
  0
LWPOLYLINE
  5
347EE
330
2
100
AcDbEntity
  8
DIM
100
AcDbPolyline
 90
        3
 70
     0
 43
0.0
 10
373.2636524498583
 20
69.52783859384488
 10
373.9642980754306
 20
72.77546515817992
 10
375.4642980754306
 20
72.77546515817992
1001
ACAD
1000
DSTYLE
1002
{
1070
   147
1040
0.09
1070
    77
1070
     0
1002
}
  0
TEXT
  5
347EF
330
2
100
AcDbEntity
  8
DIM
100
AcDbText
 10
355.4569901216241
 20
68.148832964243
 30
0.0
 40
1.5
  1
RIVET
  7
STD
100
AcDbText
  0
TEXT
  5
347F0
330
2
100
AcDbEntity
  8
DIM
100
AcDbText
 10
357.6016013085272
 20
65.648832964243
 30
0.0
 40
1.5
  1
TYP
  7
STD
100
AcDbText
  0
SOLID
  5
347F1
330
2
100
AcDbEntity
  8
DIM
100
AcDbTrace
 10
365.8601567625434
 20
67.0626532294931
 30
0.0
 11
366.562158813742
 21
65.71369321521803
 31
0.0
 12
365.4606022741946
 22
66.76206013103542
 32
0.0
 13
365.4606022741946
 23
66.76206013103542
 33
0.0
1001
ACAD
1000
DSTYLE
1002
{
1070
   147
1040
0.09
1070
    77
1070
     0
1002
}
  0
LWPOLYLINE
  5
347F2
330
2
100
AcDbEntity
  8
DIM
100
AcDbPolyline
 90
        3
 70
     0
 43
0.0
 10
365.660379518369
 20
66.91235668026425
 10
364.1659123590047
 20
68.898832964243
 10
362.6659123590047
 20
68.898832964243
1001
ACAD
1000
DSTYLE
1002
{
1070
   147
1040
0.09
1070
    77
1070
     0
1002
}
  0
SOLID
  5
347F3
330
2
100
AcDbEntity
  8
SECTION
  6
PHANTOM2
 48
0.25
100
AcDbTrace
 10
312.416261854124
 20
78.40843063583219
 30
0.0
 11
313.8402999598006
 21
78.94192428488607
 31
0.0
 12
312.666261854124
 22
77.97541793393998
 32
0.0
 13
312.666261854124
 23
77.97541793393998
 33
0.0
  0
LWPOLYLINE
  5
347F4
330
2
100
AcDbEntity
  8
SECTION
  6
PHANTOM2
 48
0.25
100
AcDbPolyline
 90
        3
 70
     0
 43
0.0
 10
312.5412618541239
 20
78.1919242848861
 10
311.1383006999931
 20
77.38192428488606
 10
311.1383006999931
 20
69.02835994510262
  0
SOLID
  5
347F5
330
2
100
AcDbEntity
  8
SECTION
  6
PHANTOM2
100
AcDbTrace
 10
312.416261854124
 20
70.05486629604873
 30
0.0
 11
313.8402999598006
 21
70.58835994510262
 31
0.0
 12
312.666261854124
 22
69.62185359415652
 32
0.0
 13
312.666261854124
 23
69.62185359415652
 33
0.0
  0
LWPOLYLINE
  5
347F6
330
2
100
AcDbEntity
  8
SECTION
  6
PHANTOM2
100
AcDbPolyline
 90
        2
 70
     0
 43
0.0
 10
312.5412618541239
 20
69.83835994510261
 10
311.1383006999931
 20
69.02835994510262
  0
TEXT
  5
347F7
330
2
100
AcDbEntity
  8
DIM
100
AcDbText
 10
327.1610919388402
 20
43.10131063002346
 30
0.0
 40
1.5
  1
STABILIZER
  7
STD
100
AcDbText
  0
TEXT
  5
347F8
330
2
100
AcDbEntity
  8
DIM
100
AcDbText
 10
327.1283497833148
 20
40.57521922483927
 30
0.0
 40
1.5
  1
(IF REQUIRED)
  7
STD
100
AcDbText
  0
SOLID
  5
347F9
330
2
100
AcDbEntity
  8
DIM
100
AcDbTrace
 10
318.4568819428101
 20
52.23761569750132
 30
0.0
 11
317.7959255378068
 21
53.60715453619306
 31
0.0
 12
318.8653293280613
 22
52.52600906337757
 32
0.0
 13
318.8653293280613
 23
52.52600906337757
 33
0.0
1001
ACAD
1000
DSTYLE
1002
{
1070
   147
1040
0.09
1070
    77
1070
     0
1002
}
  0
LWPOLYLINE
  5
347FA
330
2
100
AcDbEntity
  8
DIM
100
AcDbPolyline
 90
        3
 70
     0
 43
0.0
 10
318.6611056354357
 20
52.38181238043943
 10
324.6752256359753
 20
43.86410053452549
 10
326.1752256359752
 20
43.86410053452549
1001
ACAD
1000
DSTYLE
1002
{
1070
   147
1040
0.09
1070
    77
1070
     0
1002
}
  0
TEXT
  5
347FB
330
2
100
AcDbEntity
  8
DIM
100
AcDbText
 10
322.5403227698227
 20
25.96166966076103
 30
0.0
 40
1.5
  1
J-CHANNEL
  7
STD
100
AcDbText
  0
SOLID
  5
347FC
330
2
100
AcDbEntity
  8
DIM
100
AcDbTrace
 10
318.5631411097818
 20
28.40527293126524
 30
0.0
 11
317.9221793851807
 21
29.78428274544219
 31
0.0
 12
318.9757409562933
 22
28.68769348055083
 32
0.0
 13
318.9757409562933
 23
28.68769348055083
 33
0.0
1001
ACAD
1000
DSTYLE
1002
{
1070
   147
1040
0.09
1070
    77
1070
     0
1002
}
  0
LWPOLYLINE
  5
347FD
330
2
100
AcDbEntity
  8
DIM
100
AcDbPolyline
 90
        3
 70
     0
 43
0.0
 10
318.7694410330375
 20
28.54648320590803
 10
320.0165983496317
 20
26.72445956526308
 10
321.5165983496317
 20
26.72445956526308
1001
ACAD
1000
DSTYLE
1002
{
1070
   147
1040
0.09
1070
    77
1070
     0
1002
}
  0
TEXT
  5
347FE
330
2
100
AcDbEntity
  8
DIM
100
AcDbText
 10
314.8399605128934
 20
21.3386894848435
 30
0.0
 40
1.5
  1
FLUSHMOUNT TYP
  7
STD
100
AcDbText
  0
SOLID
  5
347FF
330
2
100
AcDbEntity
  8
DIM
100
AcDbTrace
 10
310.1369050652798
 20
25.09784256029809
 30
0.0
 11
309.5137086370722
 21
26.48497132572301
 31
0.0
 12
310.5530983714605
 22
25.37494025406407
 32
0.0
 13
310.5530983714605
 23
25.37494025406407
 33
0.0
1001
ACAD
1000
DSTYLE
1002
{
1070
   147
1040
0.09
1070
    77
1070
     0
1002
}
  0
LWPOLYLINE
  5
34800
330
2
100
AcDbEntity
  8
DIM
100
AcDbPolyline
 90
        3
 70
     0
 43
0.0
 10
310.3450017183702
 20
25.23639140718108
 10
312.4318568294009
 20
22.10199098552563
 10
313.9318568294009
 20
22.10199098552563
1001
ACAD
1000
DSTYLE
1002
{
1070
   147
1040
0.09
1070
    77
1070
     0
1002
}
  0
TEXT
  5
34801
330
2
100
AcDbEntity
  8
DIM
100
AcDbText
 10
289.1663382736449
 20
80.7039457321054
 30
0.0
 40
1.5
  1
C-CHANNEL
  7
STD
100
AcDbText
  0
SOLID
  5
34802
330
2
100
AcDbEntity
  8
DIM
100
AcDbTrace
 10
308.272686597214
 20
74.96341160028065
 30
0.0
 11
308.8582004586361
 21
73.55996102470541
 31
0.0
 12
307.8491628354827
 22
74.69765301951806
 32
0.0
 13
307.8491628354827
 23
74.69765301951806
 33
0.0
1001
ACAD
1000
DSTYLE
1002
{
1070
   147
1040
0.09
1070
    77
1070
     0
1002
}
  0
LWPOLYLINE
  5
34803
330
2
100
AcDbEntity
  8
DIM
100
AcDbPolyline
 90
        3
 70
     0
 43
0.0
 10
308.0609247163483
 20
74.83053230989934
 10
303.8967475505889
 20
81.46673563660746
 10
302.396747550589
 20
81.46673563660746
1001
ACAD
1000
DSTYLE
1002
{
1070
   147
1040
0.09
1070
    77
1070
     0
1002
}
  0
TEXT
  5
34804
330
2
100
AcDbEntity
  8
TEXT
100
AcDbText
 10
372.8863258163729
 20
26.5761418303458
 30
0.0
 40
1.5
  1
%%USECTION A-A
  7
STD
100
AcDbText
  0
LINE
  5
34805
330
2
100
AcDbEntity
  8
0
 62
     4
100
AcDbLine
 10
367.3853192157503
 20
67.68357351378651
 30
0.0
 11
378.5093192157503
 21
67.68357351378651
 31
0.0
  0
ARC
  5
34806
330
2
100
AcDbEntity
  8
0
 62
     4
100
AcDbCircle
 10
378.5093192157503
 20
67.62357351378651
 30
0.0
 40
0.0600000000000023
100
AcDbArc
 50
0.0
 51
90.00000000005426
  0
LINE
  5
34807
330
2
100
AcDbEntity
  8
0
 62
     4
100
AcDbLine
 10
378.5693192157503
 20
67.62357351378651
 30
0.0
 11
378.5693192157503
 21
62.12157351378652
 31
0.0
  0
ARC
  5
34808
330
2
100
AcDbEntity
  8
0
 62
     4
100
AcDbCircle
 10
378.6293192157503
 20
62.1215735137865
 30
0.0
 40
0.0600000000000023
100
AcDbArc
 50
179.9999999999932
 51
270.0
  0
LINE
  5
34809
330
2
100
AcDbEntity
  8
0
 62
     4
100
AcDbLine
 10
378.6293192157503
 20
62.0615735137865
 30
0.0
 11
378.8873192157503
 21
62.0615735137865
 31
0.0
  0
ARC
  5
3480A
330
2
100
AcDbEntity
  8
0
 62
     4
100
AcDbCircle
 10
378.8873192157502
 20
62.1215735137865
 30
0.0
 40
0.0600000000000023
100
AcDbArc
 50
270.0000000000542
 51
0.0000000000067852
  0
ARC
  5
3480C
330
2
100
AcDbEntity
  8
0
 62
     4
100
AcDbCircle
 10
378.8873192157502
 20
68.0015735137865
 30
0.0
 40
0.0600000000000591
100
AcDbArc
 50
0.0
 51
89.99999999994575
  0
LINE
  5
3480D
330
2
100
AcDbEntity
  8
0
 62
     4
100
AcDbLine
 10
378.8873192157503
 20
68.06157351378651
 30
0.0
 11
367.0073192157503
 21
68.06157351378651
 31
0.0
  0
ARC
  5
3480E
330
2
100
AcDbEntity
  8
0
 62
     4
100
AcDbCircle
 10
367.0073192157503
 20
68.0015735137865
 30
0.0
 40
0.0600000000000165
100
AcDbArc
 50
90.00000000005426
 51
180.0
  0
LINE
  5
3480F
330
2
100
AcDbEntity
  8
0
 62
     4
100
AcDbLine
 10
366.9473192157503
 20
68.0015735137865
 30
0.0
 11
366.9473192157503
 21
62.1215735137865
 31
0.0
  0
ARC
  5
34810
330
2
100
AcDbEntity
  8
0
 62
     4
100
AcDbCircle
 10
367.0073192157503
 20
62.1215735137865
 30
0.0
 40
0.0600000000000591
100
AcDbArc
 50
180.0
 51
269.9999999999458
  0
LINE
  5
34811
330
2
100
AcDbEntity
  8
0
 62
     4
100
AcDbLine
 10
367.0073192157503
 20
62.06157351378648
 30
0.0
 11
367.2653192157503
 21
62.0615735137865
 31
0.0
  0
ARC
  5
34812
330
2
100
AcDbEntity
  8
0
 62
     4
100
AcDbCircle
 10
367.2653192157503
 20
62.1215735137865
 30
0.0
 40
0.0600000000000023
100
AcDbArc
 50
270.0
 51
0.0000000000067852
  0
LINE
  5
34813
330
2
100
AcDbEntity
  8
0
 62
     4
100
AcDbLine
 10
367.3253192157503
 20
62.12157351378652
 30
0.0
 11
367.3253192157503
 21
67.62357351378651
 31
0.0
  0
ARC
  5
34814
330
2
100
AcDbEntity
  8
0
 62
     4
100
AcDbCircle
 10
367.3853192157502
 20
67.62357351378651
 30
0.0
 40
0.0599999999999454
100
AcDbArc
 50
89.99999999994575
 51
180.0
  0
LINE
  5
34815
330
2
100
AcDbEntity
  8
SECTION
  6
Continuous
100
AcDbLine
 10
365.9454614578717
 20
51.37302074153335
 30
0.0
 11
372.6432555188438
 21
51.37302074153335
 31
0.0
  0
LINE
  5
34816
330
2
100
AcDbEntity
  8
SECTION
  6
Continuous
100
AcDbLine
 10
372.6432555188438
 20
51.37302074153335
 30
0.0
 11
372.868255518844
 21
51.99120316091061
 31
0.0
  0
LINE
  5
34817
330
2
100
AcDbEntity
  8
SECTION
  6
Continuous
100
AcDbLine
 10
372.868255518844
 20
51.99120316091061
 30
0.0
 11
373.3182555188443
 21
50.75483832215603
 31
0.0
  0
LINE
  5
34818
330
2
100
AcDbEntity
  8
SECTION
  6
Continuous
100
AcDbLine
 10
373.3182555188443
 20
50.75483832215603
 30
0.0
 11
373.5432555188444
 21
51.37302074153335
 31
0.0
  0
LINE
  5
34819
330
2
100
AcDbEntity
  8
SECTION
  6
Continuous
100
AcDbLine
 10
373.5432555188444
 20
51.37302074153335
 30
0.0
 11
379.9063304795684
 21
51.37302074153335
 31
0.0
  0
SOLID
  5
3481A
330
2
100
AcDbEntity
  8
DIM
  6
HIDDEN
 48
0.25
100
AcDbTrace
 10
390.3674113676868
 20
51.05518184760379
 30
0.0
 11
390.849981721344
 21
49.61309105511841
 31
0.0
 12
389.9257911297811
 22
50.8207216900671
 32
0.0
 13
389.9257911297811
 23
50.8207216900671
 33
0.0
  0
LWPOLYLINE
  5
3481B
330
2
100
AcDbEntity
  8
DIM
  6
HIDDEN
 48
0.25
100
AcDbPolyline
 90
        4
 70
     0
 43
0.0
 10
390.1466012487339
 20
50.93795176883545
 10
389.0441849383413
 20
53.01442121414202
 10
381.3168688046906
 20
53.01442121414202
 10
380.1314389357162
 20
55.23429634985307
  0
LINE
  5
3481C
330
2
100
AcDbEntity
  8
DETAIL
100
AcDbLine
 10
394.2660064989635
 20
62.33481713464867
 30
0.0
 11
394.2660064989635
 21
32.13530446328632
 31
0.0
  0
LINE
  5
3481D
330
2
100
AcDbEntity
  8
DETAIL
100
AcDbLine
 10
394.2660064989635
 20
32.13530446328632
 30
0.0
 11
391.2660064989635
 21
32.13530446328632
 31
0.0
  0
LINE
  5
3481E
330
2
100
AcDbEntity
  8
DETAIL
100
AcDbLine
 10
391.2660064989635
 20
32.13530446328632
 30
0.0
 11
391.2660064989635
 21
62.33481713464866
 31
0.0
  0
LINE
  5
3481F
330
2
100
AcDbEntity
  8
DETAIL
100
AcDbLine
 10
392.4305508770321
 20
32.70915728747255
 30
0.0
 11
392.2497668618078
 21
32.92460728709976
 31
0.0
  0
LINE
  5
34820
330
2
100
AcDbEntity
  8
DETAIL
100
AcDbLine
 10
392.9508683790928
 20
35.52987778918365
 30
0.0
 11
392.7700843638685
 21
35.74532778881086
 31
0.0
  0
LINE
  5
34821
330
2
100
AcDbEntity
  8
DETAIL
100
AcDbLine
 10
393.4711858811537
 20
38.35059829089521
 30
0.0
 11
393.2904018659293
 21
38.56604829052243
 31
0.0
  0
LINE
  5
34822
330
2
100
AcDbEntity
  8
DETAIL
100
AcDbLine
 10
391.3017776984616
 20
40.93599828642175
 30
0.0
 11
391.2660064989635
 21
40.97862874193497
 31
0.0
  0
LINE
  5
34823
330
2
100
AcDbEntity
  8
DETAIL
100
AcDbLine
 10
393.9915033832144
 20
41.17131879260639
 30
0.0
 11
393.8107193679901
 21
41.38676879223361
 31
0.0
  0
LINE
  5
34824
330
2
100
AcDbEntity
  8
DETAIL
100
AcDbLine
 10
391.8220952005223
 20
43.75671878813295
 30
0.0
 11
391.641311185298
 21
43.97216878776015
 31
0.0
  0
LINE
  5
34825
330
2
100
AcDbEntity
  8
DETAIL
100
AcDbLine
 10
392.342412702583
 20
46.57743928984415
 30
0.0
 11
392.1616286873586
 21
46.79288928947136
 31
0.0
  0
LINE
  5
34826
330
2
100
AcDbEntity
  8
DETAIL
100
AcDbLine
 10
392.8627302046436
 20
49.39815979155536
 30
0.0
 11
392.6819461894193
 21
49.61360979118257
 31
0.0
  0
LINE
  5
34827
330
2
100
AcDbEntity
  8
DETAIL
100
AcDbLine
 10
393.3830477067045
 20
52.21888029326668
 30
0.0
 11
393.2022636914802
 21
52.43433029289389
 31
0.0
  0
LINE
  5
34828
330
2
100
AcDbEntity
  8
DETAIL
100
AcDbLine
 10
393.9033652087652
 20
55.03960079497797
 30
0.0
 11
393.7225811935408
 21
55.25505079460518
 31
0.0
  0
LINE
  5
34829
330
2
100
AcDbEntity
  8
DETAIL
100
AcDbLine
 10
391.7339570260732
 20
57.62500079050452
 30
0.0
 11
391.5531730108487
 21
57.84045079013173
 31
0.0
  0
LINE
  5
3482A
330
2
100
AcDbEntity
  8
DETAIL
100
AcDbLine
 10
394.266006498963
 20
58.04823248864341
 30
0.0
 11
394.2428986956015
 21
58.07577129631638
 31
0.0
  0
LINE
  5
3482B
330
2
100
AcDbEntity
  8
DETAIL
100
AcDbLine
 10
392.2542745281337
 20
60.44572129221572
 30
0.0
 11
392.0734905129094
 21
60.66117129184292
 31
0.0
  0
LINE
  5
3482C
330
2
100
AcDbEntity
  8
DETAIL
100
AcDbLine
 10
392.43055055997
 20
32.70915848617418
 30
0.0
 11
392.2064067528993
 21
32.68954844405595
 31
0.0
  0
LINE
  5
3482D
330
2
100
AcDbEntity
  8
DETAIL
100
AcDbLine
 10
392.9508680610194
 20
35.52987898754917
 30
0.0
 11
392.7267242539488
 21
35.51026894543094
 31
0.0
  0
LINE
  5
3482E
330
2
100
AcDbEntity
  8
DETAIL
100
AcDbLine
 10
393.4711855620679
 20
38.35059948892431
 30
0.0
 11
393.2470417549973
 21
38.33098944680609
 31
0.0
  0
LINE
  5
3482F
330
2
100
AcDbEntity
  8
DETAIL
100
AcDbLine
 10
393.9915030631155
 20
41.17131999029914
 30
0.0
 11
393.7673592560449
 21
41.15170994818092
 31
0.0
  0
LINE
  5
34830
330
2
100
AcDbEntity
  8
DETAIL
100
AcDbLine
 10
391.3017773782678
 20
40.93599948488047
 30
0.0
 11
391.2660064989627
 21
40.93286993845691
 31
0.0
  0
LINE
  5
34831
330
2
100
AcDbEntity
  8
DETAIL
100
AcDbLine
 10
391.8220948793182
 20
43.75671998625578
 30
0.0
 11
391.5979510722476
 21
43.73710994413754
 31
0.0
  0
LINE
  5
34832
330
2
100
AcDbEntity
  8
DETAIL
100
AcDbLine
 10
392.3424123803658
 20
46.57744048763063
 30
0.0
 11
392.1182685732952
 21
46.5578304455124
 31
0.0
  0
LINE
  5
34833
330
2
100
AcDbEntity
  8
DETAIL
100
AcDbLine
 10
392.8627298814143
 20
49.39816098900569
 30
0.0
 11
392.6385860743437
 21
49.37855094688747
 31
0.0
  0
LINE
  5
34834
330
2
100
AcDbEntity
  8
DETAIL
100
AcDbLine
 10
393.3830473824637
 20
52.21888149038075
 30
0.0
 11
393.1589035753932
 21
52.19927144826254
 31
0.0
  0
LINE
  5
34835
330
2
100
AcDbEntity
  8
DETAIL
100
AcDbLine
 10
393.9033648835122
 20
55.03960199175584
 30
0.0
 11
393.6792210764417
 21
55.01999194963762
 31
0.0
  0
LINE
  5
34836
330
2
100
AcDbEntity
  8
DETAIL
100
AcDbLine
 10
394.2660064989632
 20
57.84652764062964
 30
0.0
 11
394.1995385774911
 21
57.84071245101269
 31
0.0
  0
LINE
  5
34837
330
2
100
AcDbEntity
  8
DETAIL
100
AcDbLine
 10
391.733956699714
 20
57.62500198771224
 30
0.0
 11
391.5098128926434
 21
57.60539194559401
 31
0.0
  0
LINE
  5
34838
330
2
100
AcDbEntity
  8
DETAIL
100
AcDbLine
 10
392.2542742007625
 20
60.44572248908725
 30
0.0
 11
392.0301303936919
 21
60.42611244696902
 31
0.0
  0
LINE
  5
34839
330
2
100
AcDbEntity
  8
DETAIL
100
AcDbLine
 10
391.5097764906054
 20
57.60200067013157
 30
0.0
 11
391.5531360975458
 21
57.83706073845904
 31
0.0
  0
LINE
  5
3483A
330
2
100
AcDbEntity
  8
DETAIL
100
AcDbLine
 10
392.0300917888551
 20
60.42272157119238
 30
0.0
 11
392.0734513957955
 21
60.65778163951985
 31
0.0
  0
LINE
  5
3483B
330
2
100
AcDbEntity
  8
DETAIL
100
AcDbLine
 10
391.5979254790333
 20
43.73371878315935
 30
0.0
 11
391.6412850859736
 21
43.96877885148682
 31
0.0
  0
LINE
  5
3483C
330
2
100
AcDbEntity
  8
DETAIL
100
AcDbLine
 10
392.118240777283
 20
46.55443968422015
 30
0.0
 11
392.1616003842233
 21
46.7894997525476
 31
0.0
  0
LINE
  5
3483D
330
2
100
AcDbEntity
  8
DETAIL
100
AcDbLine
 10
392.6385560755327
 20
49.37516058528095
 30
0.0
 11
392.6819156824731
 21
49.61022065360841
 31
0.0
  0
LINE
  5
3483E
330
2
100
AcDbEntity
  8
DETAIL
100
AcDbLine
 10
393.1588713737824
 20
52.19588148634175
 30
0.0
 11
393.2022309807228
 21
52.43094155466922
 31
0.0
  0
LINE
  5
3483F
330
2
100
AcDbEntity
  8
DETAIL
100
AcDbLine
 10
393.6791866720322
 20
55.01660238740257
 30
0.0
 11
393.7225462789724
 21
55.25166245573003
 31
0.0
  0
LINE
  5
34840
330
2
100
AcDbEntity
  8
DETAIL
100
AcDbLine
 10
394.1995019702819
 20
57.83732328846337
 30
0.0
 11
394.2428615772223
 21
58.07238335679081
 31
0.0
  0
LINE
  5
34841
330
2
100
AcDbEntity
  8
DETAIL
100
AcDbLine
 10
392.2063897657117
 20
32.68615779724769
 30
0.0
 11
392.249749372652
 21
32.92121786557514
 31
0.0
  0
LINE
  5
34842
330
2
100
AcDbEntity
  8
DETAIL
100
AcDbLine
 10
392.7267050639614
 20
35.50687869830849
 30
0.0
 11
392.7700646709017
 21
35.74193876663596
 31
0.0
  0
LINE
  5
34843
330
2
100
AcDbEntity
  8
DETAIL
100
AcDbLine
 10
393.2470203622112
 20
38.32759959936929
 30
0.0
 11
393.2903799691514
 21
38.56265966769676
 31
0.0
  0
LINE
  5
34844
330
2
100
AcDbEntity
  8
DETAIL
100
AcDbLine
 10
393.7673356604609
 20
41.14832050043009
 30
0.0
 11
393.8106952674012
 21
41.38338056875754
 31
0.0
  0
LINE
  5
34845
330
2
100
AcDbEntity
  8
DETAIL
100
AcDbLine
 10
391.4007142406649
 20
32.13530446328606
 30
0.0
 11
391.2660064989637
 21
32.27569887810936
 31
0.0
  0
LINE
  5
34846
330
2
100
AcDbEntity
  8
DETAIL
100
AcDbLine
 10
392.0141278151513
 20
36.28779644202218
 30
0.0
 11
391.7220459572843
 21
36.592208504743
 31
0.0
  0
LINE
  5
34847
330
2
100
AcDbEntity
  8
DETAIL
100
AcDbLine
 10
392.5112994530934
 20
40.56143749840606
 30
0.0
 11
392.2192175952262
 21
40.86584956112687
 31
0.0
  0
LINE
  5
34848
330
2
100
AcDbEntity
  8
DETAIL
100
AcDbLine
 10
393.0084710910348
 20
44.83507855478945
 30
0.0
 11
392.7163892331678
 21
45.13949061751026
 31
0.0
  0
LINE
  5
34849
330
2
100
AcDbEntity
  8
DETAIL
100
AcDbLine
 10
393.5056427289767
 20
49.10871961117338
 30
0.0
 11
393.2135608711097
 21
49.4131316738942
 31
0.0
  0
LINE
  5
3484A
330
2
100
AcDbEntity
  8
DETAIL
100
AcDbLine
 10
394.0028143669183
 20
53.38236066755674
 30
0.0
 11
393.7107325090512
 21
53.68677273027754
 31
0.0
  0
LINE
  5
3484B
330
2
100
AcDbEntity
  8
DETAIL
100
AcDbLine
 10
394.2660064989636
 20
57.89985865002472
 30
0.0
 11
394.2079041469932
 21
57.96041378666146
 31
0.0
  0
LINE
  5
3484C
330
2
100
AcDbEntity
  8
DETAIL
100
AcDbLine
 10
391.680629088676
 20
36.23327998691766
 30
0.0
 11
391.7220597804251
 21
36.58941677402284
 31
0.0
  0
LINE
  5
3484D
330
2
100
AcDbEntity
  8
DETAIL
100
AcDbLine
 10
392.1777973168659
 20
40.50692080640017
 30
0.0
 11
392.2192280086149
 21
40.86305759350536
 31
0.0
  0
LINE
  5
3484E
330
2
100
AcDbEntity
  8
DETAIL
100
AcDbLine
 10
392.6749655450556
 20
44.78056162588272
 30
0.0
 11
392.7163962368047
 21
45.13669841298789
 31
0.0
  0
LINE
  5
3484F
330
2
100
AcDbEntity
  8
DETAIL
100
AcDbLine
 10
393.1721337732453
 20
49.05420244536525
 30
0.0
 11
393.2135644649944
 21
49.41033923247044
 31
0.0
  0
LINE
  5
34850
330
2
100
AcDbEntity
  8
DETAIL
100
AcDbLine
 10
393.6693020014351
 20
53.32784326484778
 30
0.0
 11
393.7107326931842
 21
53.68398005195296
 31
0.0
  0
LINE
  5
34851
330
2
100
AcDbEntity
  8
DETAIL
100
AcDbLine
 10
394.1664702296248
 20
57.60148408433031
 30
0.0
 11
394.207900921374
 21
57.9576208714355
 31
0.0
  0
LINE
  5
34852
330
2
100
AcDbEntity
  8
DETAIL
100
AcDbLine
 10
392.0141276402515
 20
36.2877976370171
 30
0.0
 11
391.6806148125377
 21
36.23607294513404
 31
0.0
  0
LINE
  5
34853
330
2
100
AcDbEntity
  8
DETAIL
100
AcDbLine
 10
392.5112992785646
 20
40.56143869308377
 30
0.0
 11
392.1777864508508
 21
40.5097140012007
 31
0.0
  0
LINE
  5
34854
330
2
100
AcDbEntity
  8
DETAIL
100
AcDbLine
 10
393.0084709168785
 20
44.83507974915059
 30
0.0
 11
392.6749580891648
 21
44.78335505726752
 31
0.0
  0
LINE
  5
34855
330
2
100
AcDbEntity
  8
DETAIL
100
AcDbLine
 10
393.505642555192
 20
49.10872080521721
 30
0.0
 11
393.1721297274783
 21
49.05699611333414
 31
0.0
  0
LINE
  5
34856
330
2
100
AcDbEntity
  8
DETAIL
100
AcDbLine
 10
394.0028141935051
 20
53.38236186128388
 30
0.0
 11
393.6693013657913
 21
53.33063716940081
 31
0.0
  0
LINE
  5
34857
330
2
100
AcDbEntity
  8
DETAIL
100
AcDbLine
 10
394.2660064989614
 20
57.61971493112241
 30
0.0
 11
394.1664730041056
 21
57.60427822546779
 31
0.0
  0
LINE
  5
34858
330
2
100
AcDbEntity
  8
DETAIL
100
AcDbLine
 10
393.9950012552822
 20
32.48233309516671
 30
0.0
 11
393.7324317603298
 21
32.58312408097633
 31
0.0
  0
LINE
  5
34859
330
2
100
AcDbEntity
  8
DETAIL
100
AcDbLine
 10
393.0825687612984
 20
35.20164576487694
 30
0.0
 11
392.8199992663461
 21
35.30243675068657
 31
0.0
  0
LINE
  5
3485A
330
2
100
AcDbEntity
  8
DETAIL
100
AcDbLine
 10
392.1701362673143
 20
37.92095843458751
 30
0.0
 11
391.9075667723619
 21
38.02174942039712
 31
0.0
  0
LINE
  5
3485B
330
2
100
AcDbEntity
  8
DETAIL
100
AcDbLine
 10
394.2660064989614
 20
39.48549188142897
 30
0.0
 11
394.1459682178066
 21
39.53157026039175
 31
0.0
  0
LINE
  5
3485C
330
2
100
AcDbEntity
  8
DETAIL
100
AcDbLine
 10
393.4961052187752
 20
42.15009194429274
 30
0.0
 11
393.2335357238228
 21
42.25088293010236
 31
0.0
  0
LINE
  5
3485D
330
2
100
AcDbEntity
  8
DETAIL
100
AcDbLine
 10
392.583672724791
 20
44.86940461400307
 30
0.0
 11
392.3211032298387
 21
44.97019559981271
 31
0.0
  0
LINE
  5
3485E
330
2
100
AcDbEntity
  8
DETAIL
100
AcDbLine
 10
391.671240230808
 20
47.58871728371345
 30
0.0
 11
391.4086707358557
 21
47.68950826952306
 31
0.0
  0
LINE
  5
3485F
330
2
100
AcDbEntity
  8
DETAIL
100
AcDbLine
 10
393.9096416762519
 20
49.0985381237084
 30
0.0
 11
393.6470721812995
 21
49.19932910951803
 31
0.0
  0
LINE
  5
34860
330
2
100
AcDbEntity
  8
DETAIL
100
AcDbLine
 10
392.9972091822677
 20
51.81785079341881
 30
0.0
 11
392.7346396873154
 21
51.91864177922842
 31
0.0
  0
LINE
  5
34861
330
2
100
AcDbEntity
  8
DETAIL
100
AcDbLine
 10
392.0847766882845
 20
54.53716346312953
 30
0.0
 11
391.8222071933321
 21
54.63795444893914
 31
0.0
  0
LINE
  5
34862
330
2
100
AcDbEntity
  8
DETAIL
100
AcDbLine
 10
394.2660064989618
 20
56.06893043753554
 30
0.0
 11
394.0606086387764
 21
56.14777528893394
 31
0.0
  0
LINE
  5
34863
330
2
100
AcDbEntity
  8
DETAIL
100
AcDbLine
 10
393.410745639745
 20
58.76629697283478
 30
0.0
 11
393.1481761447926
 21
58.86708795864439
 31
0.0
  0
LINE
  5
34864
330
2
100
AcDbEntity
  8
DETAIL
100
AcDbLine
 10
392.4983131457612
 20
61.48560964254496
 30
0.0
 11
392.2357436508089
 21
61.58640062835456
 31
0.0
  0
LINE
  5
34865
330
2
100
AcDbEntity
  8
DETAIL
100
AcDbLine
 10
393.9949999009579
 20
32.48233337053189
 30
0.0
 11
393.808466447133
 21
32.35651496725097
 31
0.0
  0
LINE
  5
34866
330
2
100
AcDbEntity
  8
DETAIL
100
AcDbLine
 10
393.0825674062522
 20
35.2016460394577
 30
0.0
 11
392.8960339524273
 21
35.07582763617679
 31
0.0
  0
LINE
  5
34867
330
2
100
AcDbEntity
  8
DETAIL
100
AcDbLine
 10
394.2660064989627
 20
39.33464194430394
 30
0.0
 11
394.2220029036205
 21
39.30496114447389
 31
0.0
  0
LINE
  5
34868
330
2
100
AcDbEntity
  8
DETAIL
100
AcDbLine
 10
392.1701349115468
 20
37.92095870838379
 30
0.0
 11
391.9836014577219
 21
37.79514030510287
 31
0.0
  0
LINE
  5
34869
330
2
100
AcDbEntity
  8
DETAIL
100
AcDbLine
 10
393.4961038627392
 20
42.15009221668
 30
0.0
 11
393.3095704089144
 21
42.02427381339908
 31
0.0
  0
LINE
  5
3486A
330
2
100
AcDbEntity
  8
DETAIL
100
AcDbLine
 10
392.5836713680327
 20
44.86940488560575
 30
0.0
 11
392.3971379142079
 21
44.74358648232485
 31
0.0
  0
LINE
  5
3486B
330
2
100
AcDbEntity
  8
DETAIL
100
AcDbLine
 10
393.909640319225
 20
49.09853839390247
 30
0.0
 11
393.7231068654002
 21
48.97271999062157
 31
0.0
  0
LINE
  5
3486C
330
2
100
AcDbEntity
  8
DETAIL
100
AcDbLine
 10
391.6712388733263
 20
47.58871755453146
 30
0.0
 11
391.4847054195015
 21
47.46289915125054
 31
0.0
  0
LINE
  5
3486D
330
2
100
AcDbEntity
  8
DETAIL
100
AcDbLine
 10
392.997207824519
 20
51.81785106282777
 30
0.0
 11
392.8106743706941
 21
51.69203265954686
 31
0.0
  0
LINE
  5
3486E
330
2
100
AcDbEntity
  8
DETAIL
100
AcDbLine
 10
394.2660064989627
 20
56.00842273254738
 30
0.0
 11
394.1366433218865
 21
55.92116616784369
 31
0.0
  0
LINE
  5
3486F
330
2
100
AcDbEntity
  8
DETAIL
100
AcDbLine
 10
392.0847753298128
 20
54.53716373175359
 30
0.0
 11
391.8982418759879
 21
54.41134532847267
 31
0.0
  0
LINE
  5
34870
330
2
100
AcDbEntity
  8
DETAIL
100
AcDbLine
 10
393.4107442810054
 20
58.76629724004957
 30
0.0
 11
393.2242108271804
 21
58.64047883676866
 31
0.0
  0
LINE
  5
34871
330
2
100
AcDbEntity
  8
DETAIL
100
AcDbLine
 10
392.4983117863
 20
61.4856099089757
 30
0.0
 11
392.3117783324751
 21
61.35979150569479
 31
0.0
  0
LINE
  5
34872
330
2
100
AcDbEntity
  8
DETAIL
100
AcDbLine
 10
393.8084566957916
 20
32.35314111825186
 30
0.0
 11
393.7324204800545
 21
32.57975044094737
 31
0.0
  0
LINE
  5
34873
330
2
100
AcDbEntity
  8
DETAIL
100
AcDbLine
 10
392.8960220807027
 20
35.07245306881246
 30
0.0
 11
392.8199858649657
 21
35.29906239150797
 31
0.0
  0
LINE
  5
34874
330
2
100
AcDbEntity
  8
DETAIL
100
AcDbLine
 10
391.9835874656139
 20
37.79176501937307
 30
0.0
 11
391.9075512498768
 21
38.01837434206856
 31
0.0
  0
LINE
  5
34875
330
2
100
AcDbEntity
  8
DETAIL
100
AcDbLine
 10
394.2219877077059
 20
39.3015876072712
 30
0.0
 11
394.1459514919689
 21
39.52819692996671
 31
0.0
  0
LINE
  5
34876
330
2
100
AcDbEntity
  8
DETAIL
100
AcDbLine
 10
393.3095530926171
 20
42.02089955783178
 30
0.0
 11
393.2335168768799
 21
42.24750888052731
 31
0.0
  0
LINE
  5
34877
330
2
100
AcDbEntity
  8
DETAIL
100
AcDbLine
 10
392.3971184775281
 20
44.74021150839239
 30
0.0
 11
392.3210822617912
 21
44.96682083108789
 31
0.0
  0
LINE
  5
34878
330
2
100
AcDbEntity
  8
DETAIL
100
AcDbLine
 10
391.4846838624393
 20
47.45952345895299
 30
0.0
 11
391.4086476467023
 21
47.68613278164849
 31
0.0
  0
LINE
  5
34879
330
2
100
AcDbEntity
  8
DETAIL
100
AcDbLine
 10
393.7230841045309
 20
48.969346046851
 30
0.0
 11
393.6470478887938
 21
49.19595536954648
 31
0.0
  0
LINE
  5
3487A
330
2
100
AcDbEntity
  8
DETAIL
100
AcDbLine
 10
392.8106494894421
 20
51.68865799741158
 30
0.0
 11
392.734613273705
 21
51.9152673201071
 31
0.0
  0
LINE
  5
3487B
330
2
100
AcDbEntity
  8
DETAIL
100
AcDbLine
 10
391.8982148743532
 20
54.40796994797217
 30
0.0
 11
391.8221786586162
 21
54.63457927066769
 31
0.0
  0
LINE
  5
3487C
330
2
100
AcDbEntity
  8
DETAIL
100
AcDbLine
 10
394.1366151164452
 20
55.91779253587084
 30
0.0
 11
394.060578900708
 21
56.14440185856635
 31
0.0
  0
LINE
  5
3487D
330
2
100
AcDbEntity
  8
DETAIL
100
AcDbLine
 10
393.2241805013562
 20
58.63710448643144
 30
0.0
 11
393.1481442856192
 21
58.86371380912695
 31
0.0
  0
LINE
  5
3487E
330
2
100
AcDbEntity
  8
DETAIL
100
AcDbLine
 10
392.3117458862674
 20
61.35641643699203
 30
0.0
 11
392.2357096705303
 21
61.58302575968754
 31
0.0
  0
TEXT
  5
34909
330
2
100
AcDbEntity
  8
DIM
100
AcDbText
 10
332.4751508859904
 20
82.74805454402677
 30
0.0
 40
1.5
  1
ALPRO VERTICAL WALL MOUNT
  7
STD
100
AcDbText
  0
TEXT
  5
3490A
330
2
100
AcDbEntity
  8
DIM
100
AcDbText
 10
332.3216720319659
 20
80.22145154266253
 30
0.0
 40
1.5
  1
BAFFLE WITH FLUSHMOUNTS
  7
STD
100
AcDbText
  0
TEXT
  5
3490B
330
2
100
AcDbEntity
  8
DIM
100
AcDbText
 10
332.3482750333301
 20
77.69484854129824
 30
0.0
 40
1.5
  1
(INSULATION NOT SHOWN)
  7
STD
100
AcDbText
  0
SOLID
  5
3490C
330
2
100
AcDbEntity
  8
DIM
100
AcDbTrace
 10
324.0182897857413
 20
74.25672557468759
 30
0.0
 11
323.0039833998452
 21
73.12372841867603
 31
0.0
 12
323.596003876446
 22
74.52444671843706
 32
0.0
 13
323.596003876446
 23
74.52444671843706
 33
0.0
  0
LWPOLYLINE
  5
3490D
330
2
100
AcDbEntity
  8
DIM
100
AcDbPolyline
 90
        3
 70
     0
 43
0.0
 10
323.8071468310936
 20
74.39058614656234
 10
329.8951508859905
 20
83.99340754539101
 10
331.3951508859905
 20
83.99340754539101
  0
LINE
  5
3490E
330
2
100
AcDbEntity
  8
DIM
 62
     3
100
AcDbLine
 10
300.5752407766841
 20
70.58670870506606
 30
0.0
 11
300.5752407766842
 21
78.25650812908794
 31
0.0
  0
LINE
  5
3490F
330
2
100
AcDbEntity
  8
DIM
 62
     3
100
AcDbLine
 10
321.35980116632
 20
82.58673714246835
 30
0.0
 11
321.3598011663202
 21
90.25653656649021
 31
0.0
  0
LINE
  5
34910
330
2
100
AcDbEntity
  8
DIM
 62
     2
100
AcDbLine
 10
301.8742773424154
 20
77.06661159221359
 30
0.0
 11
307.7978830234384
 21
80.48662314365733
 31
0.0
  0
LINE
  5
34911
330
2
100
AcDbEntity
  8
DIM
 62
     2
100
AcDbLine
 10
320.0607646005888
 20
87.56663469510106
 30
0.0
 11
314.1371589195658
 21
84.14662314365731
 31
0.0
  0
SOLID
  5
34912
330
2
100
AcDbEntity
  8
DIM
 62
     2
100
AcDbTrace
 10
301.7492768978724
 20
77.28311768650214
 30
0.0
 11
301.9992777869583
 21
76.85010549792505
 31
0.0
 12
300.5752407766842
 22
76.31660892495617
 32
0.0
 13
300.5752407766842
 23
76.31660892495617
 33
0.0
  0
SOLID
  5
34913
330
2
100
AcDbEntity
  8
DIM
 62
     2
100
AcDbTrace
 10
319.9357641560459
 20
87.78314078938958
 30
0.0
 11
320.1857650451318
 21
87.35012860081251
 31
0.0
 12
321.3598011663201
 22
88.31663736235844
 32
0.0
 13
321.3598011663201
 23
88.31663736235844
 33
0.0
  0
MTEXT
  5
34914
330
2
100
AcDbEntity
  8
DIM
100
AcDbMText
 10
310.9675209715021
 20
82.31662314365733
 30
0.0
 40
1.5
 41
0.0
 71
     5
 72
     1
  1
\A1;WIDTH
  7
STD
 73
     1
 44
1.0
1001
ACAD
1000
MTEXTBEGIN
1070
    73
1070
     1
1070
    44
1040
1.0
1070
    74
1070
     0
1000
MTEXTEND
  0
LINE
  5
34915
330
2
100
AcDbEntity
  8
DIM
 62
     3
100
AcDbLine
 10
299.7352161260888
 20
21.13179909558204
 30
0.0
 11
295.4790845642154
 21
18.67452039262791
 31
0.0
  0
LINE
  5
34916
330
2
100
AcDbEntity
  8
DIM
 62
     3
100
AcDbLine
 10
299.7352161260888
 20
69.13179909558202
 30
0.0
 11
295.4790845642154
 21
66.6745203926279
 31
0.0
  0
LINE
  5
34917
330
2
100
AcDbEntity
  8
DIM
 62
     2
100
AcDbLine
 10
297.1590845642154
 20
21.14446884486649
 30
0.0
 11
297.1590845642154
 21
38.47579217365229
 31
0.0
  0
LINE
  5
34918
330
2
100
AcDbEntity
  8
DIM
 62
     2
100
AcDbLine
 10
297.1590845642154
 20
66.14446884486648
 30
0.0
 11
297.1590845642154
 21
48.81314551608067
 31
0.0
  0
SOLID
  5
34919
330
2
100
AcDbEntity
  8
DIM
 62
     2
100
AcDbTrace
 10
296.9090845642154
 20
21.14446884486649
 30
0.0
 11
297.4090845642154
 21
21.14446884486649
 31
0.0
 12
297.1590845642154
 22
19.64446884486649
 32
0.0
 13
297.1590845642154
 23
19.64446884486649
 33
0.0
  0
SOLID
  5
3491A
330
2
100
AcDbEntity
  8
DIM
 62
     2
100
AcDbTrace
 10
296.9090845642154
 20
66.14446884486648
 30
0.0
 11
297.4090845642154
 21
66.14446884486648
 31
0.0
 12
297.1590845642154
 22
67.64446884486648
 32
0.0
 13
297.1590845642154
 23
67.64446884486648
 33
0.0
  0
MTEXT
  5
3491B
330
2
100
AcDbEntity
  8
DIM
100
AcDbMText
 10
297.1590845642154
 20
43.64446884486652
 30
0.0
 40
1.5
 41
0.0
 71
     5
 72
     1
  1
\A1;LENGTH
  7
STD
 11
0.0000000000000001
 21
1.0
 31
0.0
 73
     1
 44
1.0
1001
ACAD
1000
MTEXTBEGIN
1070
    73
1070
     1
1070
    44
1040
1.0
1070
    74
1070
     0
1000
MTEXTEND
  0
VIEWPORT
  5
5D
102
{ACAD_XDICTIONARY
360
3498E
102
}
330
D
100
AcDbEntity
 67
     1
  8
0
100
AcDbViewport
 10
5.102836672053318
 20
3.882552595148703
 30
0.0
 40
20.12054589974455
 41
7.827575297811849
 68
     1
 69
     1
 12
5.102836672053318
 22
3.882552595148703
 13
0.0
 23
0.0
 14
0.5
 24
0.5
 15
0.5
 25
0.5
 16
0.0
 26
0.0
 36
1.0
 17
0.0
 27
0.0
 37
0.0
 42
50.0
 43
0.0
 44
0.0
 45
7.827575297811849
 50
0.0
 51
0.0
 72
   100
 90
    32800
  1

281
     0
 71
     1
 74
     0
110
0.0
120
0.0
130
0.0
111
1.0
121
0.0
131
0.0
112
0.0
122
1.0
132
0.0
 79
     0
146
0.0
  0
ENDSEC
  0
SECTION
  2
OBJECTS
  0
DICTIONARY
  5
7
330
0
100
AcDbDictionary
281
     1
  3
ACAD_2007HEADERVARS_RT
350
3498A
  3
ACAD_CIP_PREVIOUS_PRODUCT_INFO
350
34725
  3
ACAD_COLOR
350
885
  3
ACAD_FIELDLIST
350
1393
  3
ACAD_GROUP
350
24
  3
ACAD_LAYOUT
350
C
  3
ACAD_MATERIAL
350
884
  3
ACAD_MLEADERSTYLE
350
3324E
  3
ACAD_MLINESTYLE
350
25
  3
ACAD_PLOTSETTINGS
350
26
  3
ACAD_PLOTSTYLENAME
350
6
  3
ACAD_SCALELIST
350
3323C
  3
ACAD_TABLESTYLE
350
886
  3
ACAD_VISUALSTYLE
350
10B2
  3
AcadDim
350
31A98
  3
ACDB_RECOMPOSE_DATA
350
34988
  3
AcDbVariableDictionary
350
3AC
  3
AEC_CLASSIFICATION_SYSTEM_DEFS
350
A2E
  3
AEC_PROPERTY_SET_DEFS
350
346E8
  3
ASE_INDEX_DICTIONARY
350
1053
  3
DWGPROPS
350
34989
  0
DICTIONARY
  5
139C
330
1A
100
AcDbDictionary
280
     1
281
     1
  0
DICTIONARY
  5
899
330
11
100
AcDbDictionary
280
     1
281
     1
  3
ACAD_LAYERFILTERS
360
1092
  3
ACAD_LAYERSTATES
360
89A
  3
ACLYDICTIONARY
360
1091
  0
DICTIONARY
  5
346F8
330
4
100
AcDbDictionary
280
     1
281
     1
  3
ADSK_XREC_LAYER_RECONCILED
360
346F9
  0
DICTIONARY
  5
346FA
330
32
100
AcDbDictionary
280
     1
281
     1
  3
ADSK_XREC_LAYER_RECONCILED
360
346FB
  0
DICTIONARY
  5
1A62
330
1A61
100
AcDbDictionary
280
     1
281
     1
  3
ADSK_XREC_LAYER_RECONCILED
360
1A63
  0
DICTIONARY
  5
1A7D
330
1A7C
100
AcDbDictionary
280
     1
281
     1
  3
ADSK_XREC_LAYER_RECONCILED
360
1A7E
  0
DICTIONARY
  5
1A80
330
1A7F
100
AcDbDictionary
280
     1
281
     1
  3
ADSK_XREC_LAYER_RECONCILED
360
1A81
  0
DICTIONARY
  5
1A92
330
1A91
100
AcDbDictionary
280
     1
281
     1
  3
ADSK_XREC_LAYER_RECONCILED
360
1A93
  0
DICTIONARY
  5
31E97
330
2
100
AcDbDictionary
280
     1
281
     1
  3
ACAD_SORTENTS
360
31E98
  0
DICTIONARY
  5
1D72
330
D
100
AcDbDictionary
280
     1
281
     1
  3
ACAD_SORTENTS
360
1D73
  0
DICTIONARY
  5
3498E
330
5D
100
AcDbDictionary
280
     1
281
     1
  3
ACAD_XREC_ROUNDTRIP
360
3498F
  0
DICTIONARY
  5
3498A
102
{ACAD_REACTORS
330
7
102
}
330
7
100
AcDbDictionary
281
     1
  3
INTERFEREVPVS
350
3498B
  0
XRECORD
  5
34725
102
{ACAD_REACTORS
330
7
102
}
330
7
100
AcDbXrecord
280
     1
300
ACD
300
2012
300
ACD_F_S
  0
DICTIONARY
  5
885
102
{ACAD_REACTORS
330
7
102
}
330
7
100
AcDbDictionary
281
     1
  0
FIELDLIST
  5
1393
102
{ACAD_REACTORS
330
7
102
}
330
7
100
AcDbIdSet
 90
        0
100
AcDbFieldList
  0
DICTIONARY
  5
24
102
{ACAD_REACTORS
330
7
102
}
330
7
100
AcDbDictionary
281
     1
  0
DICTIONARY
  5
C
102
{ACAD_REACTORS
330
7
102
}
330
7
100
AcDbDictionary
281
     1
  3
Layout1
350
10
  3
Model
350
B
  0
DICTIONARY
  5
884
102
{ACAD_REACTORS
330
7
102
}
330
7
100
AcDbDictionary
281
     1
  3
ByBlock
350
10B0
  3
ByLayer
350
10AF
  3
Global
350
10B1
  0
DICTIONARY
  5
3324E
102
{ACAD_REACTORS
330
7
102
}
330
7
100
AcDbDictionary
281
     1
  3
Standard
350
3324F
  0
DICTIONARY
  5
25
102
{ACAD_REACTORS
330
7
102
}
330
7
100
AcDbDictionary
281
     1
  3
STANDARD
350
28
  0
DICTIONARY
  5
26
102
{ACAD_REACTORS
330
7
102
}
330
7
100
AcDbDictionary
281
     1
  3
3010
350
1A21
  3
5000N
350
1A1F
  3
Minolta
350
1A22
  3
PDF
350
1A20
  0
ACDBDICTIONARYWDFLT
  5
6
102
{ACAD_REACTORS
330
7
102
}
330
7
100
AcDbDictionary
281
     1
  3
Normal
350
5
100
AcDbDictionaryWithDefault
340
5
  0
DICTIONARY
  5
3323C
102
{ACAD_REACTORS
330
7
102
}
330
7
100
AcDbDictionary
281
     1
  3
A0
350
3323D
  3
A1
350
3323E
  3
A2
350
3323F
  3
A3
350
33240
  3
A4
350
33241
  3
A5
350
33242
  3
A6
350
33243
  3
A7
350
33244
  3
A8
350
33245
  3
A9
350
33246
  3
B0
350
33247
  3
B1
350
33248
  3
B2
350
33249
  3
B3
350
3324A
  3
B4
350
3324B
  3
B5
350
3324C
  3
B6
350
3324D
  0
DICTIONARY
  5
886
102
{ACAD_REACTORS
330
7
102
}
330
7
100
AcDbDictionary
281
     1
  3
Standard
350
887
  0
DICTIONARY
  5
10B2
102
{ACAD_REACTORS
330
7
102
}
330
7
100
AcDbDictionary
281
     1
  3
2dWireframe
350
10B8
  3
3D Hidden
350
1D4F
  3
3dWireframe
350
1D50
  3
Basic
350
10B7
  3
Brighten
350
10BE
  3
ColorChange
350
10C2
  3
Conceptual
350
1D51
  3
Dim
350
10BD
  3
EdgeColorOff
350
3323B
  3
Facepattern
350
10C1
  3
Flat
350
10B3
  3
FlatWithEdges
350
10B4
  3
Gouraud
350
10B5
  3
GouraudWithEdges
350
10B6
  3
Hidden
350
33233
  3
JitterOff
350
33239
  3
Linepattern
350
10C0
  3
OverhangOff
350
3323A
  3
Realistic
350
1D52
  3
Shaded
350
33238
  3
Shaded with edges
350
33237
  3
Shades of Gray
350
33234
  3
Sketchy
350
33235
  3
Thicken
350
10BF
  3
Wireframe
350
33232
  3
X-Ray
350
33236
  0
XRECORD
  5
31A98
102
{ACAD_REACTORS
330
7
102
}
330
7
100
AcDbXrecord
280
     1
 90
   990106
  3

 60
     0
 61
     0
 62
     1
 63
     1
 64
     0
 65
     0
 66
     1
 67
     3
 68
     0
 69
     0
 70
     0
 71
     0
 72
     0
 40
0.0
170
     2
340
330EA
  0
XRECORD
  5
34988
102
{ACAD_REACTORS
330
7
102
}
330
7
100
AcDbXrecord
280
     1
 90
        1
330
887
  0
DICTIONARY
  5
3AC
102
{ACAD_REACTORS
330
7
102
}
330
7
100
AcDbDictionary
281
     1
  3
CANNOSCALE
350
34705
  3
CMLEADERSTYLE
350
34703
  3
CTABLESTYLE
350
89F
  3
DIMASSOC
350
3AD
  3
DRAWORDERCTL
350
34985
  3
INDEXCTL
350
3492D
  3
LAYEREVAL
350
34707
  3
LAYERNOTIFY
350
34708
  3
LIGHTINGUNITS
350
34706
  3
MSLTSCALE
350
34704
  3
SOLIDHIST
350
3492F
  3
SORTENTS
350
3492C
  3
XCLIPFRAME
350
34986
  0
DICTIONARY
  5
A2E
102
{ACAD_REACTORS
330
7
102
}
330
7
100
AcDbDictionary
281
     1
  0
DICTIONARY
  5
346E8
102
{ACAD_REACTORS
330
7
102
}
330
7
100
AcDbDictionary
281
     1
  0
DICTIONARY
  5
1053
102
{ACAD_REACTORS
330
7
102
}
330
7
100
AcDbDictionary
281
     1
  3
ASEBlockHierarchyIndexRecord
350
1054
1001
DCO15
1040
1542711923.111
  0
XRECORD
  5
34989
102
{ACAD_REACTORS
330
7
102
}
330
7
100
AcDbXrecord
280
     1
  1
DWGPROPS COOKIE
  2

  3

  4

  6

  7

  8
jlee
  9

300
=
301
=
302
=
303
=
304
=
305
=
306
=
307
=
308
=
309
=
 40
0.5893884953703705
 41
2451225.386950695
 42
2456114.543535625
  1

 90
        0
  0
DICTIONARY
  5
1092
102
{ACAD_REACTORS
330
899
102
}
330
899
100
AcDbDictionary
281
     1
  0
DICTIONARY
  5
89A
102
{ACAD_REACTORS
330
899
102
}
330
899
100
AcDbDictionary
281
     1
  3
_LAYISO_STATE
350
331F3
1001
AcLayerTools
1000
B
1000
0
  0
DICTIONARY
  5
1091
102
{ACAD_REACTORS
330
899
102
}
330
899
100
AcDbDictionary
281
     1
1001
ACAD
1000
<All
  0
XRECORD
  5
346F9
102
{ACAD_REACTORS
330
346F8
102
}
330
346F8
100
AcDbXrecord
280
     1
290
     1
  0
XRECORD
  5
346FB
102
{ACAD_REACTORS
330
346FA
102
}
330
346FA
100
AcDbXrecord
280
     1
290
     1
  0
XRECORD
  5
1A63
102
{ACAD_REACTORS
330
1A62
102
}
330
1A62
100
AcDbXrecord
280
     1
290
     1
  0
XRECORD
  5
1A7E
102
{ACAD_REACTORS
330
1A7D
102
}
330
1A7D
100
AcDbXrecord
280
     1
290
     1
  0
XRECORD
  5
1A81
102
{ACAD_REACTORS
330
1A80
102
}
330
1A80
100
AcDbXrecord
280
     1
290
     1
  0
XRECORD
  5
1A93
102
{ACAD_REACTORS
330
1A92
102
}
330
1A92
100
AcDbXrecord
280
     1
290
     1
  0
SORTENTSTABLE
  5
31E98
102
{ACAD_REACTORS
330
31E97
102
}
330
31E97
100
AcDbSortentsTable
330
2
331
32F5C
  5
32F6A
331
32FDA
  5
34867
331
32F58
  5
32F66
331
32FD6
  5
34863
331
33195
  5
348DC
331
32F54
  5
32F62
331
32F50
  5
32F5E
331
32FD2
  5
3485F
331
33191
  5
348D8
331
347FC
  5
348AD
331
34837
  5
32FD2
331
347F8
  5
348B3
331
347F4
  5
348B7
331
34833
  5
32FCE
331
347F0
  5
348BB
331
331E2
  5
3490D
331
34874
  5
33195
331
347AD
  5
347FD
331
34870
  5
33191
331
331DE
  5
34909
331
32EE7
  5
32EF5
331
347A9
  5
347F9
331
32EE3
  5
32EF1
331
3486C
  5
3318D
331
331DA
  5
32FB3
331
34868
  5
33188
331
32EDF
  5
32EED
331
32F1E
  5
32F2C
331
32E81
  5
32E8F
331
32E7D
  5
32E8B
331
32EBC
  5
32ECE
331
32EDB
  5
32EE9
331
32F1A
  5
32F28
331
32E79
  5
32E87
331
32EB8
  5
32ECA
331
32F8F
  5
32FAD
331
3318D
  5
348D4
331
32F4C
  5
32F5A
331
32F8B
  5
32FA9
331
32FCE
  5
3485B
331
32FCA
  5
34857
331
33189
  5
348D0
331
32F48
  5
32F56
331
32F83
  5
32F99
331
32FC6
  5
34853
331
32F44
  5
32F52
331
32F40
  5
32F4E
331
32FC2
  5
3484F
331
3482F
  5
32FCA
331
347EC
  5
348BE
331
3482B
  5
32FC6
331
34827
  5
32FC2
331
347E8
  5
348C1
331
347E4
  5
348C5
331
34823
  5
32FBE
331
347E0
  5
348CB
331
331D6
  5
34902
331
347A5
  5
34877
331
331D2
  5
348FE
331
347A1
  5
34873
331
34864
  5
3314C
331
34860
  5
330E9
331
32F16
  5
32F24
331
331CE
  5
348FB
331
32ED7
  5
32EE5
331
3479D
  5
3486F
331
34799
  5
3486B
331
3485C
  5
330DE
331
32ED3
  5
32EE1
331
32F12
  5
32F20
331
32E75
  5
32E83
331
32EB4
  5
32EC2
331
331CA
  5
348F7
331
34858
  5
330DA
331
32EB0
  5
32EBE
331
32ECF
  5
32EDD
331
32F0E
  5
32F1C
331
32E71
  5
32E7F
331
32E6D
  5
32E7B
331
32EAC
  5
32EBA
331
32ECB
  5
32ED9
331
32F0A
  5
32F18
331
32E69
  5
32E77
331
32EA8
  5
32EB6
331
32F7F
  5
32F8F
331
32F7B
  5
32F8B
331
32FBE
  5
3484B
331
33019
  5
34895
331
32F38
  5
32F46
331
32F77
  5
32F85
331
32FBA
  5
34847
331
32F73
  5
32F81
331
32FB6
  5
34843
331
33015
  5
34891
331
32F34
  5
32F42
331
32F30
  5
32F3E
331
32FB2
  5
3483F
331
3481F
  5
32FBA
331
347DC
  5
3482C
331
3481B
  5
3482F
331
34817
  5
3488C
331
34813
  5
348A4
331
347BC
  5
3480C
331
347B8
  5
34808
331
331C6
  5
348F3
331
34795
  5
34883
331
3491B
  5
32E56
331
34791
  5
3487F
331
34854
  5
330D6
331
34850
  5
330D2
331
32F06
  5
32F14
331
34917
  5
32E52
331
33229
  5
3491B
331
3484C
  5
330CE
331
32EC3
  5
32ED5
331
32F02
  5
32F10
331
34913
  5
32E67
331
32E65
  5
32E73
331
32EA4
  5
32EB2
331
331AA
  5
348F1
331
34848
  5
33018
331
32EA0
  5
32EAE
331
3478F
  5
3487D
331
32E61
  5
32E6F
331
32E9C
  5
32EAA
331
3478B
  5
34879
331
32E5D
  5
32E6B
331
32E59
  5
32E61
331
32F6F
  5
32F7D
331
32F2C
  5
32F3A
331
32FAE
  5
3483B
331
33001
  5
3488F
331
32F28
  5
32F36
331
32F67
  5
32F75
331
32FAA
  5
34837
331
32F63
  5
32F71
331
32FA6
  5
34833
331
32F24
  5
32F32
331
32F20
  5
32F2E
331
3480F
  5
348A0
331
347B4
  5
34804
331
347B0
  5
34800
331
34807
  5
34898
331
34803
  5
348A8
331
331A6
  5
348ED
331
3490F
  5
32E63
331
3490B
  5
32FB9
331
331A2
  5
348E9
331
34844
  5
33000
331
3319E
  5
348E5
331
331ED
  5
34917
331
34840
  5
32FDB
331
331E9
  5
34913
331
3483C
  5
32FD7
331
32EF2
  5
32F00
331
3487B
  5
3319C
331
32E55
  5
32E5D
331
3319A
  5
348E1
331
34838
  5
32FD3
331
32EEE
  5
32EFC
331
32E51
  5
32E58
331
32E8C
  5
32E9A
331
32EEA
  5
32EF8
331
32E88
  5
32E96
331
32F5F
  5
32F6D
331
32F5B
  5
32F69
331
32FD9
  5
34866
331
32F57
  5
32F65
331
32F92
  5
32FB0
331
32FD5
  5
34862
331
33194
  5
348DB
331
32F53
  5
32F61
331
32FD1
  5
3485E
331
33190
  5
348D7
331
347FF
  5
348AA
331
347FB
  5
348AF
331
34836
  5
32FD1
331
347F7
  5
348B2
331
347F3
  5
348B6
331
34832
  5
32FCD
331
331E5
  5
32FB2
331
34877
  5
33198
331
331E1
  5
3490C
331
34873
  5
33194
331
347AC
  5
347FC
331
32EE6
  5
32EF4
331
3486F
  5
33190
331
331DD
  5
34908
331
331D9
  5
34905
331
347A8
  5
347F8
331
32EE2
  5
32EF0
331
3486B
  5
3318C
331
32E84
  5
32E92
331
32EBF
  5
32ED1
331
32EDE
  5
32EEC
331
32F1D
  5
32F2B
331
32E80
  5
32E8E
331
32F19
  5
32F27
331
32E7C
  5
32E8A
331
32EBB
  5
32ECD
331
32EDA
  5
32EE8
331
32E78
  5
32E86
331
32F4F
  5
32F5D
331
32F8E
  5
32FAC
331
3318C
  5
348D3
331
32F4B
  5
32F59
331
32F8A
  5
32FA8
331
32FCD
  5
3485A
331
32FC9
  5
34856
331
33188
  5
348CF
331
32F82
  5
32F92
331
32FC5
  5
34852
331
32F43
  5
32F51
331
32FC1
  5
3484E
331
347EF
  5
348BA
331
3482E
  5
32FC9
331
347EB
  5
348C0
331
3482A
  5
32FC5
331
34826
  5
32FC1
331
347E7
  5
348C4
331
347E3
  5
348C8
331
34822
  5
32FBD
331
331D5
  5
34901
331
347A4
  5
34876
331
34867
  5
33187
331
331D1
  5
348FD
331
347A0
  5
34872
331
34863
  5
330F4
331
3479C
  5
3486E
331
3485F
  5
330E3
331
32F15
  5
32F23
331
32EB7
  5
32EC5
331
32ED6
  5
32EE4
331
34798
  5
3486A
331
3485B
  5
330DD
331
32F11
  5
32F1F
331
32E74
  5
32E82
331
32EB3
  5
32EC1
331
32EAF
  5
32EBD
331
32F0D
  5
32F1B
331
32EAB
  5
32EB9
331
32F3F
  5
32F4D
331
32F7E
  5
32F8E
331
32F3B
  5
32F49
331
32F7A
  5
32F8A
331
32FBD
  5
3484A
331
32FB9
  5
34846
331
33018
  5
34894
331
32F37
  5
32F45
331
32F76
  5
32F84
331
32F72
  5
32F80
331
32FB5
  5
34842
331
32F33
  5
32F41
331
32FB1
  5
3483E
331
347DF
  5
348CA
331
3481E
  5
347F5
331
347DB
  5
3482B
331
3481A
  5
3482E
331
34816
  5
3488B
331
347BB
  5
3480B
331
34812
  5
348A3
331
34794
  5
34882
331
34857
  5
330D9
331
3491A
  5
32E55
331
34790
  5
3487E
331
34853
  5
330D5
331
3484F
  5
330D1
331
34916
  5
32E51
331
33228
  5
3491A
331
3484B
  5
3301B
331
32EC2
  5
32ED4
331
34912
  5
32E66
331
32E64
  5
32E72
331
331A9
  5
348F0
331
3478E
  5
3487C
331
32EFD
  5
32F0B
331
32E60
  5
32E6E
331
32E5C
  5
32E6A
331
32E9B
  5
32EA9
331
3478A
  5
34878
331
32EF9
  5
32F07
331
32E58
  5
32E60
331
32F2F
  5
32F3D
331
32F6E
  5
32F7C
331
32F2B
  5
32F39
331
32F6A
  5
32F78
331
32FAD
  5
3483A
331
32F27
  5
32F35
331
32F66
  5
32F74
331
32FA9
  5
34836
331
32F62
  5
32F70
331
32FA5
  5
34832
331
32FFC
  5
34886
331
32F23
  5
32F31
331
347B7
  5
34807
331
3480E
  5
3489F
331
347B3
  5
34803
331
3480A
  5
3489B
331
34806
  5
34897
331
34802
  5
348A7
331
331A5
  5
348EC
331
34847
  5
3300F
331
3490E
  5
32E62
331
3490A
  5
32FB8
331
331A1
  5
348E8
331
331F0
  5
32FB1
331
34843
  5
32FEE
331
3483F
  5
32FDA
331
32EF5
  5
32F03
331
3487E
  5
3319F
331
32E97
  5
32EA5
331
3319D
  5
348E4
331
331EC
  5
34916
331
331E8
  5
34912
331
3483B
  5
32FD6
331
32EF1
  5
32EFF
331
3487A
  5
3319B
331
32E54
  5
32E5C
331
32E93
  5
32EA1
331
33199
  5
348E0
331
32E8F
  5
32E9D
331
32EED
  5
32EFB
331
32E50
  5
32E57
331
32E8B
  5
32E99
331
32EE9
  5
32EF7
331
32F5E
  5
32F6C
331
32F5A
  5
32F68
331
32FDC
  5
34869
331
32FD8
  5
34865
331
33197
  5
348DE
331
32F56
  5
32F64
331
32F52
  5
32F60
331
32F91
  5
32FAF
331
32FD4
  5
34861
331
33193
  5
348DA
331
32FD0
  5
3485D
331
347FE
  5
348AC
331
347FA
  5
348B1
331
34835
  5
32FD0
331
347F6
  5
348B5
331
347F2
  5
348B9
331
34831
  5
32FCC
331
331E4
  5
3490F
331
34876
  5
33197
331
34872
  5
33193
331
331E0
  5
3490B
331
347AF
  5
347FF
331
347AB
  5
347FB
331
32EE5
  5
32EF3
331
3486E
  5
3318F
331
32E87
  5
32E95
331
331DC
  5
34907
331
32EE1
  5
32EEF
331
3486A
  5
3318B
331
32E83
  5
32E91
331
32EBE
  5
32ED0
331
32F1C
  5
32F2A
331
32E7F
  5
32E8D
331
32F18
  5
32F26
331
32E7B
  5
32E89
331
32EBA
  5
32ECC
331
32F4E
  5
32F5C
331
32F8D
  5
32FAB
331
3318F
  5
348D6
331
3318B
  5
348D2
331
32F4A
  5
32F58
331
32F89
  5
32FA7
331
32FCC
  5
34859
331
32F85
  5
32F9B
331
32FC8
  5
34855
331
33187
  5
348CE
331
32F46
  5
32F54
331
32F81
  5
32F91
331
32FC4
  5
34851
331
32F42
  5
32F50
331
32FC0
  5
3484D
331
347EE
  5
348BD
331
3482D
  5
32FC8
331
347EA
  5
348BF
331
34829
  5
32FC4
331
34825
  5
32FC0
331
347E6
  5
348C3
331
347E2
  5
348C7
331
34821
  5
32FBC
331
347A7
  5
347F7
331
347A3
  5
34875
331
34866
  5
3316E
331
3479F
  5
34871
331
34862
  5
330EB
331
3479B
  5
3486D
331
3485E
  5
330E2
331
32E77
  5
32E85
331
32EB6
  5
32EC4
331
331CC
  5
348F9
331
331C8
  5
348F5
331
3485A
  5
330DC
331
32ED1
  5
32EDF
331
32E73
  5
32E81
331
32EB2
  5
32EC0
331
32EAE
  5
32EBC
331
32ECD
  5
32EDB
331
32E6F
  5
32E7D
331
32F08
  5
32F16
331
32E6B
  5
32E79
331
32EAA
  5
32EB8
331
32F3E
  5
32F4C
331
32F7D
  5
32F8D
331
32F3A
  5
32F48
331
32F79
  5
32F89
331
32FBC
  5
34849
331
32FB8
  5
34845
331
32F36
  5
32F44
331
32F75
  5
32F83
331
32F71
  5
32F7F
331
32FB4
  5
34841
331
32F32
  5
32F40
331
32FB0
  5
3483D
331
347DE
  5
348CC
331
3481D
  5
347F4
331
34819
  5
3488E
331
34815
  5
3488A
331
347BA
  5
3480A
331
34811
  5
348A2
331
34797
  5
34885
331
34793
  5
34881
331
34856
  5
330D8
331
34919
  5
32E54
331
34852
  5
330D4
331
3484E
  5
330D0
331
32F04
  5
32F12
331
34915
  5
32E50
331
32E67
  5
32E75
331
32EA6
  5
32EB4
331
32EC5
  5
32ED7
331
3484A
  5
3301A
331
32F00
  5
32F0E
331
34911
  5
32E65
331
32E63
  5
32E71
331
32EA2
  5
32EB0
331
331A8
  5
348EF
331
32E9E
  5
32EAC
331
3478D
  5
3487B
331
32EFC
  5
32F0A
331
32E5F
  5
32E6D
331
32E5B
  5
32E69
331
32E9A
  5
32EA8
331
34789
  5
348CD
331
32EF8
  5
32F06
331
32F2E
  5
32F3C
331
32F6D
  5
32F7B
331
32F69
  5
32F77
331
32FAC
  5
34839
331
32FA8
  5
34835
331
32FFF
  5
34889
331
32F65
  5
32F73
331
32F61
  5
32F6F
331
32FA4
  5
34831
331
347B6
  5
34806
331
3480D
  5
3489E
331
347B2
  5
34802
331
34809
  5
3489A
331
34805
  5
34896
331
34801
  5
348A9
331
331A4
  5
348EB
331
34846
  5
3300E
331
3490D
  5
32FB6
331
34909
  5
32FB7
331
331A0
  5
348E7
331
331EF
  5
34919
331
34842
  5
32FDE
331
3483E
  5
32FD9
331
32EF4
  5
32F02
331
3487D
  5
3319E
331
32E57
  5
32E5F
331
32E96
  5
32EA4
331
3319C
  5
348E3
331
331EB
  5
34915
331
3483A
  5
32FD5
331
32EF0
  5
32EFE
331
34879
  5
3319A
331
32E53
  5
32E5B
331
32E92
  5
32EA0
331
33198
  5
348DF
331
32E8E
  5
32E9C
331
32EEC
  5
32EFA
331
32E8A
  5
32E98
331
32F5D
  5
32F6B
331
32FDB
  5
34868
331
32F59
  5
32F67
331
32FD7
  5
34864
331
33196
  5
348DD
331
32F55
  5
32F63
331
32F51
  5
32F5F
331
32F90
  5
32FAE
331
32FD3
  5
34860
331
33192
  5
348D9
331
347FD
  5
348AE
331
347F9
  5
348B0
331
347F5
  5
348B4
331
34834
  5
32FCF
331
347F1
  5
348B8
331
34830
  5
32FCB
331
331E7
  5
34911
331
34875
  5
33196
331
34871
  5
33192
331
347AE
  5
347FE
331
347AA
  5
347FA
331
3486D
  5
3318E
331
32E86
  5
32E94
331
34869
  5
33189
331
32E82
  5
32E90
331
32E7E
  5
32E8C
331
32EDC
  5
32EEA
331
32E7A
  5
32E88
331
32ED8
  5
32EE6
331
3318E
  5
348D5
331
32F4D
  5
32F5B
331
32F8C
  5
32FAA
331
32FCF
  5
3485C
331
3318A
  5
348D1
331
32F49
  5
32F57
331
32F88
  5
32F9C
331
32FCB
  5
34858
331
32F84
  5
32F9A
331
32FC7
  5
34854
331
32F45
  5
32F53
331
32F41
  5
32F4F
331
32F80
  5
32F90
331
32FC3
  5
34850
331
347ED
  5
348BC
331
3482C
  5
32FC7
331
34828
  5
32FC3
331
347E9
  5
348C2
331
34824
  5
32FBF
331
347E5
  5
348C6
331
347E1
  5
348C9
331
34820
  5
32FBB
331
331D7
  5
34903
331
347A6
  5
347F6
331
331D3
  5
348FF
331
347A2
  5
34874
331
34865
  5
3314D
331
34861
  5
330EA
331
331CF
  5
32FB4
331
3479E
  5
34870
331
3479A
  5
3486C
331
3485D
  5
330DF
331
32ED4
  5
32EE2
331
32F13
  5
32F21
331
32E76
  5
32E84
331
331CB
  5
348F8
331
34859
  5
330DB
331
32ED0
  5
32EDE
331
32F0F
  5
32F1D
331
32E72
  5
32E80
331
32ECC
  5
32EDA
331
32F0B
  5
32F19
331
32E6E
  5
32E7C
331
32E6A
  5
32E78
331
32EA9
  5
32EB7
331
32F3D
  5
32F4B
331
32F7C
  5
32F8C
331
32FBF
  5
3484C
331
32F39
  5
32F47
331
32F78
  5
32F88
331
32FBB
  5
34848
331
32F74
  5
32F82
331
32FB7
  5
34844
331
33016
  5
34892
331
32F70
  5
32F7E
331
32FB3
  5
34840
331
347DD
  5
3482D
331
3481C
  5
347F3
331
34818
  5
3488D
331
34814
  5
348A5
331
347BD
  5
3480D
331
347B9
  5
34809
331
34810
  5
348A1
331
331C7
  5
348F4
331
34796
  5
34884
331
34792
  5
34880
331
34855
  5
330D7
331
34918
  5
32E53
331
32F07
  5
32F15
331
34851
  5
330D3
331
3484D
  5
330CF
331
32EC4
  5
32ED6
331
32F03
  5
32F11
331
34914
  5
32E68
331
32E66
  5
32E74
331
32EA5
  5
32EB3
331
34849
  5
33019
331
32EC0
  5
32ED2
331
32EFF
  5
32F0D
331
34910
  5
32E64
331
32E62
  5
32E70
331
32EA1
  5
32EAF
331
32E9D
  5
32EAB
331
3478C
  5
3487A
331
32EFB
  5
32F09
331
32E5E
  5
32E6C
331
32E99
  5
32EA7
331
32F6C
  5
32F7A
331
32FAF
  5
3483C
331
32F29
  5
32F37
331
32F68
  5
32F76
331
32FAB
  5
34838
331
32FA7
  5
34834
331
32F25
  5
32F33
331
32F64
  5
32F72
331
32FA3
  5
34830
331
32F21
  5
32F2F
331
347B5
  5
34805
331
3480C
  5
3489D
331
347B1
  5
34801
331
34808
  5
34899
331
34804
  5
348A6
331
34800
  5
348AB
331
331A7
  5
348EE
331
331A3
  5
348EA
331
34845
  5
33001
331
3490C
  5
32FB5
331
3319F
  5
348E6
331
32EF7
  5
32F05
331
34841
  5
32FDD
331
3483D
  5
32FD8
331
3487C
  5
3319D
331
32E56
  5
32E5E
331
32E95
  5
32EA3
331
3319B
  5
348E2
331
34839
  5
32FD4
331
34878
  5
33199
331
32E91
  5
32E9F
  0
SORTENTSTABLE
  5
1D73
102
{ACAD_REACTORS
330
1D72
102
}
330
1D72
100
AcDbSortentsTable
330
D
331
5D
  5
5D
  0
XRECORD
  5
3498F
102
{ACAD_REACTORS
330
3498E
102
}
330
3498E
100
AcDbXrecord
280
     1
102
SHADEPLOT
 70
     0
  0
XRECORD
  5
3498B
102
{ACAD_REACTORS
330
3498A
102
}
330
3498A
100
AcDbXrecord
280
     1
340
1D50
  0
LAYOUT
  5
10
102
{ACAD_XDICTIONARY
360
89C
102
}
102
{ACAD_REACTORS
330
C
102
}
330
C
100
AcDbPlotSettings
  1

  2
HP 5000 N
  4
Letter
  6

 40
5.027082920074462
 41
5.408084392547606
 42
5.365737915039061
 43
5.365753173828125
 44
215.8999938964844
 45
279.3999938964844
 46
4.140880409212495
 47
4.709578165054337
 48
0.0
 49
0.0
140
10.205
141
7.764780009564798
142
1.0
143
1.0
 70
   692
 72
     0
 73
     1
 74
     4
  7
GORDON-BLK.ctb
 75
    16
147
1.0
148
0.0
149
0.0
100
AcDbLayout
  1
Layout1
 70
     1
 71
     1
 10
-0.2079161059762549
 20
-0.2079166691697489
 11
10.79208365372785
 21
8.29208309053436
 12
0.0
 22
0.0
 32
0.0
 14
0.0
 24
0.0
 34
0.0
 15
10.205
 25
7.764780009564798
 35
0.0
146
0.0
 13
0.0
 23
0.0
 33
0.0
 16
1.0
 26
0.0
 36
0.0
 17
0.0
 27
1.0
 37
0.0
 76
     0
330
D
331
5D
1001
ACAD_PSEXT
1000
HP 5000 N
1000
HP LaserJet 5100 PS
1000
IP_192.168.100.208
1000

1070
     0
  0
LAYOUT
  5
B
102
{ACAD_XDICTIONARY
360
34923
102
}
102
{ACAD_REACTORS
330
C
102
}
330
C
100
AcDbPlotSettings
  1

  2
HP 1055CM+ Roll.pc3
  4
User257
  6

 40
4.995333194732666
 41
13.2922945022583
 42
4.99530029296875
 43
13.29296875
 44
899.1599731445312
 45
15239.9150390625
 46
0.0
 47
0.0
 48
1.592118068029931
 49
1.083964621542295
140
10.45538313863936
141
6.686027752030966
142
1.0
143
1.0
 70
 11952
 72
     0
 73
     1
 74
     4
  7
5000N-BLACK.ctb
 75
    16
147
1.0
148
-40.4397989279603
149
-27.53270138717434
100
AcDbLayout
  1
Model
 70
     1
 71
     0
 10
0.0
 20
0.0
 11
12.0
 21
9.0
 12
0.0
 22
0.0
 32
0.0
 14
0.0
 24
0.0
 34
0.0
 15
0.0
 25
0.0
 35
0.0
146
0.0
 13
0.0
 23
0.0
 33
0.0
 16
1.0
 26
0.0
 36
0.0
 17
0.0
 27
1.0
 37
0.0
 76
     0
330
2
331
882
  0
MATERIAL
  5
10B0
102
{ACAD_XDICTIONARY
360
3493D
102
}
102
{ACAD_REACTORS
330
884
102
}
330
884
100
AcDbMaterial
  1
ByBlock
 73
     1
 78
     1
172
     1
176
     1
270
     1
274
     1
  0
MATERIAL
  5
10AF
102
{ACAD_XDICTIONARY
360
3493B
102
}
102
{ACAD_REACTORS
330
884
102
}
330
884
100
AcDbMaterial
  1
ByLayer
 73
     1
 78
     1
172
     1
176
     1
270
     1
274
     1
  0
MATERIAL
  5
10B1
102
{ACAD_XDICTIONARY
360
3493F
102
}
102
{ACAD_REACTORS
330
884
102
}
330
884
100
AcDbMaterial
  1
Global
 73
     1
 78
     1
172
     1
176
     1
270
     1
274
     1
  0
MLEADERSTYLE
  5
3324F
102
{ACAD_REACTORS
330
3324E
102
}
330
3324E
100
AcDbMLeaderStyle
170
     2
171
     1
172
     0
 90
        2
 40
0.0
 41
0.0
173
     1
 91
-1056964608
340
16
 92
       -2
290
     1
 42
0.09
291
     1
 43
0.36
  3
Standard
 44
0.18
300

342
13
174
     1
178
     6
175
     1
176
     0
 93
-1056964608
 45
0.18
292
     0
297
     0
 46
0.18
 94
-1056964608
 47
1.0
 49
1.0
140
1.0
293
     1
141
0.0
294
     1
177
     0
142
1.0
295
     0
296
     0
143
0.125
1001
ACAD_MLEADERVER
1070
     2
  0
MLINESTYLE
  5
28
102
{ACAD_REACTORS
330
25
102
}
330
25
100
AcDbMlineStyle
  2
STANDARD
 70
     0
  3

 62
   256
 51
90.0
 52
90.0
 71
     2
 49
0.5
 62
   256
  6
BYLAYER
 49
-0.5
 62
   256
  6
BYLAYER
  0
PLOTSETTINGS
  5
1A21
102
{ACAD_XDICTIONARY
360
349AD
102
}
102
{ACAD_REACTORS
330
26
102
}
330
26
100
AcDbPlotSettings
  1
3010
  2
\\User-server\3010
  4
Letter
  6

 40
6.000749588012695
 41
6.000745773315428
 42
6.000747680664062
 43
6.000762939453125
 44
215.8999938964844
 45
279.3999938964844
 46
3.336542192430866
 47
4.095742591857943
 48
0.0
 49
0.0
140
10.205
141
7.764780009564798
142
1.0
143
1.0
 70
  2740
 72
     0
 73
     1
 74
     4
  7
GORDON-BLK.ctb
 75
    16
147
1.0
148
0.0
149
0.0
1001
ACAD_PSEXT
1000
\\User-server\3010
1000
KONICA MINOLTA Di3010 PCL6
1000
\\User-server
1000

1070
     0
  0
PLOTSETTINGS
  5
1A1F
102
{ACAD_XDICTIONARY
360
349A9
102
}
102
{ACAD_REACTORS
330
26
102
}
330
26
100
AcDbPlotSettings
  1
5000N
  2
HP 5000 N
  4
Letter
  6

 40
4.233333110809326
 41
4.233341693878172
 42
4.233322143554686
 43
4.23333740234375
 44
215.8999938964844
 45
279.3999938964844
 46
5.103963199587251
 47
5.863157400131249
 48
0.0
 49
0.0
140
10.205
141
7.764780009564798
142
1.0
143
1.0
 70
  2740
 72
     0
 73
     1
 74
     4
  7
GORDON-BLK.ctb
 75
    16
147
1.0
148
0.0
149
0.0
1001
ACAD_PSEXT
1000
HP 5000 N
1000
HP LaserJet 5100 PCL 6
1000
IP_192.168.100.208
1000

1070
     0
  0
PLOTSETTINGS
  5
1A22
102
{ACAD_XDICTIONARY
360
349AF
102
}
102
{ACAD_REACTORS
330
26
102
}
330
26
100
AcDbPlotSettings
  1
Minolta
  2
\\User-server\Minolta
  4
Letter
  6

 40
6.085416316986081
 41
6.085421085357666
 42
6.085403442382812
 43
6.085418701171875
 44
215.8999938964844
 45
279.3999938964844
 46
3.251880947084776
 47
4.011077054977445
 48
0.0
 49
0.0
140
10.205
141
7.764780009564798
142
1.0
143
1.0
 70
  2740
 72
     0
 73
     1
 74
     4
  7
GORDON-BLK.ctb
 75
    16
147
1.0
148
0.0
149
0.0
1001
ACAD_PSEXT
1000
\\User-server\Minolta
1000
CopierBW Ver 1.1
1000
\\User-server
1000

1070
     0
  0
PLOTSETTINGS
  5
1A20
102
{ACAD_XDICTIONARY
360
349AB
102
}
102
{ACAD_REACTORS
330
26
102
}
330
26
100
AcDbPlotSettings
  1
PDF
  2
Acrobat PDFWriter
  4
Letter
  6

 40
3.174999952316283
 41
3.174999952316283
 42
3.175003051757812
 43
3.17498779296875
 44
215.8999938964844
 45
279.3999938964844
 46
6.162289324732188
 47
6.921503075599713
 48
0.0
 49
0.0
140
10.205
141
7.764780009564798
142
1.0
143
1.0
 70
  2740
 72
     0
 73
     1
 74
     4
  7
GORDON-BLK.ctb
 75
    16
147
1.0
148
0.0
149
0.0
1001
ACAD_PSEXT
1000
Acrobat PDFWriter
1000
Adobe PDF Converter
1000
My Documents
1000
Creates Adobe PDF
1070
     0
  0
ACDBPLACEHOLDER
  5
5
102
{ACAD_REACTORS
330
6
102
}
330
6
  0
SCALE
  5
3323D
102
{ACAD_REACTORS
330
3323C
102
}
330
3323C
100
AcDbScale
 70
     0
300
1:1
140
1.0
141
1.0
290
     1
  0
SCALE
  5
3323E
102
{ACAD_REACTORS
330
3323C
102
}
330
3323C
100
AcDbScale
 70
     0
300
1/128" = 1'-0"
140
0.0078125
141
12.0
290
     0
  0
SCALE
  5
3323F
102
{ACAD_REACTORS
330
3323C
102
}
330
3323C
100
AcDbScale
 70
     0
300
1/64" = 1'-0"
140
0.015625
141
12.0
290
     0
  0
SCALE
  5
33240
102
{ACAD_REACTORS
330
3323C
102
}
330
3323C
100
AcDbScale
 70
     0
300
1/32" = 1'-0"
140
0.03125
141
12.0
290
     0
  0
SCALE
  5
33241
102
{ACAD_REACTORS
330
3323C
102
}
330
3323C
100
AcDbScale
 70
     0
300
1/16" = 1'-0"
140
0.0625
141
12.0
290
     0
  0
SCALE
  5
33242
102
{ACAD_REACTORS
330
3323C
102
}
330
3323C
100
AcDbScale
 70
     0
300
3/32" = 1'-0"
140
0.09375
141
12.0
290
     0
  0
SCALE
  5
33243
102
{ACAD_REACTORS
330
3323C
102
}
330
3323C
100
AcDbScale
 70
     0
300
1/8" = 1'-0"
140
0.125
141
12.0
290
     0
  0
SCALE
  5
33244
102
{ACAD_REACTORS
330
3323C
102
}
330
3323C
100
AcDbScale
 70
     0
300
3/16" = 1'-0"
140
0.1875
141
12.0
290
     0
  0
SCALE
  5
33245
102
{ACAD_REACTORS
330
3323C
102
}
330
3323C
100
AcDbScale
 70
     0
300
1/4" = 1'-0"
140
0.25
141
12.0
290
     0
  0
SCALE
  5
33246
102
{ACAD_REACTORS
330
3323C
102
}
330
3323C
100
AcDbScale
 70
     0
300
3/8" = 1'-0"
140
0.375
141
12.0
290
     0
  0
SCALE
  5
33247
102
{ACAD_REACTORS
330
3323C
102
}
330
3323C
100
AcDbScale
 70
     0
300
1/2" = 1'-0"
140
0.5
141
12.0
290
     0
  0
SCALE
  5
33248
102
{ACAD_REACTORS
330
3323C
102
}
330
3323C
100
AcDbScale
 70
     0
300
3/4" = 1'-0"
140
0.75
141
12.0
290
     0
  0
SCALE
  5
33249
102
{ACAD_REACTORS
330
3323C
102
}
330
3323C
100
AcDbScale
 70
     0
300
1" = 1'-0"
140
1.0
141
12.0
290
     0
  0
SCALE
  5
3324A
102
{ACAD_REACTORS
330
3323C
102
}
330
3323C
100
AcDbScale
 70
     0
300
1-1/2" = 1'-0"
140
1.5
141
12.0
290
     0
  0
SCALE
  5
3324B
102
{ACAD_REACTORS
330
3323C
102
}
330
3323C
100
AcDbScale
 70
     0
300
3" = 1'-0"
140
3.0
141
12.0
290
     0
  0
SCALE
  5
3324C
102
{ACAD_REACTORS
330
3323C
102
}
330
3323C
100
AcDbScale
 70
     0
300
6" = 1'-0"
140
6.0
141
12.0
290
     0
  0
SCALE
  5
3324D
102
{ACAD_REACTORS
330
3323C
102
}
330
3323C
100
AcDbScale
 70
     0
300
1'-0" = 1'-0"
140
12.0
141
12.0
290
     0
  0
TABLESTYLE
  5
887
102
{ACAD_XDICTIONARY
360
34930
102
}
102
{ACAD_REACTORS
330
886
102
}
330
886
100
AcDbTableStyle
  3
Standard
 70
     0
 71
     0
 40
0.06
 41
0.06
280
     0
281
     0
  7
STANDARD
140
0.18
170
     2
 62
     0
 63
     7
283
     0
274
    -2
284
     1
 64
     0
275
    -2
285
     1
 65
     0
276
    -2
286
     1
 66
     0
277
    -2
287
     1
 67
     0
278
    -2
288
     1
 68
     0
279
    -2
289
     1
 69
     0
  7
STANDARD
140
0.25
170
     5
 62
     0
 63
     7
283
     0
274
    -2
284
     1
 64
     0
275
    -2
285
     1
 65
     0
276
    -2
286
     1
 66
     0
277
    -2
287
     1
 67
     0
278
    -2
288
     1
 68
     0
279
    -2
289
     1
 69
     0
  7
STANDARD
140
0.18
170
     5
 62
     0
 63
     7
283
     0
274
    -2
284
     1
 64
     0
275
    -2
285
     1
 65
     0
276
    -2
286
     1
 66
     0
277
    -2
287
     1
 67
     0
278
    -2
288
     1
 68
     0
279
    -2
289
     1
 69
     0
  0
VISUALSTYLE
  5
10B8
102
{ACAD_XDICTIONARY
360
3499B
102
}
102
{ACAD_REACTORS
330
10B2
102
}
330
10B2
100
AcDbVisualStyle
  2

 70
     4
 71
     0
 72
     2
 73
     0
 90
        0
 40
-0.6
 41
-30.0
 62
     5
 63
     7
 74
     1
 91
        4
 64
     7
 65
   257
 75
     1
175
     1
 42
1.0
 92
        0
 66
   257
 43
1.0
 76
     1
 77
     6
 78
     2
 67
     7
 79
     5
170
     0
171
     0
290
     0
174
     0
 93
        1
 44
0.0
173
     0
291
     0
 45
0.0
1001
ACAD
1000
AcDbSavedByObjectVersion
1070
     0
  0
VISUALSTYLE
  5
1D4F
102
{ACAD_XDICTIONARY
360
349B1
102
}
102
{ACAD_REACTORS
330
10B2
102
}
330
10B2
100
AcDbVisualStyle
  2

 70
     6
 71
     1
 72
     2
 73
     2
 90
        0
 40
-0.6
 41
-30.0
 62
     5
 63
     7
 74
     2
 91
        2
 64
     7
 65
   257
 75
     2
175
     1
 42
40.0
 92
        0
 66
   257
 43
1.0
 76
     1
 77
     6
 78
     2
 67
     7
 79
     3
170
     0
171
     0
290
     0
174
     0
 93
        1
 44
0.0
173
     0
291
     0
 45
0.0
1001
ACAD
1000
AcDbSavedByObjectVersion
1070
     0
  0
VISUALSTYLE
  5
1D50
102
{ACAD_XDICTIONARY
360
349B3
102
}
102
{ACAD_REACTORS
330
10B2
102
}
330
10B2
100
AcDbVisualStyle
  2

 70
     5
 71
     0
 72
     2
 73
     0
 90
        0
 40
-0.6
 41
-30.0
 62
     5
 63
     7
 74
     1
 91
        4
 64
     7
 65
   257
 75
     1
175
     1
 42
1.0
 92
        0
 66
   257
 43
1.0
 76
     1
 77
     6
 78
     2
 67
     7
 79
     5
170
     0
171
     0
290
     0
174
     0
 93
        1
 44
0.0
173
     0
291
     0
 45
0.0
1001
ACAD
1000
AcDbSavedByObjectVersion
1070
     0
  0
VISUALSTYLE
  5
10B7
102
{ACAD_XDICTIONARY
360
34999
102
}
102
{ACAD_REACTORS
330
10B2
102
}
330
10B2
100
AcDbVisualStyle
  2

 70
     7
 71
     1
 72
     0
 73
     1
 90
        0
 40
-0.6
 41
-30.0
 62
     5
 63
     7
 74
     0
 91
        4
 64
     7
 65
   257
 75
     1
175
     1
 42
1.0
 92
        8
 66
     7
 43
1.0
 76
     1
 77
     6
 78
     2
 67
     7
 79
     5
170
     0
171
     0
290
     0
174
     0
 93
        1
 44
0.0
173
     0
291
     1
 45
0.0
1001
ACAD
1000
AcDbSavedByObjectVersion
1070
     0
  0
VISUALSTYLE
  5
10BE
102
{ACAD_XDICTIONARY
360
3499F
102
}
102
{ACAD_REACTORS
330
10B2
102
}
330
10B2
100
AcDbVisualStyle
  2

 70
    12
 71
     2
 72
     2
 73
     0
 90
        0
 40
-0.6
 41
-30.0
 62
     5
 63
     7
 74
     1
 91
        4
 64
     7
 65
   257
 75
     1
175
     1
 42
1.0
 92
        8
 66
     7
 43
1.0
 76
     1
 77
     6
 78
     2
 67
     7
 79
     5
170
     0
171
     0
290
     0
174
     0
 93
        1
 44
50.0
173
     0
291
     1
 45
0.0
1001
ACAD
1000
AcDbSavedByObjectVersion
1070
     0
  0
VISUALSTYLE
  5
10C2
102
{ACAD_XDICTIONARY
360
349A7
102
}
102
{ACAD_REACTORS
330
10B2
102
}
330
10B2
100
AcDbVisualStyle
  2

 70
    16
 71
     2
 72
     2
 73
     3
 90
        0
 40
-0.6
 41
-30.0
 62
     5
 63
     8
 74
     1
 91
        4
 64
     7
 65
   257
 75
     1
175
     1
 42
1.0
 92
        8
 66
     8
 43
1.0
 76
     1
 77
     6
 78
     2
 67
     7
 79
     5
170
     0
171
     0
290
     0
174
     0
 93
        1
 44
0.0
173
     0
291
     1
 45
0.0
1001
ACAD
1000
AcDbSavedByObjectVersion
1070
     0
  0
VISUALSTYLE
  5
1D51
102
{ACAD_XDICTIONARY
360
349B5
102
}
102
{ACAD_REACTORS
330
10B2
102
}
330
10B2
100
AcDbVisualStyle
  2

 70
     9
 71
     3
 72
     2
 73
     0
 90
        0
 40
-0.6
 41
-30.0
 62
     5
 63
     7
 74
     2
 91
        2
 64
     7
 65
   257
 75
     1
175
     1
 42
40.0
 92
        8
 66
     7
 43
1.0
 76
     1
 77
     6
 78
     2
 67
     7
 79
     3
170
     0
171
     0
290
     0
174
     0
 93
        1
 44
0.0
173
     0
291
     0
 45
0.0
1001
ACAD
1000
AcDbSavedByObjectVersion
1070
     0
  0
VISUALSTYLE
  5
10BD
102
{ACAD_XDICTIONARY
360
3499D
102
}
102
{ACAD_REACTORS
330
10B2
102
}
330
10B2
100
AcDbVisualStyle
  2

 70
    11
 71
     2
 72
     2
 73
     0
 90
        0
 40
-0.6
 41
-30.0
 62
     5
 63
     7
 74
     1
 91
        4
 64
     7
 65
   257
 75
     1
175
     1
 42
1.0
 92
        8
 66
     7
 43
1.0
 76
     1
 77
     6
 78
     2
 67
     7
 79
     5
170
     0
171
     0
290
     0
174
     0
 93
        1
 44
-50.0
173
     0
291
     1
 45
0.0
1001
ACAD
1000
AcDbSavedByObjectVersion
1070
     0
  0
VISUALSTYLE
  5
3323B
102
{ACAD_XDICTIONARY
360
349CB
102
}
102
{ACAD_REACTORS
330
10B2
102
}
330
10B2
100
AcDbVisualStyle
  2

 70
    22
 71
     2
 72
     2
 73
     0
 90
        0
 40
-0.6
 41
-30.0
 62
     5
 63
     7
 74
     1
 91
        4
 64
     7
 65
   257
 75
     1
175
     1
 42
1.0
 92
        8
 66
     7
 43
1.0
 76
     1
 77
     6
 78
     2
 67
     7
 79
     5
170
     0
171
     0
290
     0
174
     0
 93
        1
 44
0.0
173
     0
291
     1
 45
0.0
1001
ACAD
1000
AcDbSavedByObjectVersion
1070
     0
  0
VISUALSTYLE
  5
10C1
102
{ACAD_XDICTIONARY
360
349A5
102
}
102
{ACAD_REACTORS
330
10B2
102
}
330
10B2
100
AcDbVisualStyle
  2

 70
    15
 71
     2
 72
     2
 73
     0
 90
        0
 40
-0.6
 41
-30.0
 62
     5
 63
     7
 74
     1
 91
        4
 64
     7
 65
   257
 75
     1
175
     1
 42
1.0
 92
        8
 66
     7
 43
1.0
 76
     1
 77
     6
 78
     2
 67
     7
 79
     5
170
     0
171
     0
290
     0
174
     0
 93
        1
 44
0.0
173
     0
291
     1
 45
0.0
1001
ACAD
1000
AcDbSavedByObjectVersion
1070
     0
  0
VISUALSTYLE
  5
10B3
102
{ACAD_XDICTIONARY
360
34991
102
}
102
{ACAD_REACTORS
330
10B2
102
}
330
10B2
100
AcDbVisualStyle
  2

 70
     0
 71
     2
 72
     1
 73
     1
 90
        2
 40
-0.6
 41
30.0
 62
     5
 63
     7
 74
     0
 91
        4
 64
     7
 65
   257
 75
     1
175
     1
 42
1.0
 92
        8
 66
     7
 43
1.0
 76
     1
 77
     6
 78
     2
 67
     7
 79
     5
170
     0
171
     0
290
     0
174
     0
 93
       13
 44
0.0
173
     0
291
     1
 45
0.0
1001
ACAD
1000
AcDbSavedByObjectVersion
1070
     0
  0
VISUALSTYLE
  5
10B4
102
{ACAD_XDICTIONARY
360
34993
102
}
102
{ACAD_REACTORS
330
10B2
102
}
330
10B2
100
AcDbVisualStyle
  2

 70
     1
 71
     2
 72
     1
 73
     1
 90
        2
 40
-0.6
 41
30.0
 62
     5
 63
     7
 74
     1
 91
        4
 64
     7
 65
   257
 75
     1
175
     1
 42
1.0
 92
        0
 66
   257
 43
1.0
 76
     1
 77
     6
 78
     2
 67
     7
 79
     5
170
     0
171
     0
290
     0
174
     0
 93
       13
 44
0.0
173
     0
291
     1
 45
0.0
1001
ACAD
1000
AcDbSavedByObjectVersion
1070
     0
  0
VISUALSTYLE
  5
10B5
102
{ACAD_XDICTIONARY
360
34995
102
}
102
{ACAD_REACTORS
330
10B2
102
}
330
10B2
100
AcDbVisualStyle
  2

 70
     2
 71
     2
 72
     2
 73
     1
 90
        2
 40
-0.6
 41
30.0
 62
     5
 63
     7
 74
     0
 91
        4
 64
     7
 65
   257
 75
     1
175
     1
 42
1.0
 92
        0
 66
     7
 43
1.0
 76
     1
 77
     6
 78
     2
 67
     7
 79
     5
170
     0
171
     0
290
     0
174
     0
 93
       13
 44
0.0
173
     0
291
     1
 45
0.0
1001
ACAD
1000
AcDbSavedByObjectVersion
1070
     0
  0
VISUALSTYLE
  5
10B6
102
{ACAD_XDICTIONARY
360
34997
102
}
102
{ACAD_REACTORS
330
10B2
102
}
330
10B2
100
AcDbVisualStyle
  2

 70
     3
 71
     2
 72
     2
 73
     1
 90
        2
 40
-0.6
 41
30.0
 62
     5
 63
     7
 74
     1
 91
        4
 64
     7
 65
   257
 75
     1
175
     1
 42
1.0
 92
        0
 66
   257
 43
1.0
 76
     1
 77
     6
 78
     2
 67
     7
 79
     5
170
     0
171
     0
290
     0
174
     0
 93
       13
 44
0.0
173
     0
291
     1
 45
0.0
1001
ACAD
1000
AcDbSavedByObjectVersion
1070
     0
  0
VISUALSTYLE
  5
33233
102
{ACAD_XDICTIONARY
360
349BB
102
}
102
{ACAD_REACTORS
330
10B2
102
}
330
10B2
100
AcDbVisualStyle
  2

 70
     6
 71
     1
 72
     2
 73
     2
 90
        0
 40
-0.6
 41
-30.0
 62
     5
 63
     7
 74
     2
 91
        2
 64
     7
 65
   257
 75
     2
175
     1
 42
40.0
 92
        0
 66
   257
 43
1.0
 76
     1
 77
     6
 78
     2
 67
     7
 79
     3
170
     0
171
     0
290
     0
174
     0
 93
        1
 44
0.0
173
     0
291
     0
 45
0.0
1001
ACAD
1000
AcDbSavedByObjectVersion
1070
     0
  0
VISUALSTYLE
  5
33239
102
{ACAD_XDICTIONARY
360
349C7
102
}
102
{ACAD_REACTORS
330
10B2
102
}
330
10B2
100
AcDbVisualStyle
  2

 70
    20
 71
     2
 72
     2
 73
     0
 90
        0
 40
-0.6
 41
-30.0
 62
     5
 63
     7
 74
     1
 91
        4
 64
     7
 65
   257
 75
     1
175
     1
 42
1.0
 92
       10
 66
     7
 43
1.0
 76
     1
 77
     6
 78
     2
 67
     7
 79
     5
170
     0
171
     0
290
     0
174
     0
 93
        1
 44
0.0
173
     0
291
     1
 45
0.0
1001
ACAD
1000
AcDbSavedByObjectVersion
1070
     0
  0
VISUALSTYLE
  5
10C0
102
{ACAD_XDICTIONARY
360
349A3
102
}
102
{ACAD_REACTORS
330
10B2
102
}
330
10B2
100
AcDbVisualStyle
  2

 70
    14
 71
     2
 72
     2
 73
     0
 90
        0
 40
-0.6
 41
-30.0
 62
     5
 63
     7
 74
     1
 91
        4
 64
     7
 65
   257
 75
     7
175
     7
 42
1.0
 92
        8
 66
     7
 43
1.0
 76
     1
 77
     6
 78
     2
 67
     7
 79
     5
170
     0
171
     0
290
     0
174
     0
 93
        1
 44
0.0
173
     0
291
     1
 45
0.0
1001
ACAD
1000
AcDbSavedByObjectVersion
1070
     0
  0
VISUALSTYLE
  5
3323A
102
{ACAD_XDICTIONARY
360
349C9
102
}
102
{ACAD_REACTORS
330
10B2
102
}
330
10B2
100
AcDbVisualStyle
  2

 70
    21
 71
     2
 72
     2
 73
     0
 90
        0
 40
-0.6
 41
-30.0
 62
     5
 63
     7
 74
     1
 91
        4
 64
     7
 65
   257
 75
     1
175
     1
 42
1.0
 92
        9
 66
     7
 43
1.0
 76
     1
 77
     6
 78
     2
 67
     7
 79
     5
170
     0
171
     0
290
     0
174
     0
 93
        1
 44
0.0
173
     0
291
     1
 45
0.0
1001
ACAD
1000
AcDbSavedByObjectVersion
1070
     0
  0
VISUALSTYLE
  5
1D52
102
{ACAD_XDICTIONARY
360
349B7
102
}
102
{ACAD_REACTORS
330
10B2
102
}
330
10B2
100
AcDbVisualStyle
  2

 70
     8
 71
     2
 72
     2
 73
     0
 90
        0
 40
-0.6
 41
-30.0
 62
     5
 63
     7
 74
     1
 91
        0
 64
     7
 65
   257
 75
     1
175
     1
 42
1.0
 92
        8
 66
     8
 43
1.0
 76
     1
 77
     6
 78
     2
 67
     7
 79
     5
170
     0
171
     0
290
     0
174
     0
 93
       13
 44
0.0
173
     0
291
     0
 45
0.0
1001
ACAD
1000
AcDbSavedByObjectVersion
1070
     0
  0
VISUALSTYLE
  5
33238
102
{ACAD_XDICTIONARY
360
349C5
102
}
102
{ACAD_REACTORS
330
10B2
102
}
330
10B2
100
AcDbVisualStyle
  2

 70
    27
 71
     2
 72
     2
 73
     1
 90
        2
 40
-0.6
 41
30.0
 62
     5
 63
     7
 74
     0
 91
        4
 64
     7
 65
   257
 75
     1
175
     1
 42
1.0
 92
        8
 66
   257
 43
1.0
 76
     1
 77
     6
 78
     2
 67
     8
 79
     3
170
     0
171
     0
290
     0
174
     0
 93
        5
 44
0.0
173
     0
291
     0
 45
0.0
1001
ACAD
1000
AcDbSavedByObjectVersion
1070
     0
  0
VISUALSTYLE
  5
33237
102
{ACAD_XDICTIONARY
360
349C3
102
}
102
{ACAD_REACTORS
330
10B2
102
}
330
10B2
100
AcDbVisualStyle
  2

 70
    26
 71
     2
 72
     2
 73
     1
 90
        2
 40
-0.6
 41
30.0
 62
     5
 63
     7
 74
     1
 91
       10
 64
     7
 65
   257
 75
     2
175
     1
 42
1.0
 92
        8
 66
   257
 43
1.0
 76
     1
 77
     6
 78
     2
 67
     7
 79
     3
170
     0
171
     0
290
     0
174
     0
 93
        5
 44
0.0
173
     0
291
     0
 45
0.0
1001
ACAD
1000
AcDbSavedByObjectVersion
1070
     0
  0
VISUALSTYLE
  5
33234
102
{ACAD_XDICTIONARY
360
349BD
102
}
102
{ACAD_REACTORS
330
10B2
102
}
330
10B2
100
AcDbVisualStyle
  2

 70
    23
 71
     2
 72
     2
 73
     3
 90
        0
 40
-0.6
 41
-30.0
 62
     5
 63
     7
 74
     2
 91
        2
 64
     7
 65
     7
 75
     1
175
     1
 42
40.0
 92
        8
 66
     7
 43
1.0
 76
     1
 77
     6
 78
     2
 67
     7
 79
     3
170
     0
171
     0
290
     0
174
     0
 93
        1
 44
0.0
173
     0
291
     0
 45
0.0
1001
ACAD
1000
AcDbSavedByObjectVersion
1070
     0
  0
VISUALSTYLE
  5
33235
102
{ACAD_XDICTIONARY
360
349BF
102
}
102
{ACAD_REACTORS
330
10B2
102
}
330
10B2
100
AcDbVisualStyle
  2

 70
    24
 71
     1
 72
     2
 73
     2
 90
        0
 40
-0.6
 41
-30.0
 62
     5
 63
     7
 74
     2
 91
        2
 64
     7
 65
     7
 75
     1
175
     1
 42
40.0
 92
       11
 66
     7
 43
1.0
 76
     1
 77
     6
 78
     2
 67
     7
 79
     6
170
     0
171
     0
290
     0
174
     0
 93
        1
 44
0.0
173
     0
291
     0
 45
0.0
1001
ACAD
1000
AcDbSavedByObjectVersion
1070
     0
  0
VISUALSTYLE
  5
10BF
102
{ACAD_XDICTIONARY
360
349A1
102
}
102
{ACAD_REACTORS
330
10B2
102
}
330
10B2
100
AcDbVisualStyle
  2

 70
    13
 71
     2
 72
     2
 73
     0
 90
        0
 40
-0.6
 41
-30.0
 62
     5
 63
     7
 74
     1
 91
        4
 64
     7
 65
   257
 75
     1
175
     1
 42
1.0
 92
       12
 66
     7
 43
1.0
 76
     1
 77
     6
 78
     2
 67
     7
 79
     5
170
     0
171
     0
290
     0
174
     0
 93
        1
 44
0.0
173
     0
291
     1
 45
0.0
1001
ACAD
1000
AcDbSavedByObjectVersion
1070
     0
  0
VISUALSTYLE
  5
33232
102
{ACAD_XDICTIONARY
360
349B9
102
}
102
{ACAD_REACTORS
330
10B2
102
}
330
10B2
100
AcDbVisualStyle
  2

 70
     5
 71
     0
 72
     2
 73
     0
 90
        0
 40
-0.6
 41
-30.0
 62
     5
 63
     7
 74
     1
 91
        4
 64
     7
 65
   257
 75
     1
175
     1
 42
1.0
 92
        0
 66
   257
 43
1.0
 76
     1
 77
     6
 78
     2
 67
     7
 79
     3
170
     0
171
     0
290
     0
174
     0
 93
        1
 44
0.0
173
     0
291
     0
 45
0.0
1001
ACAD
1000
AcDbSavedByObjectVersion
1070
     0
  0
VISUALSTYLE
  5
33236
102
{ACAD_XDICTIONARY
360
349C1
102
}
102
{ACAD_REACTORS
330
10B2
102
}
330
10B2
100
AcDbVisualStyle
  2

 70
    25
 71
     2
 72
     2
 73
     1
 90
        1
 40
0.5
 41
-30.0
 62
     5
 63
     7
 74
     1
 91
        0
 64
     7
 65
   257
 75
     1
175
     1
 42
1.0
 92
        8
 66
     7
 43
1.0
 76
     1
 77
     6
 78
     2
 67
     7
 79
     3
170
     0
171
     0
290
     0
174
     0
 93
       13
 44
0.0
173
     0
291
     0
 45
0.0
1001
ACAD
1000
AcDbSavedByObjectVersion
1070
     0
  0
DICTIONARYVAR
  5
34705
102
{ACAD_REACTORS
330
3AC
102
}
330
3AC
100
DictionaryVariables
280
     0
  1
1:1
  0
DICTIONARYVAR
  5
34703
102
{ACAD_REACTORS
330
3AC
102
}
330
3AC
100
DictionaryVariables
280
     0
  1
STANDARD
  0
DICTIONARYVAR
  5
89F
102
{ACAD_REACTORS
330
3AC
102
}
330
3AC
100
DictionaryVariables
280
     0
  1
STANDARD
  0
DICTIONARYVAR
  5
3AD
102
{ACAD_REACTORS
330
3AC
102
}
330
3AC
100
DictionaryVariables
280
     0
  1
1
  0
DICTIONARYVAR
  5
34985
102
{ACAD_REACTORS
330
3AC
102
}
330
3AC
100
DictionaryVariables
280
     0
  1
0
  0
DICTIONARYVAR
  5
3492D
102
{ACAD_REACTORS
330
3AC
102
}
330
3AC
100
DictionaryVariables
280
     0
  1
0
  0
DICTIONARYVAR
  5
34707
102
{ACAD_REACTORS
330
3AC
102
}
330
3AC
100
DictionaryVariables
280
     0
  1
1
  0
DICTIONARYVAR
  5
34708
102
{ACAD_REACTORS
330
3AC
102
}
330
3AC
100
DictionaryVariables
280
     0
  1
15
  0
DICTIONARYVAR
  5
34706
102
{ACAD_REACTORS
330
3AC
102
}
330
3AC
100
DictionaryVariables
280
     0
  1
0
  0
DICTIONARYVAR
  5
34704
102
{ACAD_REACTORS
330
3AC
102
}
330
3AC
100
DictionaryVariables
280
     0
  1
0
  0
DICTIONARYVAR
  5
3492F
102
{ACAD_REACTORS
330
3AC
102
}
330
3AC
100
DictionaryVariables
280
     0
  1
1
  0
DICTIONARYVAR
  5
3492C
102
{ACAD_REACTORS
330
3AC
102
}
330
3AC
100
DictionaryVariables
280
     0
  1
127
  0
DICTIONARYVAR
  5
34986
102
{ACAD_REACTORS
330
3AC
102
}
330
3AC
100
DictionaryVariables
280
     0
  1
2
  0
XRECORD
  5
1054
102
{ACAD_REACTORS
330
1053
102
}
330
1053
100
AcDbXrecord
280
     1
330
0
  0
XRECORD
  5
331F3
102
{ACAD_REACTORS
330
89A
102
}
330
89A
100
AcDbXrecord
280
     1
 91
      535
301

290
     0
302
DETAIL
330
1A94
 90
        0
 62
   253
370
    -3
331
8
  1
Color_253
330
1A91
 90
        8
 62
    60
370
    -3
331
8
  1
Color_60
330
1A8E
 90
        8
 62
     2
370
    -3
331
8
  1
Color_2
330
1A8B
 90
        8
 62
     2
370
    -3
331
1A4E
  1
Color_2
330
1A88
 90
        8
 62
     3
370
    -3
331
8
  1
Color_3
330
1A85
 90
        8
 62
     6
370
    -3
331
8
  1
Color_6
330
1A82
 90
        0
 62
   251
370
    -3
331
8
  1
Color_251
330
1A7F
 90
        8
 62
     1
370
    -3
331
8
  1
Color_1
330
1A7C
 90
        8
 62
   253
370
    -3
331
1A5D
  1
Color_253
330
1A79
 90
        8
 62
     2
370
    -3
331
8
  1
Color_2
330
1A76
 90
        8
 62
     4
370
    -3
331
8
  1
Color_4
330
1A73
 90
        8
 62
     1
370
    -3
331
8
  1
Color_1
330
1A70
 90
        8
 62
     6
370
    -3
331
8
  1
Color_6
330
1A6D
 90
        8
 62
     5
370
    -3
331
8
  1
Color_5
330
1A6A
 90
        8
 62
    52
370
    -3
331
8
  1
Color_52
330
1A67
 90
        8
 62
     2
370
    -3
331
8
  1
Color_2
330
1A64
 90
        8
 62
     1
370
    -3
331
8
  1
Color_1
330
1A61
 90
        8
 62
     1
370
    -3
331
8
  1
Color_1
330
73
 90
        0
 62
   252
370
    -3
331
8
  1
Color_252
330
32
 90
        8
 62
     3
370
    -3
331
8
  1
Color_3
330
4
 90
        8
 62
     7
370
    -3
331
8
  1
Color_7
  0
DICTIONARY
  5
89C
330
10
100
AcDbDictionary
280
     1
281
     1
  3
ACAD_XREC_ROUNDTRIP
360
3498D
  3
ADSK_XREC_LAYOUTTHUMBNAIL
360
89D
  0
DICTIONARY
  5
34923
330
B
100
AcDbDictionary
280
     1
281
     1
  3
ACAD_XREC_ROUNDTRIP
360
3498C
  3
ADSK_XREC_LAYOUTTHUMBNAIL
360
34924
  0
DICTIONARY
  5
3493D
330
10B0
100
AcDbDictionary
280
     1
281
     1
  3
ACAD_XREC_ROUNDTRIP
360
3493E
  0
DICTIONARY
  5
3493B
330
10AF
100
AcDbDictionary
280
     1
281
     1
  3
ACAD_XREC_ROUNDTRIP
360
3493C
  0
DICTIONARY
  5
3493F
330
10B1
100
AcDbDictionary
280
     1
281
     1
  3
ACAD_XREC_ROUNDTRIP
360
34940
  0
DICTIONARY
  5
349AD
330
1A21
100
AcDbDictionary
280
     1
281
     1
  3
ACAD_XREC_ROUNDTRIP
360
349AE
  0
DICTIONARY
  5
349A9
330
1A1F
100
AcDbDictionary
280
     1
281
     1
  3
ACAD_XREC_ROUNDTRIP
360
349AA
  0
DICTIONARY
  5
349AF
330
1A22
100
AcDbDictionary
280
     1
281
     1
  3
ACAD_XREC_ROUNDTRIP
360
349B0
  0
DICTIONARY
  5
349AB
330
1A20
100
AcDbDictionary
280
     1
281
     1
  3
ACAD_XREC_ROUNDTRIP
360
349AC
  0
DICTIONARY
  5
34930
330
887
100
AcDbDictionary
280
     1
281
     1
  3
ACAD_ROUNDTRIP_2008_TABLESTYLE_CELLSTYLEMAP
360
34987
  3
ACAD_XREC_ROUNDTRIP
360
34990
  0
DICTIONARY
  5
3499B
330
10B8
100
AcDbDictionary
280
     1
281
     1
  3
ACAD_XREC_ROUNDTRIP
360
3499C
  0
DICTIONARY
  5
349B1
330
1D4F
100
AcDbDictionary
280
     1
281
     1
  3
ACAD_XREC_ROUNDTRIP
360
349B2
  0
DICTIONARY
  5
349B3
330
1D50
100
AcDbDictionary
280
     1
281
     1
  3
ACAD_XREC_ROUNDTRIP
360
349B4
  0
DICTIONARY
  5
34999
330
10B7
100
AcDbDictionary
280
     1
281
     1
  3
ACAD_XREC_ROUNDTRIP
360
3499A
  0
DICTIONARY
  5
3499F
330
10BE
100
AcDbDictionary
280
     1
281
     1
  3
ACAD_XREC_ROUNDTRIP
360
349A0
  0
DICTIONARY
  5
349A7
330
10C2
100
AcDbDictionary
280
     1
281
     1
  3
ACAD_XREC_ROUNDTRIP
360
349A8
  0
DICTIONARY
  5
349B5
330
1D51
100
AcDbDictionary
280
     1
281
     1
  3
ACAD_XREC_ROUNDTRIP
360
349B6
  0
DICTIONARY
  5
3499D
330
10BD
100
AcDbDictionary
280
     1
281
     1
  3
ACAD_XREC_ROUNDTRIP
360
3499E
  0
DICTIONARY
  5
349CB
330
3323B
100
AcDbDictionary
280
     1
281
     1
  3
ACAD_XREC_ROUNDTRIP
360
349CC
  0
DICTIONARY
  5
349A5
330
10C1
100
AcDbDictionary
280
     1
281
     1
  3
ACAD_XREC_ROUNDTRIP
360
349A6
  0
DICTIONARY
  5
34991
330
10B3
100
AcDbDictionary
280
     1
281
     1
  3
ACAD_XREC_ROUNDTRIP
360
34992
  0
DICTIONARY
  5
34993
330
10B4
100
AcDbDictionary
280
     1
281
     1
  3
ACAD_XREC_ROUNDTRIP
360
34994
  0
DICTIONARY
  5
34995
330
10B5
100
AcDbDictionary
280
     1
281
     1
  3
ACAD_XREC_ROUNDTRIP
360
34996
  0
DICTIONARY
  5
34997
330
10B6
100
AcDbDictionary
280
     1
281
     1
  3
ACAD_XREC_ROUNDTRIP
360
34998
  0
DICTIONARY
  5
349BB
330
33233
100
AcDbDictionary
280
     1
281
     1
  3
ACAD_XREC_ROUNDTRIP
360
349BC
  0
DICTIONARY
  5
349C7
330
33239
100
AcDbDictionary
280
     1
281
     1
  3
ACAD_XREC_ROUNDTRIP
360
349C8
  0
DICTIONARY
  5
349A3
330
10C0
100
AcDbDictionary
280
     1
281
     1
  3
ACAD_XREC_ROUNDTRIP
360
349A4
  0
DICTIONARY
  5
349C9
330
3323A
100
AcDbDictionary
280
     1
281
     1
  3
ACAD_XREC_ROUNDTRIP
360
349CA
  0
DICTIONARY
  5
349B7
330
1D52
100
AcDbDictionary
280
     1
281
     1
  3
ACAD_XREC_ROUNDTRIP
360
349B8
  0
DICTIONARY
  5
349C5
330
33238
100
AcDbDictionary
280
     1
281
     1
  3
ACAD_XREC_ROUNDTRIP
360
349C6
  0
DICTIONARY
  5
349C3
330
33237
100
AcDbDictionary
280
     1
281
     1
  3
ACAD_XREC_ROUNDTRIP
360
349C4
  0
DICTIONARY
  5
349BD
330
33234
100
AcDbDictionary
280
     1
281
     1
  3
ACAD_XREC_ROUNDTRIP
360
349BE
  0
DICTIONARY
  5
349BF
330
33235
100
AcDbDictionary
280
     1
281
     1
  3
ACAD_XREC_ROUNDTRIP
360
349C0
  0
DICTIONARY
  5
349A1
330
10BF
100
AcDbDictionary
280
     1
281
     1
  3
ACAD_XREC_ROUNDTRIP
360
349A2
  0
DICTIONARY
  5
349B9
330
33232
100
AcDbDictionary
280
     1
281
     1
  3
ACAD_XREC_ROUNDTRIP
360
349BA
  0
DICTIONARY
  5
349C1
330
33236
100
AcDbDictionary
280
     1
281
     1
  3
ACAD_XREC_ROUNDTRIP
360
349C2
  0
XRECORD
  5
3498D
102
{ACAD_REACTORS
330
89C
102
}
330
89C
100
AcDbXrecord
280
     1
102
SHADEPLOT
 70
     0
102
SHADEPLOTRESLEVEL
 70
     2
102
SHADEPLOTCUSTOMDPI
 70
   300
  0
XRECORD
  5
89D
102
{ACAD_REACTORS
330
89C
102
}
330
89C
100
AcDbXrecord
280
     1
310
28000000B40000008B0000000100080000000000BC610000000000000000000000010000000000000000000000000000FFFFFF000000000000000000000000000000000000000000000000000000000000000000330000006600000099000000CC000000FF00000000330000333300006633000099330000CC330000FF3300
310
0000660000336600006666000099660000CC660000FF66000000990000339900006699000099990000CC990000FF99000000CC000033CC000066CC000099CC0000CCCC0000FFCC000000FF000033FF000066FF000099FF0000CCFF0000FFFF000000003300330033006600330099003300CC003300FF003300003333003333
310
33006633330099333300CC333300FF33330000663300336633006666330099663300CC663300FF66330000993300339933006699330099993300CC993300FF99330000CC330033CC330066CC330099CC3300CCCC3300FFCC330000FF330033FF330066FF330099FF3300CCFF3300FFFF330000006600330066006600660099
310
006600CC006600FF00660000336600333366006633660099336600CC336600FF33660000666600336666006666660099666600CC666600FF66660000996600339966006699660099996600CC996600FF99660000CC660033CC660066CC660099CC6600CCCC6600FFCC660000FF660033FF660066FF660099FF6600CCFF6600
310
FFFF660000009900330099006600990099009900CC009900FF00990000339900333399006633990099339900CC339900FF33990000669900336699006666990099669900CC669900FF66990000999900339999006699990099999900CC999900FF99990000CC990033CC990066CC990099CC9900CCCC9900FFCC990000FF99
310
0033FF990066FF990099FF9900CCFF9900FFFF99000000CC003300CC006600CC009900CC00CC00CC00FF00CC000033CC003333CC006633CC009933CC00CC33CC00FF33CC000066CC003366CC006666CC009966CC00CC66CC00FF66CC000099CC003399CC006699CC009999CC00CC99CC00FF99CC0000CCCC0033CCCC0066CC
310
CC0099CCCC00CCCCCC00FFCCCC0000FFCC0033FFCC0066FFCC0099FFCC00CCFFCC00FFFFCC000000FF003300FF006600FF009900FF00CC00FF00FF00FF000033FF003333FF006633FF009933FF00CC33FF00FF33FF000066FF003366FF006666FF009966FF00CC66FF00FF66FF000099FF003399FF006699FF009999FF00CC
310
99FF00FF99FF0000CCFF0033CCFF0066CCFF0099CCFF00CCCCFF00FFCCFF0000FFFF0033FFFF0066FFFF0099FFFF00CCFFFF00FFFFFF00000000000D0D0D001A1A1A00282828003535350043434300505050005D5D5D006B6B6B00787878008686860093939300A1A1A100AEAEAE00BBBBBB00C9C9C900D6D6D600E4E4E400
310
F1F1F100FFFFFF000000000000000000000000000000000000000000000000000000000000000000000000000000000000000000000000000000000000000000000000000000000000000000000000000000000000000000000000000000000000000000000000000000000000000000000000000000000000000000000000
310
00000000000000000000000000000000000000000000000000000000000000000000000000000000000000000000000000000000000000000000000000000000000000000000000000000000000000000000000000000000000000000000000000000000000000000000000000000000000000000000000000000000000000
310
00000000000000000000000000000000000000000000000000000000000000000000000000000000000000000000000000000000000000000000000000000000000000000000000000000000000000000000000000000000000000000000000000000000000000000000000000000000000000000000000000000000000000
310
00000000000000000000000000000000000000000000000000000000000000000000000000000000000000000000000000000000000000000000000000000000000000000000000000000000000000000000000000000000000000000000000000000000000000000000000000000000000000000000000000000000000000
310
00000000000000000000000000000000000000000000000000000000000000000000000000000000000000000000000000000000000000000000000000000000000000000000000000000000000000000000000000000000000000000000000000000000000000000000000000000000000000000000000000000000000000
310
00000000000000000000000000000000000000000000000000000000000000000000000000000000000000000000000000000000000000000000000000000000000000000000000000000000000000000000000000000000000000000000000000000000000000000000000000000000000000000000000000000000000000
310
00000000000000000000000000000000000000000000000000000000000000000000000000000000000000000000000000000000000000000000000000000000000000000000000000000000000000000000000000000000000000000000000000000000000000000000000000000000000000000000000000000000000000
310
00000000000000000000000000000000000000000000000000000000000000000000000000000000000000000000000000000000000000000000000000000000000000000000000000000000000000000000000000000000000000000000000000000000000000000000000000000000000000000000000000000000000000
310
00000000000000000000000000000000000000000000000000000000000000000000000000000000000000000000000000000000000000000000000000000000000000000000000000000000000000000000000000000000000000000000000000000000000000000000000000000000000000000000000000000000000000
310
00000000000000000000000000000000000000000000000000000000000000000000000000000000000000000000000000000000000000000000000000000000000000000000000000000000000000000000000000000000000000000000000000000000000000000000000000000000000000000000000000000000000000
310
00000000000000000000000000000000000000000000000000000000000000000000000000000000000000000000000000000000000000000000000000000000000000000000000000000000000000000000000000000000000000000000000000000000000000000000000000000000000000000000000000000000000000
310
00000000000000000000000000000000000000000000000000000000000000000000000000000000000000000000000000000000000000000000000000000000000000000000000000000000000000000000000000000000000000000000000000000000000000000000000000000000000000000000000000000000000000
310
00000000000000000000000000000000000000000000000000000000000000000000000000000000000000000000000000000000000000000000000000000000000000000000000000000000000000000000000000000000000000000000000000000000000000000000000000000000000000000000000000000000000000
310
00000000000000000000000000000000000000000000000000000000000000000000000000000000000000000000000000000000000000000000000000000000000000000000000000000000000000000000000000000000000000000000000000000000000000000000000000000000000000000000000000000000000000
310
00000000000000000000000000000000000000000000000000000000000000000000000000000000000000000000000000000000000000000000000000000000000000000000000000000000000000000000000000000000000000000000000000000000000000000000000000000000000000000000000000000000000000
310
00000000000000000000000000000000000000000000000000000000000000000000000000000000000000000000000000000000000000000000000000000000000000000000000000000000000000000000000000000000000000000000000000000000000000000000000000000000000000000000000000000000000000
310
00000000000000000000000000000000000000000000000000000000000000000000000000000000000000000000000000000000000000000000000000000000000000000000000000000000000000000000000000000000000000000000000000000000000000000000000000000000000000000000000000000000000000
310
00000000000000000000000000000000000000000000000000000000000000000000000000000000000000000000000000000000000000000000000000000000000000000000000000000000000000000000000000000000000000000000000000000000000000000000000000000000000000000000000000000000000000
310
00000000000000000000000000000000000000000000000000000000000000000000000000000000000000000000000000000000000000000000000000000000000000000000000000000000000000000000000000000000000000000000000000000000000000000000000000000000000000000000000000000000000000
310
00000000000000000000000000000000000000000000000000000000000000000000000000000000000000000000000000000000000000000000000000000000000000000000000000000000000000000000000000000000000000000000000000000000000000000000000000000000000000000000000000000000000000
310
00000000000000000000000000000000000000000000000000000000000000000000000000000000000000000000000000000000000000000000000000000000000000000000000000000000000000000000000000000000000000000000000000000000000000000000000000000000000000000000000000000000000000
310
00000000000000000000000000000000000000000000000000000000000000000000000000000000000000000000000000000000000000000000000000000000000000000000000000000000000000000000000000000000000000000000000000000000000000000000000000000000000000000000000000000000000000
310
00000000000000000000000000000000000000000000000000000000000000000000000000000000000000000000000000000000000000000000000000000000000000000000000000000000000000000000000000000000000000000000000000000000000000000000000000000000000000000000000000000000000000
310
00000000000000000000000000000000000000000000000000000000000000000000000000000000000000000000000000000000000000000000000000000000000000000000000000000000000000000000000000000000000000000000000000000000000000000000000000000000000000000000000000000000000000
310
00000000000000000000000000000000000000000000000000000000000000000000000000000000000000000000000000000000000000000000000000000000000000000000000000000000000000000000000000000000000000000000000000000000000000000000000000000000000000000000000000000000000000
310
00000000000000000000000000000000000000000000000000000000000000000000000000000000000000000000000000000000000000000000000000000000000000000000000000000000000000000000000000000000000000000000000000000000000000000000000000000000000000000000000000000000000000
310
00000000000000000000000000000000000000000000000000000000000000000000000000000000000000000000000000000000000000000000000000000000000000000000000000000000000000000000000000000000000000000000000000000000000000000000000000000000000000000000000000000000000000
310
00000000000000000000000000000000000000000000000000000000000000000000000000000000000000000000000000000000000000000000000000000000000000000000000000000000000000000000000000000000000000000000000000000000000000000000000000000000000000000000000000000000000000
310
00000000000000000000000000000000000000000000000000000000000000000000000000000000000000000000000000000000000000000000000000000000000000000000000000000000000000000000000000000000000000000000000000000000000000000000000000000000000000000000000000000000000000
310
00000000000000000000000000000000000000000000000000000000000000000000000000000000000000000000000000000000000000000000000000000000000000000000000000000000000000000000000000000000000000000000000000000000000000000000000000000000000000000000000000000000000000
310
00000000000000000000000000000000000000000000000000000000000000000000000000000000000000000000000000000000000000000000000000000000000000000000000000000000000000000000000000000000000000000000000000000000000000000000000000000000000000000000000000000000000000
310
00000000000000000000000000000000000000000000000000000000000000000000000000000000000000000000000000000000000000000000000000000000000000000000000000000000000000000000000000000000000000000000000000000000000000000000000000000000000000000000000000000000000000
310
00000000000000000000000000000000000000000000000000000000000000000000000000000000000000000000000000000000000000000000000000000000000000000000000000000000000000000000000000000000000000000000000000000000000000000000000000000000000000000000000000000000000000
310
00000000000000000000000000000000000000000000000000000000000000000000000000000000000000000000000000000000000000000000000000000000000000000000000000000000000000000000000000000000000000000000000000000000000000000000000000000000000000000000000000000000000000
310
00000000000000000000000000000000000000000000000000000000000000000000000000000000000000000000000000000000000000000000000000000000000000000000000000000000000000000000000000000000000000000000000000000000000000000000000000000000000000000000000000000000000000
310
00000000000000000000000000000000000000000000000000000000000000000000000000000000000000000000000000000000000000000000000000000000000000000000000000000000000000000000000000000000000000000000000000000000000000000000000000000000000000000000000000000000000000
310
00000000000000000000000000000000000000000000000000000000000000000000000000000000000000000000000000000000000000000000000000000000000000000000000000000000000000000000000000000000000000000000000000000000000000000000000000000000000000000000000000000000000000
310
00000000000000000000000000000000000000000000000000000000000000000000000000000000000000000000000000000000000000000000000000000000000000000000000000000000000000000000000000000000000000000000000000000000000000000000000000000000000000000000000000000000000000
310
00000000000000000000000000000000000000000000000000000000000000000000000000000000000000000000000000000000000000000000000000000000000000000000000000000000000000000000000000000000000000000000000000000000000000000000000000000000000000000000000000000000000000
310
00000000000000000000000000000000000000000000000000000000000000000000000000000000000000000000000000000000000000000000000000000000000000000000000000000000000000000000000000000000000000000000000000000000000000000000000000000000000000000000000000000000000000
310
00000000000000000000000000000000000000000000000000000000000000000000000000000000000000000000000000000000000000000000000000000000000000000000000000000000000000000000000000000000000000000000000000000000000000000000000000000000000000000000000000000000000000
310
00000000000000000000000000000000000000000000000000000000000000000000000000000000000000000000000000000000000000000000000000000000000000000000000000000000000000000000000000000000000000000000000000000000000000000000000000000000000000000000000000000000000000
310
00000000000000000000000000000000000000000000000000000000000000000000000000000000000000000000000000000000000000000000000000000000000000000000000000000000000000000000000000000000000000000000000000000000000000000000000000000000000000000000000000000000000000
310
00000000000000000000000000000000000000000000000000000000000000000000000000000000000000000000000000000000000000000000000000000000000000000000000000000000000000000000000000000000000000000000000000000000000000000000000000000000000000000000000000000000000000
310
00000000000000000000000000000000000000000000000000000000000000000000000000000000000000000000000000000000000000000000000000000000000000000000000000000000000000000000000000000000000000000000000000000000000000000000000000000000000000000000000000000000000000
310
00000000000000000000000000000000000000000000000000000000000000000000000000000000000000000000000000000000000000000000000000000000000000000000000000000000000000000000000000000000000000000000000000000000000000000000000000000000000000000000000000000000000000
310
00000000000000000000000000000000000000000000000000000000000000000000000000000000000000000000000000000000000000000000000000000000000000000000000000000000000000000000000000000000000000000000000000000000000000000000000000000000000000000000000000000000000000
310
00000000000000000000000000000000000000000000000000000000000000000000000000000000000000000000000000000000000000000000000000000000000000000000000000000000000000000000000000000000000000000000000000000000000000000000000000000000000000000000000000000000000000
310
00000000000000000000000000000000000000000000000000000000000000000000000000000000000000000000000000000000000000000000000000000000000000000000000000000000000000000000000000000000000000000000000000000000000000000000000000000000000000000000000000000000000000
310
00000000000000000000000000000000000000000000000000000000000000000000000000000000000000000000000000000000000000000000000000000000000000000000000000000000000000000000000000000000000000000000000000000000000000000000000000000000000000000000000000000000000000
310
00000000000000000000000000000000000000000000000000000000000000000000000000000000000000000000000000000000000000000000000000000000000000000000000000000000000000000000000000000000000000000000000000000000000000000000000000000000000000000000000000000000000000
310
00000000000000000000000000000000000000000000000000000000000000000000000000000000000000000000000000000000000000000000000000000000000000000000000000000000000000000000000000000000000000000000000000000000000000000000000000000000000000000000000000000000000000
310
00000000000000000000000000000000000000000000000000000000000000000000000000000000000000000000000000000000000000000000000000000000000000000000000000000000000000000000000000000000000000000000000000000000000000000000000000000000000000000000000000000000000000
310
00000000000000000000000000000000000000000000000000000000000000000000000000000000000000000000000000000000000000000000000000000000000000000000000000000000000000000000000000000000000000000000000000000000000000000000000000000000000000000000000000000000000000
310
00000000000000000000000000000000000000000000000000000000000000000000000000000000000000000000000000000000000000000000000000000000000000000000000000000000000000000000000000000000000000000000000000000000000000000000000000000000000000000000000000000000000000
310
00000000000000000000000000000000000000000000000000000000000000000000000000000000000000000000000000000000000000000000000000000000000000000000000000000000000000000000000000000000000000000000000000000000000000000000000000000000000000000000000000000000000000
310
00000000000000000000000000000000000000000000000000000000000000000000000000000000000000000000000000000000000000000000000000000000000000000000000000000000000000000000000000000000000000000000000000000000000000000000000000000000000000000000000000000000000000
310
00000000000000000000000000000000000000000000000000000000000000000000000000000000000000000000000000000000000000000000000000000000000000000000000000000000000000000000000000000000000000000000000000000000000000000000000000000000000000000000000000000000000000
310
00000000000000000000000000000000000000000000000000000000000000000000000000000000000000000000000000000000000000000000000000000000000000000000000000000000000000000000000000000000000000000000000000000000000000000000000000000000000000000000000000000000000000
310
00000000000000000000000000000000000000000000000000000000000000000000000000000000000000000000000000000000000000000000000000000000000000000000000000000000000000000000000000000000000000000000000000000000000000000000000000000000000000000000000000000000000000
310
00000000000000000000000000000000000000000000000000000000000000000000000000000000000000000000000000000000000000000000000000000000000000000000000000000000000000000000000000000000000000000000000000000000000000000000000000000000000000000000000000000000000000
310
00000000000000000000000000000000000000000000000000000000000000000000000000000000000000000000000000000000000000000000000000000000000000000000000000000000000000000000000000000000000000000000000000000000000000000000000000000000000000000000000000000000000000
310
00000000000000000000000000000000000000000000000000000000000000000000000000000000000000000000000000000000000000000000000000000000000000000000000000000000000000000000000000000000000000000000000000000000000000000000000000000000000000000000000000000000000000
310
00000000000000000000000000000000000000000000000000000000000000000000000000000000000000000000000000000000000000000000000000000000000000000000000000000000000000000000000000000000000000000000000000000000000000000000000000000000000000000000000000000000000000
310
00000000000000000000000000000000000000000000000000000000000000000000000000000000000000000000000000000000000000000000000000000000000000000000000000000000000000000000000000000000000000000000000000000000000000000000000000000000000000000000000000000000000000
310
00000000000000000000000000000000000000000000000000000000000000000000000000000000000000000000000000000000000000000000000000000000000000000000000000000000000000000000000000000000000000000000000000000000000000000000000000000000000000000000000000000000000000
310
00000000000000000000000000000000000000000000000000000000000000000000000000000000000000000000000000000000000000000000000000000000000000000000000000000000000000000000000000000000000000000000000000000000000000000000000000000000000000000000000000000000000000
310
00000000000000000000000000000000000000000000000000000000000000000000000000000000000000000000000000000000000000000000000000000000000000000000000000000000000000000000000000000000000000000000000000000000000000000000000000000000000000000000000000000000000000
310
00000000000000000000000000000000000000000000000000000000000000000000000000000000000000000000000000000000000000000000000000000000000000000000000000000000000000000000000000000000000000000000000000000000000000000000000000000000000000000000000000000000000000
310
00000000000000000000000000000000000000000000000000000000000000000000000000000000000000000000000000000000000000000000000000000000000000000000000000000000000000000000000000000000000000000000000000000000000000000000000000000000000000000000000000000000000000
310
00000000000000000000000000000000000000000000000000000000000000000000000000000000000000000000000000000000000000000000000000000000000000000000000000000000000000000000000000000000000000000000000000000000000000000000000000000000000000000000000000000000000000
310
00000000000000000000000000000000000000000000000000000000000000000000000000000000000000000000000000000000000000000000000000000000000000000000000000000000000000000000000000000000000000000000000000000000000000000000000000000000000000000000000000000000000000
310
00000000000000000000000000000000000000000000000000000000000000000000000000000000000000000000000000000000000000000000000000000000000000000000000000000000000000000000000000000000000000000000000000000000000000000000000000000000000000000000000000000000000000
310
00000000000000000000000000000000000000000000000000000000000000000000000000000000000000000000000000000000000000000000000000000000000000000000000000000000000000000000000000000000000000000000000000000000000000000000000000000000000000000000000000000000000000
310
00000000000000000000000000000000000000000000000000000000000000000000000000000000000000000000000000000000000000000000000000000000000000000000000000000000000000000000000000000000000000000000000000000000000000000000000000000000000000000000000000000000000000
310
00000000000000000000000000000000000000000000000000000000000000000000000000000000000000000000000000000000000000000000000000000000000000000000000000000000000000000000000000000000000000000000000000000000000000000000000000000000000000000000000000000000000000
310
00000000000000000000000000000000000000000000000000000000000000000000000000000000000000000000000000000000000000000000000000000000000000000000000000000000000000000000000000000000000000000000000000000000000000000000000000000000000000000000000000000000000000
310
00000000000000000000000000000000000000000000000000000000000000000000000000000000000000000000000000000000000000000000000000000000000000000000000000000000000000000000000000000000000000000000000000000000000000000000000000000000000000000000000000000000000000
310
00000000000000000000000000000000000000000000000000000000000000000000000000000000000000000000000000000000000000000000000000000000000000000000000000000000000000000000000000000000000000000000000000000000000000000000000000000000000000000000000000000000000000
310
00000000000000000000000000000000000000000000000000000000000000000000000000000000000000000000000000000000000000000000000000000000000000000000000000000000000000000000000000000000000000000000000000000000000000000000000000000000000000000000000000000000000000
310
00000000000000000000000000000000000000000000000000000000000000000000000000000000000000000000000000000000000000000000000000000000000000000000000000000000000000000000000000000000000000000000000000000000000000000000000000000000000000000000000000000000000000
310
00000000000000000000000000000000000000000000000000000000000000000000000000000000000000000000000000000000000000000000000000000000000000000000000000000000000000000000000000000000000000000000000000000000000000000000000000000000000000000000000000000000000000
310
00000000000000000000000000000000000000000000000000000000000000000000000000000000000000000000000000000000000000000000000000000000000000000000000000000000000000000000000000000000000000000000000000000000000000000000000000000000000000000000000000000000000000
310
00000000000000000000000000000000000000000000000000000000000000000000000000000000000000000000000000000000000000000000000000000000000000000000000000000000000000000000000000000000000000000000000000000000000000000000000000000000000000000000000000000000000000
310
00000000000000000000000000000000000000000000000000000000000000000000000000000000000000000000000000000000000000000000000000000000000000000000000000000000000000000000000000000000000000000000000000000000000000000000000000000000000000000000000000000000000000
310
00000000000000000000000000000000000000000000000000000000000000000000000000000000000000000000000000000000000000000000000000000000000000000000000000000000000000000000000000000000000000000000000000000000000000000000000000000000000000000000000000000000000000
310
00000000000000000000000000000000000000000000000000000000000000000000000000000000000000000000000000000000000000000000000000000000000000000000000000000000000000000000000000000000000000000000000000000000000000000000000000000000000000000000000000000000000000
310
00000000000000000000000000000000000000000000000000000000000000000000000000000000000000000000000000000000000000000000000000000000000000000000000000000000000000000000000000000000000000000000000000000000000000000000000000000000000000000000000000000000000000
310
00000000000000000000000000000000000000000000000000000000000000000000000000000000000000000000000000000000000000000000000000000000000000000000000000000000000000000000000000000000000000000000000000000000000000000000000000000000000000000000000000000000000000
310
00000000000000000000000000000000000000000000000000000000000000000000000000000000000000000000000000000000000000000000000000000000000000000000000000000000000000000000000000000000000000000000000000000000000000000000000000000000000000000000000000000000000000
310
00000000000000000000000000000000000000000000000000000000000000000000000000000000000000000000000000000000000000000000000000000000000000000000000000000000000000000000000000000000000000000000000000000000000000000000000000000000000000000000000000000000000000
310
00000000000000000000000000000000000000000000000000000000000000000000000000000000000000000000000000000000000000000000000000000000000000000000000000000000000000000000000000000000000000000000000000000000000000000000000000000000000000000000000000000000000000
310
00000000000000000000000000000000000000000000000000000000000000000000000000000000000000000000000000000000000000000000000000000000000000000000000000000000000000000000000000000000000000000000000000000000000000000000000000000000000000000000000000000000000000
310
00000000000000000000000000000000000000000000000000000000000000000000000000000000000000000000000000000000000000000000000000000000000000000000000000000000000000000000000000000000000000000000000000000000000000000000000000000000000000000000000000000000000000
310
00000000000000000000000000000000000000000000000000000000000000000000000000000000000000000000000000000000000000000000000000000000000000000000000000000000000000000000000000000000000000000000000000000000000000000000000000000000000000000000000000000000000000
310
00000000000000000000000000000000000000000000000000000000000000000000000000000000000000000000000000000000000000000000000000000000000000000000000000000000000000000000000000000000000000000000000000000000000000000000000000000000000000000000000000000000000000
310
00000000000000000000000000000000000000000000000000000000000000000000000000000000000000000000000000000000000000000000000000000000000000000000000000000000000000000000000000000000000000000000000000000000000000000000000000000000000000000000000000000000000000
310
00000000000000000000000000000000000000000000000000000000000000000000000000000000000000000000000000000000000000000000000000000000000000000000000000000000000000000000000000000000000000000000000000000000000000000000000000000000000000000000000000000000000000
310
00000000000000000000000000000000000000000000000000000000000000000000000000000000000000000000000000000000000000000000000000000000000000000000000000000000000000000000000000000000000000000000000000000000000000000000000000000000000000000000000000000000000000
310
00000000000000000000000000000000000000000000000000000000000000000000000000000000000000000000000000000000000000000000000000000000000000000000000000000000000000000000000000000000000000000000000000000000000000000000000000000000000000000000000000000000000000
310
00000000000000000000000000000000000000000000000000000000000000000000000000000000000000000000000000000000000000000000000000000000000000000000000000000000000000000000000000000000000000000000000000000000000000000000000000000000000000000000000000000000000000
310
00000000000000000000000000000000000000000000000000000000000000000000000000000000000000000000000000000000000000000000000000000000000000000000000000000000000000000000000000000000000000000000000000000000000000000000000000000000000000000000000000000000000000
310
00000000000000000000000000000000000000000000000000000000000000000000000000000000000000000000000000000000000000000000000000000000000000000000000000000000000000000000000000000000000000000000000000000000000000000000000000000000000000000000000000000000000000
310
00000000000000000000000000000000000000000000000000000000000000000000000000000000000000000000000000000000000000000000000000000000000000000000000000000000000000000000000000000000000000000000000000000000000000000000000000000000000000000000000000000000000000
310
00000000000000000000000000000000000000000000000000000000000000000000000000000000000000000000000000000000000000000000000000000000000000000000000000000000000000000000000000000000000000000000000000000000000000000000000000000000000000000000000000000000000000
310
00000000000000000000000000000000000000000000000000000000000000000000000000000000000000000000000000000000000000000000000000000000000000000000000000000000000000000000000000000000000000000000000000000000000000000000000000000000000000000000000000000000000000
310
00000000000000000000000000000000000000000000000000000000000000000000000000000000000000000000000000000000000000000000000000000000000000000000000000000000000000000000000000000000000000000000000000000000000000000000000000000000000000000000000000000000000000
310
00000000000000000000000000000000000000000000000000000000000000000000000000000000000000000000000000000000000000000000000000000000000000000000000000000000000000000000000000000000000000000000000000000000000000000000000000000000000000000000000000000000000000
310
00000000000000000000000000000000000000000000000000000000000000000000000000000000000000000000000000000000000000000000000000000000000000000000000000000000000000000000000000000000000000000000000000000000000000000000000000000000000000000000000000000000000000
310
00000000000000000000000000000000000000000000000000000000000000000000000000000000000000000000000000000000000000000000000000000000000000000000000000000000000000000000000000000000000000000000000000000000000000000000000000000000000000000000000000000000000000
310
00000000000000000000000000000000000000000000000000000000000000000000000000000000000000000000000000000000000000000000000000000000000000000000000000000000000000000000000000000000000000000000000000000000000000000000000000000000000000000000000000000000000000
310
00000000000000000000000000000000000000000000000000000000000000000000000000000000000000000000000000000000000000000000000000000000000000000000000000000000000000000000000000000000000000000000000000000000000000000000000000000000000000000000000000000000000000
310
00000000000000000000000000000000000000000000000000000000000000000000000000000000000000000000000000000000000000000000000000000000000000000000000000000000000000000000000000000000000000000000000000000000000000000000000000000000000000000000000000000000000000
310
00000000000000000000000000000000000000000000000000000000000000000000000000000000000000000000000000000000000000000000000000000000000000000000000000000000000000000000000000000000000000000000000000000000000000000000000000000000000000000000000000000000000000
310
00000000000000000000000000000000000000000000000000000000000000000000000000000000000000000000000000000000000000000000000000000000000000000000000000000000000000000000000000000000000000000000000000000000000000000000000000000000000000000000000000000000000000
310
00000000000000000000000000000000000000000000000000000000000000000000000000000000000000000000000000000000000000000000000000000000000000000000000000000000000000000000000000000000000000000000000000000000000000000000000000000000000000000000000000000000000000
310
00000000000000000000000000000000000000000000000000000000000000000000000000000000000000000000000000000000000000000000000000000000000000000000000000000000000000000000000000000000000000000000000000000000000000000000000000000000000000000000000000000000000000
310
00000000000000000000000000000000000000000000000000000000000000000000000000000000000000000000000000000000000000000000000000000000000000000000000000000000000000000000000000000000000000000000000000000000000000000000000000000000000000000000000000000000000000
310
00000000000000000000000000000000000000000000000000000000000000000000000000000000000000000000000000000000000000000000000000000000000000000000000000000000000000000000000000000000000000000000000000000000000000000000000000000000000000000000000000000000000000
310
00000000000000000000000000000000000000000000000000000000000000000000000000000000000000000000000000000000000000000000000000000000000000000000000000000000000000000000000000000000000000000000000000000000000000000000000000000000000000000000000000000000000000
310
00000000000000000000000000000000000000000000000000000000000000000000000000000000000000000000000000000000000000000000000000000000000000000000000000000000000000000000000000000000000000000000000000000000000000000000000000000000000000000000000000000000000000
310
00000000000000000000000000000000000000000000000000000000000000000000000000000000000000000000000000000000000000000000000000000000000000000000000000000000000000000000000000000000000000000000000000000000000000000000000000000000000000000000000000000000000000
310
00000000000000000000000000000000000000000000000000000000000000000000000000000000000000000000000000000000000000000000000000000000000000000000000000000000000000000000000000000000000000000000000000000000000000000000000000000000000000000000000000000000000000
310
00000000000000000000000000000000000000000000000000000000000000000000000000000000000000000000000000000000000000000000000000000000000000000000000000000000000000000000000000000000000000000000000000000000000000000000000000000000000000000000000000000000000000
310
00000000000000000000000000000000000000000000000000000000000000000000000000000000000000000000000000000000000000000000000000000000000000000000000000000000000000000000000000000000000000000000000000000000000000000000000000000000000000000000000000000000000000
310
00000000000000000000000000000000000000000000000000000000000000000000000000000000000000000000000000000000000000000000000000000000000000000000000000000000000000000000000000000000000000000000000000000000000000000000000000000000000000000000000000000000000000
310
00000000000000000000000000000000000000000000000000000000000000000000000000000000000000000000000000000000000000000000000000000000000000000000000000000000000000000000000000000000000000000000000000000000000000000000000000000000000000000000000000000000000000
310
00000000000000000000000000000000000000000000000000000000000000000000000000000000000000000000000000000000000000000000000000000000000000000000000000000000000000000000000000000000000000000000000000000000000000000000000000000000000000000000000000000000000000
310
00000000000000000000000000000000000000000000000000000000000000000000000000000000000000000000000000000000000000000000000000000000000000000000000000000000000000000000000000000000000000000000000000000000000000000000000000000000000000000000000000000000000000
310
00000000000000000000000000000000000000000000000000000000000000000000000000000000000000000000000000000000000000000000000000000000000000000000000000000000000000000000000000000000000000000000000000000000000000000000000000000000000000000000000000000000000000
310
00000000000000000000000000000000000000000000000000000000000000000000000000000000000000000000000000000000000000000000000000000000000000000000000000000000000000000000000000000000000000000000000000000000000000000000000000000000000000000000000000000000000000
310
00000000000000000000000000000000000000000000000000000000000000000000000000000000000000000000000000000000000000000000000000000000000000000000000000000000000000000000000000000000000000000000000000000000000000000000000000000000000000000000000000000000000000
310
00000000000000000000000000000000000000000000000000000000000000000000000000000000000000000000000000000000000000000000000000000000000000000000000000000000000000000000000000000000000000000000000000000000000000000000000000000000000000000000000000000000000000
310
00000000000000000000000000000000000000000000000000000000000000000000000000000000000000000000000000000000000000000000000000000000000000000000000000000000000000000000000000000000000000000000000000000000000000000000000000000000000000000000000000000000000000
310
00000000000000000000000000000000000000000000000000000000000000000000000000000000000000000000000000000000000000000000000000000000000000000000000000000000000000000000000000000000000000000000000000000000000000000000000000000000000000000000000000000000000000
310
00000000000000000000000000000000000000000000000000000000000000000000000000000000000000000000000000000000000000000000000000000000000000000000000000000000000000000000000000000000000000000000000000000000000000000000000000000000000000000000000000000000000000
310
00000000000000000000000000000000000000000000000000000000000000000000000000000000000000000000000000000000000000000000000000000000000000000000000000000000000000000000000000000000000000000000000000000000000000000000000000000000000000000000000000000000000000
310
00000000000000000000000000000000000000000000000000000000000000000000000000000000000000000000000000000000000000000000000000000000000000000000000000000000000000000000000000000000000000000000000000000000000000000000000000000000000000000000000000000000000000
310
00000000000000000000000000000000000000000000000000000000000000000000000000000000000000000000000000000000000000000000000000000000000000000000000000000000000000000000000000000000000000000000000000000000000000000000000000000000000000000000000000000000000000
310
00000000000000000000000000000000000000000000000000000000000000000000000000000000000000000000000000000000000000000000000000000000000000000000000000000000000000000000000000000000000000000000000000000000000000000000000000000000000000000000000000000000000000
310
00000000000000000000000000000000000000000000000000000000000000000000000000000000000000000000000000000000000000000000000000000000000000000000000000000000000000000000000000000000000000000000000000000000000000000000000000000000000000000000000000000000000000
310
00000000000000000000000000000000000000000000000000000000000000000000000000000000000000000000000000000000000000000000000000000000000000000000000000000000000000000000000000000000000000000000000000000000000000000000000000000000000000000000000000000000000000
310
00000000000000000000000000000000000000000000000000000000000000000000000000000000000000000000000000000000000000000000000000000000000000000000000000000000000000000000000000000000000000000000000000000000000000000000000000000000000000000000000000000000000000
310
00000000000000000000000000000000000000000000000000000000000000000000000000000000000000000000000000000000000000000000000000000000000000000000000000000000000000000000000000000000000000000000000000000000000000000000000000000000000000000000000000000000000000
310
00000000000000000000000000000000000000000000000000000000000000000000000000000000000000000000000000000000000000000000000000000000000000000000000000000000000000000000000000000000000000000000000000000000000000000000000000000000000000000000000000000000000000
310
00000000000000000000000000000000000000000000000000000000000000000000000000000000000000000000000000000000000000000000000000000000000000000000000000000000000000000000000000000000000000000000000000000000000000000000000000000000000000000000000000000000000000
310
00000000000000000000000000000000000000000000000000000000000000000000000000000000000000000000000000000000000000000000000000000000000000000000000000000000000000000000000000000000000000000000000000000000000000000000000000000000000000000000000000000000000000
310
00000000000000000000000000000000000000000000000000000000000000000000000000000000000000000000000000000000000000000000000000000000000000000000000000000000000000000000000000000000000000000000000000000000000000000000000000000000000000000000000000000000000000
310
00000000000000000000000000000000000000000000000000000000000000000000000000000000000000000000000000000000000000000000000000000000000000000000000000000000000000000000000000000000000000000000000000000000000000000000000000000000000000000000000000000000000000
310
00000000000000000000000000000000000000000000000000000000000000000000000000000000000000000000000000000000000000000000000000000000000000000000000000000000000000000000000000000000000000000000000000000000000000000000000000000000000000000000000000000000000000
310
00000000000000000000000000000000000000000000000000000000000000000000000000000000000000000000000000000000000000000000000000000000000000000000000000000000000000000000000000000000000000000000000000000000000000000000000000000000000000000000000000000000000000
310
00000000000000000000000000000000000000000000000000000000000000000000000000000000000000000000000000000000000000000000000000000000000000000000000000000000000000000000000000000000000000000000000000000000000000000000000000000000000000000000000000000000000000
310
00000000000000000000000000000000000000000000000000000000000000000000000000000000000000000000000000000000000000000000000000000000000000000000000000000000000000000000000000000000000000000000000000000000000000000000000000000000000000000000000000000000000000
310
00000000000000000000000000000000000000000000000000000000000000000000000000000000000000000000000000000000000000000000000000000000000000000000000000000000000000000000000000000000000000000000000000000000000000000000000000000000000000000000000000000000000000
310
00000000000000000000000000000000000000000000000000000000000000000000000000000000000000000000000000000000000000000000000000000000000000000000000000000000000000000000000000000000000000000000000000000000000000000000000000000000000000000000000000000000000000
310
00000000000000000000000000000000000000000000000000000000000000000000000000000000000000000000000000000000000000000000000000000000000000000000000000000000000000000000000000000000000000000000000000000000000000000000000000000000000000000000000000000000000000
310
00000000000000000000000000000000000000000000000000000000000000000000000000000000000000000000000000000000000000000000000000000000000000000000000000000000000000000000000000000000000000000000000000000000000000000000000000000000000000000000000000000000000000
310
00000000000000000000000000000000000000000000000000000000000000000000000000000000000000000000000000000000000000000000000000000000000000000000000000000000000000000000000000000000000000000000000000000000000000000000000000000000000000000000000000000000000000
310
00000000000000000000000000000000000000000000000000000000000000000000000000000000000000000000000000000000000000000000000000000000000000000000000000000000000000000000000000000000000000000000000000000000000000000000000000000000000000000000000000000000000000
310
00000000000000000000000000000000000000000000000000000000000000000000000000000000000000000000000000000000000000000000000000000000000000000000000000000000000000000000000000000000000000000000000000000000000000000000000000000000000000000000000000000000000000
310
00000000000000000000000000000000000000000000000000000000000000000000000000000000000000000000000000000000000000000000000000000000000000000000000000000000000000000000000000000000000000000000000000000000000000000000000000000000000000000000000000000000000000
310
00000000000000000000000000000000000000000000000000000000000000000000000000000000000000000000000000000000000000000000000000000000000000000000000000000000000000000000000000000000000000000000000000000000000000000000000000000000000000000000000000000000000000
310
00000000000000000000000000000000000000000000000000000000000000000000000000000000000000000000000000000000000000000000000000000000000000000000000000000000000000000000000000000000000000000000000000000000000000000000000000000000000000000000000000000000000000
310
00000000000000000000000000000000000000000000000000000000000000000000000000000000000000000000000000000000000000000000000000000000000000000000000000000000000000000000000000000000000000000000000000000000000000000000000000000000000000000000000000000000000000
310
00000000000000000000000000000000000000000000000000000000000000000000000000000000000000000000000000000000000000000000000000000000000000000000000000000000000000000000000000000000000000000000000000000000000000000000000000000000000000000000000000000000000000
310
00000000000000000000000000000000000000000000000000000000000000000000000000000000000000000000000000000000000000000000000000000000000000000000000000000000000000000000000000000000000000000000000000000000000000000000000000000000000000000000000000000000000000
310
00000000000000000000000000000000000000000000000000000000000000000000000000000000000000000000000000000000000000000000000000000000000000000000000000000000000000000000000000000000000000000000000000000000000000000000000000000000000000000000000000000000000000
310
00000000000000000000000000000000000000000000000000000000000000000000000000000000000000000000000000000000000000000000000000000000000000000000000000000000000000000000000000000000000000000000000000000000000000000000000000000000000000000000000000000000000000
310
00000000000000000000000000000000000000000000000000000000000000000000000000000000000000000000000000000000000000000000000000000000000000000000000000000000000000000000000000000000000000000000000000000000000000000000000000000000000000000000000000000000000000
310
00000000000000000000000000000000000000000000000000000000000000000000000000000000000000000000000000000000000000000000000000000000000000000000000000000000000000000000000000000000000000000000000000000000000000000000000000000000000000000000000000000000000000
310
00000000000000000000000000000000000000000000000000000000000000000000000000000000000000000000000000000000000000000000000000000000000000000000000000000000000000000000000000000000000000000000000000000000000000000000000000000000000000000000000000000000000000
310
00000000000000000000000000000000000000000000000000000000000000000000000000000000000000000000000000000000000000000000000000000000000000000000000000000000000000000000000000000000000000000000000000000000000000000000000000000000000000000000000000000000000000
310
00000000000000000000000000000000000000000000000000000000000000000000000000000000000000000000000000000000000000000000000000000000000000000000000000000000000000000000000000000000000000000000000000000000000000000000000000000000000000000000000000000000000000
310
00000000000000000000000000000000000000000000000000000000000000000000000000000000000000000000000000000000000000000000000000000000000000000000000000000000000000000000000000000000000000000000000000000000000000000000000000000000000000000000000000000000000000
310
00000000000000000000000000000000000000000000000000000000000000000000000000000000000000000000000000000000000000000000000000000000000000000000000000000000000000000000000000000000000000000000000000000000000000000000000000000000000000000000000000000000000000
310
00000000000000000000000000000000000000000000000000000000000000000000000000000000000000000000000000000000000000000000000000000000000000000000000000000000000000000000000000000000000000000000000000000000000000000000000000000000000000000000000000000000000000
310
00000000000000000000000000000000000000000000000000000000000000000000000000000000000000000000000000000000000000000000000000000000000000000000000000000000000000000000000000000000000000000000000000000000000000000000000000000000000000000000000000000000000000
310
00000000000000000000000000000000000000000000000000000000000000000000000000000000000000000000000000000000000000000000000000000000000000000000000000000000000000000000000000000000000000000000000000000000000000000000000000000000000000000000000000000000000000
310
00000000000000000000000000000000000000000000000000000000000000000000000000000000000000000000000000000000000000000000000000000000000000000000000000000000000000000000000000000000000000000000000000000000000000000000000000000000000000000000000000000000000000
310
00000000000000000000000000000000000000000000000000000000000000000000000000000000000000000000000000000000000000000000000000000000000000000000000000000000000000000000000000000000000000000000000000000000000000000000000000000000000000000000000000000000000000
310
00000000000000000000000000000000000000000000000000000000000000000000000000000000000000000000000000000000000000000000000000000000000000000000000000000000000000000000000000000000000000000000000000000000000000000000000000000000000000000000000000000000000000
310
00000000000000000000000000000000000000000000000000000000000000000000000000000000000000000000000000000000000000000000000000000000000000000000000000000000000000000000000000000000000000000000000000000000000000000000000000000000000000000000000000000000000000
310
00000000000000000000000000000000000000000000000000000000000000000000000000000000000000000000000000000000000000000000000000000000000000000000000000000000000000000000000000000000000000000000000000000000000000000000000000000000000000000000000000000000000000
310
00000000000000000000000000000000000000000000000000000000000000000000000000000000000000000000000000000000000000000000000000000000000000000000000000000000000000000000000000000000000000000000000000000000000000000000000000000000000000000000000000000000000000
310
00000000000000000000000000000000000000000000000000000000000000000000000000000000000000000000000000000000000000000000000000000000000000000000000000000000000000000000000000000000000000000000000000000000000000000000000000000000000000000000000000000000000000
310
00000000000000000000000000000000000000000000000000000000000000000000000000000000000000000000000000000000000000000000000000000000000000000000000000000000000000000000000000000000000000000000000000000000000000000000000000000000000000000000000000000000000000
310
00000000000000000000000000000000000000000000000000000000000000000000000000000000000000000000000000000000000000000000000000000000000000000000000000000000000000000000000000000000000000000000000000000000000000000000000000000000000000000000000000000000000000
310
00000000000000000000000000000000000000000000000000000000000000000000000000000000000000000000000000000000000000000000000000000000000000000000000000000000000000000000000000000000000000000000000000000000000000000000000000000000000000000000000000000000000000
310
00000000000000000000000000000000000000000000000000000000000000000000000000000000000000000000000000000000000000000000000000000000000000000000000000000000000000000000000000000000000000000000000000000000000000000000000000000000000000000000000000000000000000
310
00000000000000000000000000000000000000000000000000000000000000000000000000000000000000000000000000000000000000000000000000000000000000000000000000000000000000000000000000000000000000000000000000000000000000000000000000000000000000000000000000000000000000
310
00000000000000000000000000000000000000000000000000000000000000000000000000000000000000000000000000000000000000000000000000000000000000000000000000000000000000000000000000000000000000000000000000000000000000000000000000000000000000000000000000000000000000
310
00000000000000000000000000000000000000000000000000000000000000000000000000000000000000000000000000000000000000000000000000000000000000000000000000000000000000000000000000000000000000000000000000000000000000000000000000000000000000000000000000000000000000
310
00000000000000000000000000000000000000000000000000000000000000000000000000000000000000000000000000000000000000000000000000000000000000000000000000000000000000000000000000000000000000000000000000000000000000000000000000000000000000000000000000000000000000
310
00000000000000000000000000000000000000000000000000000000000000000000000000000000000000000000000000000000000000000000000000000000000000000000000000000000000000000000000000000000000000000000000000000000000000000000000000000000000000000000000000000000000000
310
00000000000000000000000000000000000000000000000000000000000000000000000000000000000000000000000000000000000000000000000000000000000000000000000000000000000000000000000000000000000000000000000000000000000000000000000000000000000000000000000000000000000000
310
00000000000000000000000000000000000000000000000000000000000000000000000000000000000000000000000000000000000000000000000000000000000000000000000000000000000000000000000000000000000000000000000000000000000000000000000000000000000000000000000000000000000000
310
00000000000000000000000000000000000000000000000000000000000000000000000000000000000000000000000000000000000000000000000000000000000000000000000000000000000000000000000000000000000000000000000000000000000000000000000000000000000000000000000000000000000000
310
00000000000000000000000000000000000000000000000000000000000000000000000000000000000000000000000000
  0
XRECORD
  5
3498C
102
{ACAD_REACTORS
330
34923
102
}
330
34923
100
AcDbXrecord
280
     1
102
SHADEPLOT
 70
     0
102
SHADEPLOTRESLEVEL
 70
     2
102
SHADEPLOTCUSTOMDPI
 70
   300
  0
XRECORD
  5
34924
102
{ACAD_REACTORS
330
34923
102
}
330
34923
100
AcDbXrecord
280
     1
310
280000000001000063000000010008000000000000630000000000000000000000010000000000000000000000000000FFFFFF000000000000000000000000000000000000000000000000000000000000000000330000006600000099000000CC000000FF00000000330000333300006633000099330000CC330000FF3300
310
0000660000336600006666000099660000CC660000FF66000000990000339900006699000099990000CC990000FF99000000CC000033CC000066CC000099CC0000CCCC0000FFCC000000FF000033FF000066FF000099FF0000CCFF0000FFFF000000003300330033006600330099003300CC003300FF003300003333003333
310
33006633330099333300CC333300FF33330000663300336633006666330099663300CC663300FF66330000993300339933006699330099993300CC993300FF99330000CC330033CC330066CC330099CC3300CCCC3300FFCC330000FF330033FF330066FF330099FF3300CCFF3300FFFF330000006600330066006600660099
310
006600CC006600FF00660000336600333366006633660099336600CC336600FF33660000666600336666006666660099666600CC666600FF66660000996600339966006699660099996600CC996600FF99660000CC660033CC660066CC660099CC6600CCCC6600FFCC660000FF660033FF660066FF660099FF6600CCFF6600
310
FFFF660000009900330099006600990099009900CC009900FF00990000339900333399006633990099339900CC339900FF33990000669900336699006666990099669900CC669900FF66990000999900339999006699990099999900CC999900FF99990000CC990033CC990066CC990099CC9900CCCC9900FFCC990000FF99
310
0033FF990066FF990099FF9900CCFF9900FFFF99000000CC003300CC006600CC009900CC00CC00CC00FF00CC000033CC003333CC006633CC009933CC00CC33CC00FF33CC000066CC003366CC006666CC009966CC00CC66CC00FF66CC000099CC003399CC006699CC009999CC00CC99CC00FF99CC0000CCCC0033CCCC0066CC
310
CC0099CCCC00CCCCCC00FFCCCC0000FFCC0033FFCC0066FFCC0099FFCC00CCFFCC00FFFFCC000000FF003300FF006600FF009900FF00CC00FF00FF00FF000033FF003333FF006633FF009933FF00CC33FF00FF33FF000066FF003366FF006666FF009966FF00CC66FF00FF66FF000099FF003399FF006699FF009999FF00CC
310
99FF00FF99FF0000CCFF0033CCFF0066CCFF0099CCFF00CCCCFF00FFCCFF0000FFFF0033FFFF0066FFFF0099FFFF00CCFFFF00FFFFFF00000000000D0D0D001A1A1A00282828003535350043434300505050005D5D5D006B6B6B00787878008686860093939300A1A1A100AEAEAE00BBBBBB00C9C9C900D6D6D600E4E4E400
310
F1F1F100FFFFFF000000000000000000000000000000000000000000000000000000000000000000000000000000000000000000000000000000000000000000000000000000000000000000000000000000000000000000000000000000000000000000000000000000000000000000000000000000000000000000000000
310
00000000000000000000000000000000000000000000000000000000000000000000000000000000000000000000000000000000000000000000000000000000000000000000000000000000000000000000000000000000000000000000000000000000000000000000000000000000000000000000000000000000000000
310
00000000000000000000000000000000000000000000000000000000000000000000000000000000000000000000000000000000000000000000000000000000000000000000000000000000000000000000000000000000000000000000000000000000000000000000000000000000000000000000000000000000000000
310
00000000000000000000000000000000000000000000000000000000000000000000000000000000000000000000000000000000000000000000000000000000000000000000000000000000000000000000000000000000000000000000000000000000000000000000000000000000000000000000000000000000000000
310
00000000000000000000000000000000000000000000000000000000000000000000000000000000000000000000000000000000000000000000000000000000000000000000000000000000000000000000000000000000000000000000000000000000000000000000000000000000000000000000000000000000000000
310
00000000000000000000000000000000000000000000000000000000000000000000000000000000000000000000000000000000000000000000000000000000000000000000000000000000000000000000000000000000000000000000000000000000000000000000000000000000000000000000000000000000000000
310
00000000000000000000000000000000000000000000000000000000000000000000000000000000000000000000000000000000000000000000000000000000000000000000000000000000000000000000000000000000000000000000000000000000000000000000000000000000000000000000000000000000000000
310
00000000000000000000000000000000000000000000000000000000000000000000000000000000000000000000000000000000000000000000000000000000000000000000000000000000000000000000000000000000000000000000000000000000000000000000000000000000000000000000000000000000000000
310
00000000000000000000000000000000000000000000000000000000000000000000000000000000000000000000000000000000000000000000000000000000000000000000000000000000000000000000000000000000000000000000000000000000000000000000000000000000000000000000000000000000000000
310
00000000000000000000000000000000000000000000000000000000000000000000000000000000000000000000000000000000000000000000000000000000000000000000000000000000000000000000000000000000000000000000000000000000000000000000000000000000000000000000000000000000000000
310
00000000000000000000000000000000000000000000000000000000000000000000000000000000000000000000000000000000000000000000000000000000000000000000000000000000000000000000000000000028000000000000000000000000000000000000000000000000000000000000000000000000000000
310
00000000000000000000000000000000000000000000000000000000000000000000000000000000000000000000000000000000000000000000000000000000000000000000000000000000000000000000000000000000000000000000000000000000000000000000000000000000000000000000000000000000000000
310
00000000000000000000000000000000000000000000000000000000000000000000000000000000000000000000000000000000000000000000000000000000000000000000000000000000000000000000000000000000000028DC0000000000000000000000000000000000000000000000000000000000000000000000
310
000000000000000000000000000000000000000000000000000000000000000000000000000000000000000000000000000000000000000000000000000000000000ECECECECECECECECECECECECECECECECECECEC000000000000000000000000000000000000000000000000000000000000000000000000000000000000
310
000000000000000000000000000000000000000000000000000000000000000000000000000000000000000000000000000000000000000000000000000000000000000000000000000000000000000000000000000000000000000000DC282800000000000000000000000000000000000000000000000000000000000000
310
0000000000000000000000000000000000000000000000000000000000000000000000000000000000000000000000000000000000000000000000000000000000000000ECECECECECECECECECECECECECECECECECECEC00000000000000000000000000000000000000000000000000000000000000000000000000000000
310
00000000000000000000000000000000000000000000000000000000000000000000000000000000000000000000000000000000000000000000000000000000000000000000000000000000000000000000000000000000000000000000DCDC0000280000BEBE0000000000000000000000000000BEBEBEBEBEBEBEBEBEBE
310
BEBEBEBEBEBEBEBEBEBEBEBEBE000000000000000000000000000000000000000000000000000000000000000000000000000000000000000000000000000000000000000000000000000000000000000000000000000000000000000000000000000000000000000000000000000000000000000000000000000000000000
310
00000000000000000000000000000000000000000000000000000000000000000000000000000000000000000000000000000000000000000000000000000000000000000000000000000000000000000000000000000000000000000000000000DC000000BEBEBEBEBEBE000000000000000000BEBE00BEBEBEBEBEBEBEBE
310
BEBEBEBEBEBEBEBEBEBEBEBEBEBEBE00000000000000000000000000000000000000000000000000000000000000000000000000000000000000000000000000000000000000000000000000000000000000000000000000000000000000000000000000000000000000000000000000000000000000000000000000000000
310
000000000000000000000000000000000000000000000000000000000000000000000000000000000000000000000000000000000000000000000000000000000000000000000000000000000000000000000000000000000000000000000000000000DC000000BE00BEBEBE00BEBE000000000000BE000000BEBEBEBEBEBE
310
BEBEBEBEBEBEBEBEBEBEBEBEBEBEBEBEBE0000000000000000000000000000000000000000000000000000000000000000000000000000000000000000000000000000000000000000000000000000000000000000000000000000000000000000000000000000000000000000000000000000000000000000000000000000
310
0000000000000000000000000000000000000000000000000000000000000000000000000000000000000000000000000000000000000000000000000000000000000000000000000000000000000000000000000000000000000000000000000000000000DC000000BE00BEBEBEBEBE00BEBE00000000BE00000000000000
310
00000000000000000000000000000000000000000000000000000000000000000000000000000000000000000000000000000000000000000000000000000000000000000000000000000000000000000000000000000000000000000000000000000000000000000000000000000000000000000000000000000000000000
310
00000000000000000000000000000000000000000000000000000000000000000000000000000000000000000000000000000000000000000000000000000000000000000000000000000000000000000000000000000000000000000000000000000000000000DC000000BE00BEBEBEBEBEBEBEBEBE0000BE000000000000
310
00000000000000000000000000000000000000000000000000000000000000000000000000000000000000000000000000000000000000000000000000000000000000000000000000000000000000000000000000000000000000000000000000000000000000000000000000000000000000000000000000000000000000
310
000000000000000000000000000000000000000000000000000000000000000000000000000000000000000000000000000000000000000000000000000000000000000000000000000000000000000000000000000000000000000000000000000000000000000000DC000000BE00BEBEBEBEBEBEBEBE00BEBE0000000000
310
00000000000000000000000000000000000000000000000000000000000000000000000000000000000000000000000000000000000000000000000000000000000000000000000000000000000000000000000000000000000000000000000000000000000000000000000000000000000000000000000000000000000000
310
0000000000000000000000000000000000000000000000000000000000000000000000000000000000000000000000000000000000000000000000000000000000000000000000000000000000000000000000000000000000000000000000000000000000000000000000DC000000BE00BEBE00BEBEBEBEBEBEBEBEBEBE00
310
0000000000000000000000BEBEBEBEBEBEBEBEBEBEBEBEBEBEBE0000000000000000000000000000000000000000000000000000000000000000000000000000000000000000000000282828282828282828282828282828282828000000000000000000000000000000000000000000000000000000000000000000000000
310
00000000000000000000000000000000000000000000000000000000000000000000000000000000000000000000000000000000000000000000000000000000000000000000000000000000000000000000000000000000000000000000000000000000000000000000000000DC000000BE00BEBE000000BEBEBEBEBEBEBE
310
00BE0000000000000000BEBEBEBEBEBEBEBEBEBEBEBEBEBEBEBEBEBE000000000000000000000000000000000000000000000000000000000000000000000000000000000000000000000028282828282828282828282828282828280000000000000000000000000000000000000000000000000000000000000000000000
310
000000000000000000000000000000000000000000000000000000000000000000000000000000000000000000000000000000000000000000000000000000000000000000000000000000000000000000000000000000000000000000000000000000000000000000000000000000DC000000BE00BEBE0000000000BEBEBE
310
BEBEBE00BEBE0000000000BE00000000000000000000000000000000000000000000000000000000000000000000000000000000000000000000000000000000000000000000000000000000002828282828282828282828282828282828000000000000000000000000000000000000000000000000000000000000000000
310
0000000000000000000000000000000000000000000000000000000000000000000000000000000000000000000000000000000000000000000000000000000000000000000000000000000000000000000000000000000000000000000000000000000000000000000000000000000000DC000000BE00BEBE000000000000
310
00BEBEBEBEBEBE00BEBE0000BEBE0000000000000000000000000000000000000000000000000000000000000000000000000000000000000000000000000000000000000000000000000000000000000000000000000000000000000000000000000000000000000000000000000000000000000000000000000000000000
310
00000000000000000000000000000000000000000000000000000000000000000000000000000000000000000000000000000000000000000000000000000000000000000000000000000000000000000000000000000000000000000000000000000000000000000000000000000000000000DC000000BE00BEBE00000000
310
0000000000BEBEBEBEBEBE00BEBEBE00000000000000000000000000000000000000000000000000000000000000000000000000000000000000000000000000000000000000000000000000000000000000000000000000000000000000000000000000000000000000000000000000000000000000000000000000000000
310
000000000000000000000000000000000000000000000000000000000000000000000000000000000000000000000000000000000000000000000000000000000000000000000000000000000000000000000000000000000000000000000000000000000000000000000000000000000000000000DC000000BE00BEBE0000
310
000000000000000000BEBEBEBEBEBEBEBE0000000000000000000000000000000000000000000000000000000000000000000000000000000000000000000000000000000000000000000000000000000000000000000000000000000000000000000000000000000000000000000000000000000000000000000000000000
310
0000000000000000000000000000000000000000000000000000000000000000000000000000000000000000000000000000000000000000000000000000000000000000000000000000000000000000000000000000000000000000000000000000000000000000000000000000000000000000000000DC000000BE00BEBE
310
000000000000000000000000BEBEBEBEBEBE00BEBE00000000000000000000000000000000000000000000000000000000000000000000000000000000000000000000000000000000000000000000000000000000000000000000000000000000000000000000000000000000000000000000000000000000000000000000
310
00000000000000000000000000000000000000000000000000000000000000000000000000000000000000000000000000000000000000000000000000000000000000000000000000000000000000000000000000000000000000000000000000000000000000000000000000000000000000000000000000DC000000BE00
310
BEBE0000000000000000000000000000BEBEBEBEBEBE00BEBE000000000000000000000000000000000000000000000000000000000000000000000000000000000000000000000000000000000000000000000000000000000000000000000000000000000000000000000000000000000000000000000000000000000000
310
000000000000000000000000000000000000000000000000000000000000000000000000000000000000000000000000000000000000000000000000000000000000000000000000000000000000000000000000000000000000000000000000000000000000000000000000000000000000000000000000000000DC000000
310
BE00BEBE00000000000000000000000000000000BEBEBEBEBEBE00BEBE0000000000000000000000000000000000000000000000000000000000000000000000000000000000000000000000000000000000000000000000000000000000000000000000000000000000000000000000BEBEBEBEBE00000000000000000000
310
0000000000000000000000000000000000000000000000000000000000000000000000000000000000000000000000000000000000000000000000000000000000000000000000000000000000000000000000000000000000000000000000000000000000000000000000000000000000000000000000000000000000DC00
310
0000BE00BEBE0000000000000000000000000000000000BEBEBEBEBEBEBEBE0000000000000000000000000000000000000000000000000000000000000000000000000000000000000000000000000000000000000000000000000000000000000000000000000000000000000000000000BEBEBEBEBE0000000000000000
310
00000000000000000000000000000000000000000000000000000000000000000000000000000000000000000000000000000000000000000000000000000000000000000000000000000000000000000000000000000000000000000000000000000000000000000000000000000000000000000000000000000000000000
310
DC000000BE00BEBE00000000000000000000000000000000000000BEBEBEBEBEBE0000000000000000000000000000000000000000000000000000000000000000000000000000000000000000000000000000000000000000000000000000BEBEBEBEBEBEBEBEBEBEBEBEBEBE00000000000000BE00BE00BE000000000000
310
00000000000000000000000000000000000000000000000000000000000000000000000000000000000000000000000000000000000000000000000000000000000000000000000000000000000000000000000000000000000000000000000000000000000000000000000000000000000000000000000000000000000000
310
0000DC000000BE00BEBE000000000000000000000000000000000000000000BEBEBEBE0000000000000000000000000000000000000000000000000000000000000000000000000000000000000000000000000000000000000000000000000000BEBEBEBEBEBEBEBEBEBEBEBEBEBE00000000000000BEBEBE00BE00000000
310
00000000000000000000000000000000000000000000000000000000000000000000000000000000000000000000000000000000000000000000000000000000000000000000000000000000000000000000000000000000000000000000000000000000000000000000000000000000000000000000000000000000000000
310
00000000DC000000BE00BEBE00000000000000000000000000000000000000000000BEBEBE0000000000000000000000000000000000000000000000000000000000000000000000000000000000000000000000000000000000000000000000000000BEBEBEBEBEBEBEBEBEBEBEBEBEBE00000000000000BE00BE00BE0000
310
00000000000000000000000000000000000000000000000000000000000000000000000000000000000000000000000000000000000000000000000000000000000000000000000000000000000000000000000000000000000000000000000000000000000000000000000000000000000000000000000000000000000000
310
000000000000DC000000BE00BEBE00000000000000000000000000000000000000000000BEBEBE000000000000000000000000000000000000000000000000000000000000000000000000000000000000000000000000000000000000000000000000000000000000000000BEBEBEBEBEBEBE00000000000000BEBEBEBEBE
310
00000000000000000000000000000000000000000000000000000000000000000000000000000000000000000000000000000000000000000000000000000000000000000000000000000000000000000000000000000000000000000000000000000000000000000000000000000000000000000000000000000000000000
310
0000000000000000DC000000BE00BEBE00000000000000000000000000000000000000000000BEBEBE000000000000000000000000000000000000000000000000000000000000000000000000000000000000000000000000000000000000000000000000000000000000000000BEBEBEBEBEBEBE000000000000002D00BE
310
BEBE0000000000000000000000000000000000000000000000000000000000000000000000000000000000000000000000000000000000000000000000000000000000000000000000000000000000000000000000000000000000000000000000000000000000000000000000000000000000000000000000000000000000
310
00000000000000000000DC000000BE00BEBE00000000000000000000000000000000000000000000BEBEBE000000000000000000000000000000000000000000000000000000000000000000000000000000000000000000000000000000000000000000000000000000000000000000BEBEBEBEBEBEBE0000BEBE0000002D
310
BEBEBEBE000000000000000000000000000000000000000000000000000000000000000000000000000000000000000000000000000000000000000000000000000000000000000000000000000000000000000000000000000000000000000000000000000000000000000000000000000000000000000000000000000000
310
00000000000000000000000000000000BE00BEBE00000000000000000000000000000000000000000000BEBEBE0000000000000000000000000000000000000000000000000000000000000000000000000000000000000000000000000000000000000000000000000000000000000000000000000000000000000000BE00
310
002DBEBEBEBE00000000000000000000000000000000000000000000000000000000000000000000000000000000000000000000000000000000000000000000000000000000000000000000000000000000000000000000000000000000000000000000000000000000000000000000000000000000000000000000000000
310
000000000000000000000000BEBEBE000000BE00BEBE00000000000000000000000000000000000000000000BEBEBE00000000BEBEBEBEBEBEBEBEBEBEBEBEBEBEBEBEBEBE00000000000000000000000000000000000000000000000000000000000000000000000000000000000000000000000000000000000000000000
310
00BEBE2DBEBEBEBE0000000000000000000000000000000000000000000000000000000000000000000000000000000000000000000000000000000000000000000000000000000000000000000000000000000000000000000000000000000000000000000000000000000000000000000000000000000000000000000000
310
0000000000000000000000000000BEBEBE000000BE00BEBE00000000000000000000000000000000000000000000BEBEBE00000000BEBEBEBEBEBEBEBEBEBEBEBEBEBEBEBEBEBE0000000000000000000000000000000000000000000000000000000000000000000000000000000000000000000000000000000000000000
310
00000000BEBEBEBEBEBEBE0000000000000000000000000000000000000000000000000000000000000000000000000000000000000000000000000000000000000000000000000000000000000000000000000000000000000000000000000000000000000000000000000000000000000000000000000000000000000000
310
00000000000000000000000000000000BEBEBE000000BE00BEBE00000000000000000000000000000000000000000000BEBEBE00000000BEBEBEBEBEBEBEBEBEBEBEBEBEBEBEBEBEBE000000000000000000000000000000000000000000000000000000000000000000000000000000000000000000000000000000000000
310
0000000000002DBEBEBEBEBEBE000000000000000000000000000000000000000000000000000000000000000000000000000000000000000000000000000000000000000000000000000000000000000000000000000000000000000000000000000000000000000000000000000000000000000000000000000000000000
310
000000000000000000000000000000000000BEBEBE000000BE00BEBE00000000000000000000000000000000000000000000BEBEBE0000000000000000000000000000000000000000000000000000000000000000000000000000000000000000000000000000000000000000BEBEBEBEBEBEBEBEBEBEBEBEBEBEBEBEBEBE
310
BE00000000000000002DBEBEBEBE0000000000000000000000000000000000000000000000000000000000000000000000000000000000000000000000000000000000000000000000000000000000000000000000000000000000000000000000000000000000000000000000000000000000000000000000000000000000
310
0000000000000000000000000000000000000000BEBEBE000000BE00BEBE00000000000000000000000000000000000000000000BEBEBE00000000BEBEBEBEBEBEBEBEBEBEBEBEBEBEBE00000000000000000000000000000000000000000000000000000000000000000000000000BEBEBEBEBEBEBEBEBEBEBEBEBEBEBEBE
310
BEBEBE00000000000000002DBEBE00BE000000000000000000000000000000000000000000000000000000000000000000000000000000000000000000000000000000000000000000000000000000000000000000000000000000000000000000000000000000000000000000000000000000000000000000000000000000
310
00000000000000000000000000000000000000000000BEBEBE000000BE00BEBE00000000000000000000000000000000000000000000BEBEBE00BEBEBEBEBEBEBEBEBEBEBEBEBEBEBEBEBEBE00000000000000000000000000000000000000000000000000000000000000000000000000BEBEBEBEBEBEBEBEBEBEBEBEBEBE
310
BEBEBEBEBE0000BEBEBE00002D2DBEBE00BE00000000000000000000000000000000000000000000000000000000000000000000000000000000000000000000000000000000000000000000000000000000000000000000000000000000000000000000000000000000000000000000000000000000000000000000000000
310
000000000000000000000000000000000000000000000000BEBEBE000000BE00BEBE00000000000000000000000000000000000000000000BEBEBEBE00000000000000000000000000000000000000000000000000000000000000000000000000000000000000000000000000000000000000000000000000000000000000
310
000000000000000000000000BE002DBE00BE00BE0000000000000000000000000000000000000000000000000000000000000000000000000000000000000000000000000000000000000000000000000000000000000000000000000000000000000000000000000000000000000000000000000000000000000000000000
310
0000000000000000000000000000000000000000000000000000BEBEBE000000BE00BEBE00000000000000000000000000000000000000000000BEBEBE000000000000000000000000000000000000000000000000000000000000000000000000000000000000000000000000000000000000000000000000000000000000
310
0000000000000000000000000000BEBE2DBEBEBEBEBE000000000000000000000000000000000000000000000000000000000000000000000000000000000000000000000000000000000000000000000000000000000000000000000000000000000000000000000000000000000000000000000000000000000000000000
310
00000000000000000000000000000000000000000000000000000000BEBEBE000000BE00BEBEBEBE0000000000000000000000000000000000000000BEBEBE00000000000000000000000000000000000000000000000000000000000000000000000000000000000000000000000000000000000000000000000000000000
310
0000000000000000000000000000000000BE2DBEBEBEBEBE00000000000000000000000000000000000000000000000000000000000000000000000000000000000000000000000000000000000000000000000000000000000000000000000000000000000000000000000000000000000000000000000000000000000000
310
000000000000000000000000000000000000000000000000000000000000BEBEBE000000BE00BEBE0000BEBE000000000000000000000000000000000000BEBEBE0000000000000000000000000000000000000000000000000000000000000000000000000000000000000000000000000000000000000000000000000000
310
00000000000000000000000000000000000000002DBEBEBEBEBE0000000000000000000000000000000000000000000000000000000000000000000000000000000000000000000000000000000000000000000000000000000000000000000000000000000000000000000000000000000000000000000000000000000000
310
0000000000000000000000000000000000000000000000000000000000000000000000000000BE00BEBEBEBE0000BEBE00000000000000000000000000000000BEBEBE000000000000000000000000000000000000000000000000000000000000000000000000000000000000000000000000000000000000000000000000
310
000000000000000000000000000000000000000000002DBEBEBEBEBE000000000000000000000000000000000000000000000000000000000000000000000000000000000000000000000000000000000000000000000000000000000000000000000000000000000000000000000000000000000000000000000000000000
310
000000000000000000000000000000000000000000000000000000000000000000000000DC000000BE00BEBEBEBEBEBE0000BEBE00000000000000000000000000BEBEBEBE00000000000000000000000000000000000000000000000000000000000000000000000000000000000000000000000000000000000000000000
310
0000000000000000000000000000000000000000000000002DBE00BEBEBE00000000000000000000000000000000000000000000000000000000000000000000000000000000000000000000000000000000000000000000000000000000000000000000000000000000000000000000000000000000000000000000000000
310
0000000000000000000000000000000000000000000000000000000000000000000000000000DC000000BE00BEBEBEBEBEBEBEBE0000BEBE00000000000000000000BE00BEBEBE0000000000000000000000000000000000000000000000000000000000000000000000000000000000000000000000000000000000000000
310
00000000000000000000000000000000000000000000000000002DBEBEBEBEBE0000000000000000000000000000000000000000000000000000000000000000000000000000000000000000000000000000000000000000000000000000000000000000000000000000000000000000000000000000000000000000000000
310
00000000000000000000000000000000000000000000000000000000000000000000000000000000DC000000BE00BEBE0000BEBEBEBEBEBE0000BE000000000000000000BE00BEBEBE000000000000000000000000000000000000000000000000000000000000000000000000000000000000000000000000000000000000
310
00000000000000EF000000000000000000000000000000000000000000BEBE00BEBE000000000000000000000000000000000000000000000000000000000000000000000000000000000000000000000000000000000000000000000000000000000000000000000000000000000000000000000000000000000000000000
310
000000000000000000000000000000000000000000000000000000000000000000000000000000000000DC000000BE00BEBE00000000BEBEBEBEBEBE00BEBE000000000000BE0000BEBEBE00000000000000000000000000000000000000000000000000000000000000000000000000000000000000000000000000000000
310
EFB8EFEFEFEFEFEFEFEFEFEFEFEFEFEFB8EF000000000000000000000000BEBEBEBEBEBE00000000000000000000000000000000000000000000000000000000000000000000000000000000000000000000000000000000000000000000000000000000000000000000000000000000000000000000000000000000000000
310
0000000000000000000000000000000000000000000000000000000000000000000000000000000000000000DC000000BE00BEBE000000000000BEBEBEBEBE0000BEBE000000BE000000BEBEBE0000000000000000000000000000000000000000000000000000000000000000000000000000000000000000000000000000
310
000000B8000000000000EF00000000000000B8000000000000000000000000BE00BEBEBEBEBE0000000000000000000000000000000000000000000000000000000000000000000000000000000000000000000000000000000000000000000000000000000000000000000000000000000000000000000000000000000000
310
00000000000000000000000000000000000000000000000000000000000000000000000000000000000000000000DC000000BE00BEBE00000000000000BEBEBEBEBEBE0000BEBE00BEBE0000BEBEBE000000000000000000000000000000000000000000000000000000000000000000000000000000000000000000000000
310
0000000000B80000000000000000000000000000B80000BEBEBEBEBEBEBEBEBEBE0000BEBE00BEBE000000000000000000000000000000000000000000000000000000000000000000000000000000000000000000000000000000000000000000000000000000000000000000000000000000000000000000000000000000
310
000000000000000000000000000000000000000000000000000000000000000000000000000000000000000000000000DC000000BE00BEBE000000000000000000BEBEBEBEBEBE0000BEBE000000BEBEBE00000000000000000000000000000000000000000000000000000000000000000000000000000000000000000000
310
00000000000000B80000000000000000000000000000B800BE000000000000000000000000BEBE00BEBE00000000000000000000000000000000000000000000000000000000000000000000000000000000000000000000000000000000000000000000000000000000000000000000000000000000000000000000000000
310
0000000000000000000000000000000000000000000000000000000000000000000000000000000000000000000000000000DC000000BE00BEBE0000000000000000000000BEBEBEBEBEBE0000BEBE00BEBEBE0000000000000000000000000000000000000000000000000000000000000000000000000000000000000000
310
000000000000000000B80000000000000000000000000000B800BE000000000000000000000000BEBEBE00BE0000000000000000000000000000000000000000000000000000000000000000000000000000000000000000000000000000000000000000000000000000000000000000000000000000000000000000000000
310
00000000000000000000000000000000000000000000000000000000000000000000000000000000000000000000000000000000DC000000BE00BEBE00000000000000000000000000BEBEBEBEBEBE0000BEBEBEBE000000000000000000000000000000000000000000000000000000000000000000000000000000000000
310
0000000000000000000000B80000000000000000000000000000B8BE00000000000000000000000000BEBE00BEBE000000000000000000000000000000000000000000000000000000000000000000000000000000000000000000000000000000000000000000000000000000000000000000000000000000000000000000
310
000000000000000000000000000000000000000000000000000000000000000000000000000000000000000000000000000000000000DC000000BE00BEBE000000000000000000000000000000BEBEBEBEBEBE0000BEBE000000000000000000000000000000000000000000000000000000000000000000000000000000BE
310
BEBEBEBEBEBE00000000000000B80000000000000000000000000000B82D00000000000000000000000000BEBEBEBEBE00000000000000000000000000000000000000000000000000000000000000000000000000000000000000000000000000000000000000000000000000000000000000000000000000000000000000
310
0000000000000000000000000000000000000000000000000000000000000000000000000000000000000000000000000000000000000000DC000000BE00BEBE00000000000000000000000000000000BEBEBEBEBEBEBEBEBE0000000000000000000000000000000000000000000000000000000000000000000000000000
310
00BEBEBEBEBEBEBE0000000000BEBEB80000000000000000000000000000B82D00000000000000000000000000BEBEBEBEBE0000000000000000000000000000000000000000000000000000000000000000000000000000000000000000000000000000000000000000000000000000000000000000000000000000000000
310
00000000000000000000000000000000000000000000000000000000000000000000000000000000000000000000000000000000000000000000DC000000BE00BEBE000000000000000000000000000000000000BEBEBEBEBEBEBE000000000000000000000000000000000000000000000000000000000000000000000000
310
000000BEBEBEBEBEBEBE0000000000BEBEB80000000000000000000000000000B82D00000000000000000000000000BEBEBEBEBE000000000000000000000000000000000000000000000000000000000000000000000000000000000000000000000000000000000000000000000000000000000000000000000000000000
310
000000000000000000000000000000000000000000000000000000000000000000000000000000000000000000000000000000000000000000000000DC000000BE00BEBE0000000000000000000000000000000000000000BEBEBEBEBE00000000000000000000000000000000000000000000000000000000000000000000
310
000000BEBEBEBEBEBEBEBEBE0000000000BE00B80000000000000000000000000000B82D00000000000000000000000000BE00BEBEBE00000000000000000000000000000000000000000000000000000000000000000000000000000000000000000000000000000000000000000000000000000000000000000000000000
310
0000000000000000000000000000000000000000000000000000000000000000000000000000000000000000000000000000000000000000000000000000DC000000BE00BEBE00000000000000000000000000000000000000000000BEBEBE0000000000000000000000000000000000000000000000000000000000000000
310
0000000000BEBEBEBEBEBEBEBEBE00000000BE0000B80000000000000000000000000000B82D00000000000000000000000000BEBEBEBEBE0000000000000000000000000000000000000000000000000000000000000000000000000000000000000000000000000000000000000000000000000000000000000000000000
310
00000000000000000000000000000000000000000000000000000000000000000000000000000000000000000000000000000000000000000000000000000000DC000000BE00BEBE00000000000000000000000000000000000000000000BEBEBE000000000000000000000000000000000000000000000000000000000000
310
00000000000000BEBEBEBEBEBEBEBEBE00BEBEBE000000B80000000000000000000000000000B82DBEBE0000000000000000000000BEBEBEBEBE000000000000000000000000000000000000000000000000000000000000000000000000000000000000000000000000000000000000000000000000000000000000000000
310
000000000000000000000000000000000000000000000000000000000000000000000000000000000000000000000000000000000000000000000000000000000000DC000000BE00BEBE00000000000000000000000000000000000000000000BEBEBE00000000000000000000000000000000000000000000000000000000
310
00000000000000000000000000000000000000000000000000B80000000000000000000000000000B82D0000BE00000000000000000000BEBEBE00BE00000000000000000000000000000000000000000000000000000000000000000000000000000000000000000000000000000000000000000000000000000000000000
310
0000000000000000000000000000000000000000000000000000000000000000000000000000000000000000000000000000000000000000000000000000000000000000DC000000BE00BEBE00000000000000000000000000000000000000000000BEBEBE0000000000000000000000000000000000000000000000000000
310
0000000000000000000000000000000000000000000000000000002D2D0000000000000000000000002D2D2D000000BE000000000000000000BEBEBEBEBE0000000000000000000000000000000000000000000000000000000000000000000000000000000000000000000000000000000000000000000000000000000000
310
00000000000000000000000000000000000000000000000000000000000000000000000000000000000000000000000000000000000000000000000000000000000000000000DC000000BE00BEBE00000000000000000000000000000000000000000000BEBEBE000000000000000000000000000000000000000000000000
310
00000000000000000000000000000000000000000000000000000000002D2D0000000000000000000000002D2D2D000000BE00000000BEBEBEBEBEBEBEBEBEBEBEBEBEBEBEBEBEBE00000000000000000000000000000000000000000000000000000000000000000000000000000000000000000000000000000000000000
310
000000000000000000000000000000000000000000000000000000000000000000000000000000000000000000000000000000000000000000000000000000000000000000000000DC000000BE00BEBE00000000000000000000000000000000000000000000BEBEBE00000000000000000000000000000000000000000000
310
000000000000000000000000000000000000000000000000000000000000002D2D0000000000000000000000002D2D2D00000000BE000000BEBEBEBEBEBEBEBEBEBEBEBEBEBEBEBEBEBE0000000000000000000000000000000000000000000000000000000000000000000000000000000000000000000000000000000000
310
0000000000000000000000000000000000000000000000000000000000000000000000000000000000000000000000000000000000000000000000000000000000000000000000000000DC000000BE00BEBE00000000000000000000000000000000000000000000BEBEBE0000000000000000000000000000000000000000
310
0000000000000000000000000000000000000000000000000000000000000000002D2D0000000000000000000000002D2D2D0000000000BEBEBEBEBEBEBEBEBEBEBEBEBEBEBEBEBEBEBEBEBE000000000000000000000000000000000000000000000000000000000000000000000000000000000000000000000000000000
310
00000000000000000000000000000000000000000000000000000000000000000000000000000000000000000000000000000000000000000000000000000000000000000000000000000000DC000000BE00BEBE00000000000000000000000000000000000000000000BEBEBE000000000000000000000000000000000000
310
000000000000000000000000000000000000000000000000BEBEBEBEBE000000000000BEBEBE00000000000000000000BEBE2DBE00000000000000000000000000BE0000BEBE000000000000000000000000000000000000000000000000000000000000000000000000000000000000000000000000000000000000000000
310
0000000000000000000000000000000000000000000000000000000000000000000000000000000000000000000000000000000000000000000000000000000000000000000000000000000000DCDC000000BE00BEBE0000000000000000BEBEBE0000000000000000000000BEBEBE00000000000000000000000000000000
310
0000000000000000000000000000000000000000000000000000BEBEBEBEBE000000000000BEBEBE00000000000000000000BEBE2DBE00000000000000000000000000BEBE00BEBE00000000000000000000000000000000000000000000000000000000000000000000000000000000000000000000000000000000000000
310
0000000000000000000000000000000000000000000000000000000000000000000000000000000000000000000000000000000000000000000000000000000000000000000000000000000000002800DC000000BE00BEBE0000000000000000BEBEBE0000000000000000000000BEBEBE0000000000000000000000000000
310
00000000000000000000000000000000000000000000000000000000BEBEBEBEBE00000000BEBEBEBEBE00000000000000000000BEBE2DBE00000000000000000000000000BEBEBEBEBE0000000000000000000000000000000000000000000000000000000000000000000000000000000000000000000000000000000000
310
00000000000000000000000000000000000000000000000000000000000000000000000000000000000000000000000000000000000000000000000000000000000000000000000000000000000000000028DC000000BE00BEBEBE00000000000000BEBEBE0000000000000000000000BEBEBE000000000000000000000000
310
000000000000000000000000000000000000000000000000000000BEBEBEBEBEBEBE0000000000BE002D2D2D2D2D2D2D2D2D2D2D2D2D2D2D2D2D00000000000000000000000000BEBEBEBEBE000000000000000000000000000000000000000000000000000000000000000000000000000000000000000000000000000000
310
00000000000000000000000000000000000000000000000000000000000000000000000000000000000000000000000000000000000000000000000000000000000000000000000000000000000000000000000000282800BE00BEBEBEBEBE0000000000BEBEBE0000000000000000000000BEBEBE00000000000000000000
310
0000000000000000000000000000000000000000000000000000000000BEBEBEBEBEBEBE00000000BE00002D2D2D2D2D2D2D2D2D2D2D2D2D2D2D2D0000000000000000000000000000BE00BE00BE00000000000000000000000000000000000000000000000000000000000000000000000000000000000000000000000000
310
000000000000000000000000000000000000000000000000000000000000000000000000000000000000000000000000000000000000000000000000000000000000000000000000000000000000000000000000000000000028BEBE00BEBEBEBEBEBE00000000EFEF0000000000000000000000BEBEBE0000000000000000
310
00000000000000000000000000000000000000000000000000000000000000BEBEBEBEBEBEBE0000BEBEBE00000000000000000000BE000000000000000000000000000000000000000000BEBEBEBEBE0000000000000000000000000000000000000000000000000000000000000000000000000000000000000000000000
310
0000000000000000000000000000000000000000000000000000000000000000000000000000000000000000000000000000000000000000000000000000000000000000000000000000000000000000000000000000000000000000BE00000000BEBEBEBEBE000000EFEFEF00000000000000000000BEBEBE000000000000
310
00000000000000000000000000000000000000000000000000000000000000000000000000000000000000000000000000000000000000BE000000000000000000000000000000000000000000BE00BEBEBE000000000000000000000000000000000000000000000000000000000000000000000000000000000000000000
310
0000000000000000000000000000000000000000000000000000000000000000000000000000000000000000000000000000000000000000000000000000000000000000000000000000000000000000000000000000000000000000000028BEBE00000000BEBEBEBEBE00EF0000EF000000000000000000BEBEBE00000000
310
00000000000000000000000000000000000000000000000000000000000000000000000000000000000000000000000000000000000000000000BE0000000000000000000000000000000000000000BE00BEBEBE00000000000000000000000000000000000000000000000000000000000000000000000000000000000000
310
000000000000000000000000000000000000000000000000000000000000000000000000000000000000000000000000000000000000000000000000000000000000000000000000000000000000000000000000000000000000000000000000280000BEBE000000BEBEBEBEBEBE000000000000000000000000BEBEBE0000
310
000000000000000000000000000000000000000000000000000000000000000000000000000000000000000000000000000000000000000000000000BE0000BEBEBEBEBEBEBEBEBEBEBEBEBEBEBE000000BEBEBEBEBE0000000000000000000000000000000000000000000000000000000000000000000000000000000000
310
00000000000000000000000000000000000000000000000000000000000000000000000000000000000000000000000000000000000000000000000000000000000000000000000000000000000000000000000000000000000000000000000000002800000000BEBE000000BEBEBEBEBE0000000000000000000000BEBEBE
310
0000000000000000000000000000000000000000000000000000000000000000000000000000000000000000000000000000000000000000000000000000BEBEBEBEBEBEBEBEBEBEBEBEBEBEBEBEBEBE000000BEBEBEBEBE000000000000000000000000000000000000000000000000000000000000000000000000000000
310
0000000000000000000000000000000000000000000000000000000000000000000000000000000000000000000000000000000000000000000000000000000000000000000000000000000000000000000000000000000000000000000000000000000028000000000000BEBE00BE00BEBEBEBEBE000000000000000000BE
310
BEBE0000000000000000000000000000000000000000000000000000000000000000000000000000000000000000000000000000000000000000000000000000000000BEBEBEBEBEBEBEBEBEBEBEBEBEBEBE000000000000000000000000000000000000000000000000000000000000000000000000000000000000000000
310
000000000000000000000000000000000000000000000000000000000000000000000000000000000000000000000000000000000000000000000000000000000000000000000000000000000000000000000000000000000000000000000000000000000000280000000000000000BEBE0000EFBEBEBEBEBE000000000000
310
00BEBEBEBE0000000000000000000000000000000000000000000000000000000000000000000000000000000000000000000000000000000000000000000000000000000000000000000000000000000000000000000000000000000000000000000000000000000000000000000000000000000000000000000000000000
310
0000000000000000000000000000000000000000000000000000000000000000000000000000000000000000000000000000000000000000000000000000000000000000000000000000000000000000000000000000000000000000000000000000000000000000280000000000000000BEBEBEBEEF00BEBEBEBEBEBE0000
310
000000BEBEBE00BE0000000000000000000000000000000000000000000000000000000000000000000000000000000000000000000000000000000000000000000000000000000000000000000000000000000000000000000000000000000000000000000000000000000000000000000000000000000000000000000000
310
000000000000000000000000000000000000000000000000000000000000000000000000000000000000000000000000000000000000000000000000000000000000000000000000000000000000000000000000000000000000000000000000000000000000000000002800000000000000BE000000BEBE000000BEBEBEBE
310
BE00000000BEBEBE00BE000000000000000000000000000000000000000000000000000000000000000000000000000000000000000000000000000000000000000000000000000000000000000000000000000000000000000000000000000000000000000000000000000000000000000000000000000000000000000000
310
000000000000000000000000000000000000000000000000000000000000000000000000000000000000000000000000000000000000000000000000000000000000000000000000000000000000000000000000000000000000000000000000000000000000000000000000DCDCDC0000000000BE00000000EFBEBE000000
310
BEBEBEBEBE0000BEBEBE0000BE000000000000000000000000000000000000000000000000000000000000000000000000000000000000000000000000000000000000000000000000000000000000000000000000000000000000000000000000000000000000000000000000000000000000000000000000000000000000
310
000000000000000000000000000000000000000000000000000000000000000000000000000000000000000000000000000000000000000000000000000000000000000000000000000000000000000000000000000000000000000000000000000000000000000000000000000028DC0000000000BE00000000BEBEBE00BE
310
BE0000BEBEBEBEBEBEBEBEBE0000BE00000000000000BEBEBEBEBEBEBEBEBEBEBEBEBEBEBEBEBEBEBEBEBEBEBEBEBEBEBEBEBEBEBEBEBEBE0000000000000000000000000000000000000000000000000000000000000000000000000000000000000000000000000000000000000000000000000000000000000000000000
310
000000000000000000000000000000000000000000000000000000000000000000000000000000000000000000000000000000000000000000000000000000000000000000000000000000000000000000000000000000000000000000000000000000000000000000000000000000002800DCDC000000BE00000000BEBEBE
310
EF00BEBEBE0000BEBEBEBEBEBEBE000000BE000000000000BEBEBEBEBEBEBEBEBEBEBEBEBEBEBEBEBEBEBEBEBEBEBEBEBEBEBEBEBEBEBEBEBEBE000000000000000000000000000000000000000000000000000000000000000000000000000000000000000000000000000000000000000000000000000000000000000000
310
00000000000000000000000000000000000000000000000000000000000000000000000000000000000000000000000000000000000000000000000000000000000000000000000000000000000000000000000000000000000000000000000000000000000000000000000000000000000000000000DCDCBE0000000000BE
310
BEBE00EF0000BEBEBE0000BEBEBEBEBE000000BE000000000000BEBEBEBEBEBEBEBEBEBEBEBEBEBEBEBEBEBEBEBEBEBEBEBEBEBEBEBEBEBEBEBEBEBE00000000000000000000000000000000000000000000000000000000000000000000000000000000000000000000000000000000000000000000000000000000000000
310
00000000000000000000000000000000000000000000000000000000000000000000000000000000000000000000000000000000000000000000000000000000000000000000000000000000000000000000000000000000000000000000000000000000000000000000000000000000000000000000000000BEDCDC000000
310
00000000000000000000BEBEBE0000BEBEBE00000000BE0000000000BEBEBEBEBEBEBEBEBEBEBEBEBEBEBEBEBEBEBEBEBEBEBEBEBEBEBEBEBEBEBEBEBEBEBEBEBEBE00000000000000000000000000000000000000000000000000000000000000000000000000000000000000000000000000000000000000000000000000
310
0000000000000000000000000000000000000000000000000000000000000000000000000000000000000000000000000000000000000000000000000000000000000000000000000000000000000000000000000000000000000000000000000000000000000000BEBEBEBEBEBEBEBEBEBEBEBEBEBEBE00000000BE0000DC
310
DC00000000000000000000000000BEBEBE0000BE0000000000BE00000000BEBEBEBEBEBEBEBEBEBEBEBEBEBEBEBEBEBEBEBEBEBEBEBEBEBEBEBEBEBEBEBEBEBEBEBEBEBE0000000000000000000000000000000000000000000000000000000000000000000000000000000000000000000000000000000000000000000000
310
00000000000000000000000000000000000000000000000000000000000000000000000000000000000000000000000000000000000000000000000000000000000000000000000000000000000000000000000000000000000000000000000000000000000000000000BEBEBEBEBEBEBEBEBEBEBEBEBEBEBE00BEBEBE0000
310
0000BEBEBEBEBEBEBEBE0000000000000000BEBEBE000000000000BE00000000BEBEBEBEBEBEBEBEBEBEBEBEBEBEBEBEBEBEBEBEBEBEBEBEBEBEBEBEBEBEBEBEBEBEBEBEBEBE000000000000000000000000000000000000000000000000000000000000000000000000000000000000000000000000000000000000000000
310
00000000000000000000000000000000000000000000000000000000000000000000000000000000000000000000000000000000000000000000000000000000000000000000000000000000000000000000000000000000000000000000000000000000000000000000000000000000000000000000000000000000000000
310
00000000BEBEBEBEBEBEBEBE000000000000000000280000000000000000BE000000BEBEBEBEBEBEBEBEBEBEBEBEBEBEBEBEBEBEBEBEBEBEBEBEBEBEBEBEBEBEBEBEBEBEBEBEBEBEBEBEBE00000000000000000000000000000000000000000000000000000000000000000000000000000000000000000000000000000000
310
00000000000000000000000000000000000000000000000000000000000000000000000000000000000000000000000000000000000000000000000000000000000000000000000000000000000000000000000000000000000000000000000000000000000000000000000000000000000000000000000000000000000000
310
0000000000000000000000000000000000000000000000280000000000000000BE000000BEBEBEBEBEBEBEBEBEBEBEBEBEBEBEBEBEBEBEBEBEBEBEBEBEBEBEBEBEBEBEBEBEBEBEBEBEBEBEBEBE0000000000000000000000000000000000000000000000000000000000000000000000000000000000000000000000000000
310
00000000000000000000000000000000000000000000000000000000000000000000000000000000000000000000000000000000000000000000000000000000000000000000000000000000000000000000000000000000000000000000000000000000000000000000000000000000000000000000000000000000000000
310
00000000000000000000000000000000DC000000000000000028000000000000000000BEBEBEBEBEBEBEBEBEBEBEBEBEBEBEBEBEBEBEBEBEBEBEBEBEBEBEBEBEBEBEBEBEBEBEBEBEBEBEBEBEBEBEBE000000000000000000000000000000000000000000000000000000000000000000000000000000000000000000000000
310
00000000000000000000000000000000000000000000000000000000000000000000000000000000000000000000000000000000000000000000000000000000000000000000000000000000000000000000000000000000000000000000000000000000000000000000000000000000000000000000000000000000000000
310
00000000000000000000000000000000000000DCDC00000000000028000000000000000000000000000000000000000000000000000000000000000000000000000000000000000000000000000000000000000000000000000000000000000000000000000000000000000000000000000000000000000000000000000000
310
00000000000000000000000000000000000000000000000000000000000000000000000000000000000000000000000000000000000000000000000000000000000000000000000000000000000000000000000000000000000000000000000000000000000000000000000000000000000000000000000000000000000000
310
0000000000000000000000000000000000000000000000DCDC000000002800000000000000000000000000000000000000000000000000000000000000000000000000000000000000000000000000000000000000000000000000000000000000000000000000000000000000000000000000000000000000000000000000
310
00000000000000000000000000000000000000000000000000000000000000000000000000000000000000000000000000000000000000000000000000000000000000000000000000000000000000000000000000000000000000000000000000000000000000000000000000000000000000000000000000000000000000
310
000000000000000000000000000000000000000000000000000000DCDC0000280000000000000000000000000000000000000000000000000000000000000000000000000000000000000000000000000000000000000000000000000000000000000000000000000000000000000000000000000000000000000000000000
310
00000000000000000000000000000000000000000000000000000000000000000000000000000000000000000000000000000000000000000000000000000000000000000000000000000000000000000000000000000000000000000000000000000000000000000000000000000000000000000000000000000000000000
310
00000000000000000000000000000000000000000000000000000000000000DC0028000000000000000000000000000000000000000000000000000000000000000000000000000000000000000000000000000000000000000000000000000000000000000000000000000000000000000000000000000000000000000000
310
00000000000000000000000000000000000000000000000000000000000000000000000000000000000000000000000000000000000000000000000000000000000000000000000000000000000000000000000000000000000000000000000000000000000000000000000000000000000000000000000000000000000000
310
000000000000000000000000000000000000000000000000000000000000000000DCDCDC00000000000000000000000000000000000000000000000000000000000000000000000000000000000000000000000000000000000000000000000000000000000000000000000000000000000000000000000000000000000000
310
00000000000000000000000000000000000000000000000000000000000000000000000000000000000000000000000000000000000000000000000000000000000000000000000000000000000000000000000000000000000000000000000000000000000000000000000000000000000000000000000000000000000000
310
00000000000000000000000000000000000000000000000000000000000000000000000000280000000000000000000000000000000000000000000000000000000000000000000000000000000000000000000000000000000000000000000000000000000000000000000000000000000000000000000000000000000000
310
00000000000000000000000000000000000000000000000000000000000000000000000000000000000000000000000000000000000000000000000000000000000000000000000000000000000000000000000000000000000000000000000000000000000000000000000000000000000000000000000000000000000000
310
00000000000000000000000000000000000000000000000000000000000000000000000000000028000000000000000000000000000000000000000000000000000000000000000000000000000000000000000000000000000000000000000000000000000000000000000000000000000000000000000000000000000000
310
00000000000000000000000000000000000000000000000000000000000000000000000000000000000000000000000000000000000000000000000000000000000000000000000000000000000000000000000000000000000000000000000000000000000000000000000000000000000000000000000000000000000000
310
00000000000000000000000000000000000000000000000000000000000000000000000000000000002800000000000000000000000000000000000000000000000000000000000000000000000000000000000000000000000000000000000000000000000000000000000000000000000000000000000000000000000000
310
00000000000000000000000000000000000000000000000000000000000000000000000000000000000000000000000000000000000000000000000000000000000000000000000000000000000000000000000000000000000000000000000000000000000000000000000000000000000000000000000000000000000000
310
00000000000000000000000000000000000000000000000000000000000000000000000000000000000000000000000000000000000000000000000000000000000000000000000000000000000000000000000000000000000000000000000000000000000000000000000000000000000000000000000000000000000000
310
00000000000000000000000000000000000000000000000000000000000000000000000000000000000000000000000000000000000000000000000000000000000000000000000000000000000000000000000000000000000000000000000000000000000000000000000000000000000000000000000000000000000000
310
00000000000000000000000000000000000000000000000000000000000000000000000000000000000000000000000000000000000000000000000000000000000000000000000000000000000000000000000000000000000000000000000000000000000000000000000000000000000000000000000000000000000000
310
00000000000000000000000000000000000000000000000000000000000000000000000000000000000000000000000000000000000000000000000000000000000000000000000000000000000000000000000000000000000000000000000000000000000000000000000000000000000000000000000000000000000000
310
00000000000000000000000000000000000000000000000000000000000000000000000000000000000000000000000000000000000000000000000000000000000000000000000000000000000000000000000000000000000000000000000000000000000000000000000000000000000000000000000000000000000000
310
00000000000000000000000000000000000000000000000000000000000000000000000000000000000000000000000000000000000000000000000000000000000000000000000000000000000000000000000000000000000000000000000000000000000000000000000000000000000000000000000000000000000000
310
00000000000000000000000000000000000000000000000000000000000000000000000000000000000000000000000000000000000000000000000000000000000000000000000000000000000000000000000000000000000000000000000000000000000000000000000000000000000000000000000000000000000000
310
00000000000000000000000000000000000000000000000000000000000000000000000000000000000000000000000000000000000000000000000000000000000000000000000000000000000000000000000000000000000000000000000000000000000000000000000000000000000000000000000000000000000000
310
00000000000000000000000000000000000000000000000000000000000000000000000000000000000000000000000000000000000000000000000000000000000000000000000000000000000000000000000000000000000000000000000000000000000000000000000000000000000000000000000000000000000000
310
0000000000000000000000000000000000000000000000000000000000000000000000000000000000000000000000000000000000000000000000000000000000000000000000000000000000000000000000000000000000000000000000000000000000000000000000000000000000000000000000
  0
XRECORD
  5
3493E
102
{ACAD_REACTORS
330
3493D
102
}
330
3493D
100
AcDbXrecord
280
     1
102
MATERIAL
148
0.0
149
0.0
149
0.0
 93
        0
 94
      127
282
     0
 72
     1
 77
     1
171
     1
175
     1
179
     1
273
     0
  0
XRECORD
  5
3493C
102
{ACAD_REACTORS
330
3493B
102
}
330
3493B
100
AcDbXrecord
280
     1
102
MATERIAL
148
0.0
149
0.0
149
0.0
 93
        0
 94
      127
282
     0
 72
     1
 77
     1
171
     1
175
     1
179
     1
273
     0
  0
XRECORD
  5
34940
102
{ACAD_REACTORS
330
3493F
102
}
330
3493F
100
AcDbXrecord
280
     1
102
MATERIAL
148
0.0
149
0.0
149
0.0
 93
        0
 94
      127
282
     0
 72
     1
 77
     1
171
     1
175
     1
179
     1
273
     0
  0
XRECORD
  5
349AE
102
{ACAD_REACTORS
330
349AD
102
}
330
349AD
100
AcDbXrecord
280
     1
102
SHADEPLOT
 70
     0
102
SHADEPLOTRESLEVEL
 70
     2
102
SHADEPLOTCUSTOMDPI
 70
   300
  0
XRECORD
  5
349AA
102
{ACAD_REACTORS
330
349A9
102
}
330
349A9
100
AcDbXrecord
280
     1
102
SHADEPLOT
 70
     0
102
SHADEPLOTRESLEVEL
 70
     2
102
SHADEPLOTCUSTOMDPI
 70
   300
  0
XRECORD
  5
349B0
102
{ACAD_REACTORS
330
349AF
102
}
330
349AF
100
AcDbXrecord
280
     1
102
SHADEPLOT
 70
     0
102
SHADEPLOTRESLEVEL
 70
     2
102
SHADEPLOTCUSTOMDPI
 70
   300
  0
XRECORD
  5
349AC
102
{ACAD_REACTORS
330
349AB
102
}
330
349AB
100
AcDbXrecord
280
     1
102
SHADEPLOT
 70
     0
102
SHADEPLOTRESLEVEL
 70
     2
102
SHADEPLOTCUSTOMDPI
 70
   300
  0
CELLSTYLEMAP
  5
34987
102
{ACAD_REACTORS
330
34930
102
}
330
34930
100
AcDbCellStyleMap
 90
        3
300
CELLSTYLE
  1
TABLEFORMAT_BEGIN
 90
        5
170
     1
 91
        0
 92
    32768
 62
   257
 93
        1
300
CONTENTFORMAT
  1
CONTENTFORMAT_BEGIN
 90
        0
 91
        0
 92
        4
 93
        0
300

 40
0.0
140
1.0
 94
        5
 62
     0
340
13
144
0.25
309
CONTENTFORMAT_END
171
     1
301
MARGIN
  1
CELLMARGIN_BEGIN
 40
0.06
 40
0.06
 40
0.06
 40
0.06
 40
0.18
 40
0.18
309
CELLMARGIN_END
 94
        6
 95
        1
302
GRIDFORMAT
  1
GRIDFORMAT_BEGIN
 90
        0
 91
        1
 62
     0
 92
       -2
340
0
 93
        0
 40
0.045
309
GRIDFORMAT_END
 95
        2
302
GRIDFORMAT
  1
GRIDFORMAT_BEGIN
 90
        0
 91
        1
 62
     0
 92
       -2
340
0
 93
        0
 40
0.045
309
GRIDFORMAT_END
 95
        4
302
GRIDFORMAT
  1
GRIDFORMAT_BEGIN
 90
        0
 91
        1
 62
     0
 92
       -2
340
0
 93
        0
 40
0.045
309
GRIDFORMAT_END
 95
        8
302
GRIDFORMAT
  1
GRIDFORMAT_BEGIN
 90
        0
 91
        1
 62
     0
 92
       -2
340
0
 93
        0
 40
0.045
309
GRIDFORMAT_END
 95
       16
302
GRIDFORMAT
  1
GRIDFORMAT_BEGIN
 90
        0
 91
        1
 62
     0
 92
       -2
340
0
 93
        0
 40
0.045
309
GRIDFORMAT_END
 95
       32
302
GRIDFORMAT
  1
GRIDFORMAT_BEGIN
 90
        0
 91
        1
 62
     0
 92
       -2
340
0
 93
        0
 40
0.045
309
GRIDFORMAT_END
309
TABLEFORMAT_END
  1
CELLSTYLE_BEGIN
 90
        1
 91
        1
300
_TITLE
309
CELLSTYLE_END
300
CELLSTYLE
  1
TABLEFORMAT_BEGIN
 90
        5
170
     1
 91
        0
 92
        0
 62
   257
 93
        1
300
CONTENTFORMAT
  1
CONTENTFORMAT_BEGIN
 90
        0
 91
        0
 92
        4
 93
        0
300

 40
0.0
140
1.0
 94
        5
 62
     0
340
13
144
0.18
309
CONTENTFORMAT_END
171
     1
301
MARGIN
  1
CELLMARGIN_BEGIN
 40
0.06
 40
0.06
 40
0.06
 40
0.06
 40
0.18
 40
0.18
309
CELLMARGIN_END
 94
        6
 95
        1
302
GRIDFORMAT
  1
GRIDFORMAT_BEGIN
 90
        0
 91
        1
 62
     0
 92
       -2
340
0
 93
        0
 40
0.045
309
GRIDFORMAT_END
 95
        2
302
GRIDFORMAT
  1
GRIDFORMAT_BEGIN
 90
        0
 91
        1
 62
     0
 92
       -2
340
0
 93
        0
 40
0.045
309
GRIDFORMAT_END
 95
        4
302
GRIDFORMAT
  1
GRIDFORMAT_BEGIN
 90
        0
 91
        1
 62
     0
 92
       -2
340
0
 93
        0
 40
0.045
309
GRIDFORMAT_END
 95
        8
302
GRIDFORMAT
  1
GRIDFORMAT_BEGIN
 90
        0
 91
        1
 62
     0
 92
       -2
340
0
 93
        0
 40
0.045
309
GRIDFORMAT_END
 95
       16
302
GRIDFORMAT
  1
GRIDFORMAT_BEGIN
 90
        0
 91
        1
 62
     0
 92
       -2
340
0
 93
        0
 40
0.045
309
GRIDFORMAT_END
 95
       32
302
GRIDFORMAT
  1
GRIDFORMAT_BEGIN
 90
        0
 91
        1
 62
     0
 92
       -2
340
0
 93
        0
 40
0.045
309
GRIDFORMAT_END
309
TABLEFORMAT_END
  1
CELLSTYLE_BEGIN
 90
        2
 91
        1
300
_HEADER
309
CELLSTYLE_END
300
CELLSTYLE
  1
TABLEFORMAT_BEGIN
 90
        5
170
     1
 91
        0
 92
        0
 62
   257
 93
        1
300
CONTENTFORMAT
  1
CONTENTFORMAT_BEGIN
 90
        0
 91
        0
 92
        4
 93
        0
300

 40
0.0
140
1.0
 94
        2
 62
     0
340
13
144
0.18
309
CONTENTFORMAT_END
171
     1
301
MARGIN
  1
CELLMARGIN_BEGIN
 40
0.06
 40
0.06
 40
0.06
 40
0.06
 40
0.18
 40
0.18
309
CELLMARGIN_END
 94
        6
 95
        1
302
GRIDFORMAT
  1
GRIDFORMAT_BEGIN
 90
        0
 91
        1
 62
     0
 92
       -2
340
0
 93
        0
 40
0.045
309
GRIDFORMAT_END
 95
        2
302
GRIDFORMAT
  1
GRIDFORMAT_BEGIN
 90
        0
 91
        1
 62
     0
 92
       -2
340
0
 93
        0
 40
0.045
309
GRIDFORMAT_END
 95
        4
302
GRIDFORMAT
  1
GRIDFORMAT_BEGIN
 90
        0
 91
        1
 62
     0
 92
       -2
340
0
 93
        0
 40
0.045
309
GRIDFORMAT_END
 95
        8
302
GRIDFORMAT
  1
GRIDFORMAT_BEGIN
 90
        0
 91
        1
 62
     0
 92
       -2
340
0
 93
        0
 40
0.045
309
GRIDFORMAT_END
 95
       16
302
GRIDFORMAT
  1
GRIDFORMAT_BEGIN
 90
        0
 91
        1
 62
     0
 92
       -2
340
0
 93
        0
 40
0.045
309
GRIDFORMAT_END
 95
       32
302
GRIDFORMAT
  1
GRIDFORMAT_BEGIN
 90
        0
 91
        1
 62
     0
 92
       -2
340
0
 93
        0
 40
0.045
309
GRIDFORMAT_END
309
TABLEFORMAT_END
  1
CELLSTYLE_BEGIN
 90
        3
 91
        2
300
_DATA
309
CELLSTYLE_END
  0
XRECORD
  5
34990
102
{ACAD_REACTORS
330
34930
102
}
330
34930
100
AcDbXrecord
280
     1
102
ACAD_ROUNDTRIP_PRE2007_TABLESTYLE
 90
        4
 91
        0
  1

 92
        4
 93
        0
  2

 94
        4
 95
        0
  3

  0
XRECORD
  5
3499C
102
{ACAD_REACTORS
330
3499B
102
}
330
3499B
100
AcDbXrecord
280
     1
102
RTVSPropertyOp0
 70
     1
102
RTVSPropertyOp1
 70
     1
102
RTVSPropertyOp2
 70
     1
102
RTVSPropertyOp3
 70
     1
102
RTVSPropertyOp4
 70
     1
102
RTVSPropertyOp5
 70
     1
102
RTVSPropertyOp6
 70
     1
102
RTVSPropertyOp7
 70
     1
102
RTVSPropertyOp8
 70
     1
102
RTVSPropertyOp9
 70
     1
102
RTVSPropertyOp10
 70
     1
102
RTVSPropertyOp11
 70
     1
102
RTVSPropertyOp12
 70
     1
102
RTVSPropertyOp13
 70
     1
102
RTVSPropertyOp14
 70
     1
102
RTVSPropertyOp15
 70
     1
102
RTVSPropertyOp16
 70
     1
102
RTVSPropertyOp17
 70
     1
102
RTVSPropertyOp18
 70
     1
102
RTVSPropertyOp19
 70
     1
102
RTVSPropertyOp20
 70
     1
102
RTVSPropertyOp21
 70
     1
102
RTVSPropertyOp22
 70
     1
102
RTVSPropertyOp23
 70
     1
102
RTVSPropertyOp24
 70
     1
102
RTVSPropertyOp25
 70
     1
102
RTVSPropertyOp26
 70
     1
102
RTVSPropertyOp27
 70
     1
102
RTVSPropertyOp28
 70
     1
102
RTVSPropertyOp29
 70
     1
102
RTVSPropertyOp30
 70
     1
102
RTVSPropertyOp31
 70
     1
102
RTVSPropertyOp32
 70
     1
  0
XRECORD
  5
349B2
102
{ACAD_REACTORS
330
349B1
102
}
330
349B1
100
AcDbXrecord
280
     1
102
RTVSPropertyOp0
 70
     1
102
RTVSPropertyOp1
 70
     1
102
RTVSPropertyOp2
 70
     1
102
RTVSPropertyOp3
 70
     1
102
RTVSPropertyOp4
 70
     1
102
RTVSPropertyOp5
 70
     1
102
RTVSPropertyOp6
 70
     1
102
RTVSPropertyOp7
 70
     1
102
RTVSPropertyOp8
 70
     1
102
RTVSPropertyOp9
 70
     1
102
RTVSPropertyOp10
 70
     1
102
RTVSPropertyOp11
 70
     1
102
RTVSPropertyOp12
 70
     1
102
RTVSPropertyOp13
 70
     1
102
RTVSPropertyOp14
 70
     1
102
RTVSPropertyOp15
 70
     1
102
RTVSPropertyOp16
 70
     1
102
RTVSPropertyOp17
 70
     1
102
RTVSPropertyOp18
 70
     1
102
RTVSPropertyOp19
 70
     1
102
RTVSPropertyOp20
 70
     1
102
RTVSPropertyOp21
 70
     1
102
RTVSPropertyOp22
 70
     1
102
RTVSPropertyOp23
 70
     1
102
RTVSPropertyOp24
 70
     1
102
RTVSPropertyOp25
 70
     1
102
RTVSPropertyOp26
 70
     1
102
RTVSPropertyOp27
 70
     1
102
RTVSPropertyOp28
 70
     1
102
RTVSPropertyOp29
 70
     1
102
RTVSPropertyOp30
 70
     1
102
RTVSPropertyOp31
 70
     1
102
RTVSPropertyOp32
 70
     1
  0
XRECORD
  5
349B4
102
{ACAD_REACTORS
330
349B3
102
}
330
349B3
100
AcDbXrecord
280
     1
102
RTVSPropertyOp0
 70
     1
102
RTVSPropertyOp1
 70
     1
102
RTVSPropertyOp2
 70
     1
102
RTVSPropertyOp3
 70
     1
102
RTVSPropertyOp4
 70
     1
102
RTVSPropertyOp5
 70
     1
102
RTVSPropertyOp6
 70
     1
102
RTVSPropertyOp7
 70
     1
102
RTVSPropertyOp8
 70
     1
102
RTVSPropertyOp9
 70
     1
102
RTVSPropertyOp10
 70
     1
102
RTVSPropertyOp11
 70
     1
102
RTVSPropertyOp12
 70
     1
102
RTVSPropertyOp13
 70
     1
102
RTVSPropertyOp14
 70
     1
102
RTVSPropertyOp15
 70
     1
102
RTVSPropertyOp16
 70
     1
102
RTVSPropertyOp17
 70
     1
102
RTVSPropertyOp18
 70
     1
102
RTVSPropertyOp19
 70
     1
102
RTVSPropertyOp20
 70
     1
102
RTVSPropertyOp21
 70
     1
102
RTVSPropertyOp22
 70
     1
102
RTVSPropertyOp23
 70
     1
102
RTVSPropertyOp24
 70
     1
102
RTVSPropertyOp25
 70
     1
102
RTVSPropertyOp26
 70
     1
102
RTVSPropertyOp27
 70
     1
102
RTVSPropertyOp28
 70
     1
102
RTVSPropertyOp29
 70
     1
102
RTVSPropertyOp30
 70
     1
102
RTVSPropertyOp31
 70
     1
102
RTVSPropertyOp32
 70
     1
  0
XRECORD
  5
3499A
102
{ACAD_REACTORS
330
34999
102
}
330
34999
100
AcDbXrecord
280
     1
102
RTVSPropertyOp0
 70
     1
102
RTVSPropertyOp1
 70
     1
102
RTVSPropertyOp2
 70
     1
102
RTVSPropertyOp3
 70
     1
102
RTVSPropertyOp4
 70
     1
102
RTVSPropertyOp5
 70
     1
102
RTVSPropertyOp6
 70
     1
102
RTVSPropertyOp7
 70
     1
102
RTVSPropertyOp8
 70
     1
102
RTVSPropertyOp9
 70
     1
102
RTVSPropertyOp10
 70
     1
102
RTVSPropertyOp11
 70
     1
102
RTVSPropertyOp12
 70
     1
102
RTVSPropertyOp13
 70
     1
102
RTVSPropertyOp14
 70
     1
102
RTVSPropertyOp15
 70
     1
102
RTVSPropertyOp16
 70
     1
102
RTVSPropertyOp17
 70
     1
102
RTVSPropertyOp18
 70
     1
102
RTVSPropertyOp19
 70
     1
102
RTVSPropertyOp20
 70
     1
102
RTVSPropertyOp21
 70
     1
102
RTVSPropertyOp22
 70
     1
102
RTVSPropertyOp23
 70
     1
102
RTVSPropertyOp24
 70
     1
102
RTVSPropertyOp25
 70
     1
102
RTVSPropertyOp26
 70
     1
102
RTVSPropertyOp27
 70
     1
102
RTVSPropertyOp28
 70
     1
102
RTVSPropertyOp29
 70
     1
102
RTVSPropertyOp30
 70
     1
102
RTVSPropertyOp31
 70
     1
102
RTVSPropertyOp32
 70
     1
  0
XRECORD
  5
349A0
102
{ACAD_REACTORS
330
3499F
102
}
330
3499F
100
AcDbXrecord
280
     1
102
RTVSPropertyOp0
 70
     1
102
RTVSPropertyOp1
 70
     1
102
RTVSPropertyOp2
 70
     1
102
RTVSPropertyOp3
 70
     1
102
RTVSPropertyOp4
 70
     1
102
RTVSPropertyOp5
 70
     1
102
RTVSPropertyOp6
 70
     1
102
RTVSPropertyOp7
 70
     1
102
RTVSPropertyOp8
 70
     1
102
RTVSPropertyOp9
 70
     1
102
RTVSPropertyOp10
 70
     1
102
RTVSPropertyOp11
 70
     1
102
RTVSPropertyOp12
 70
     1
102
RTVSPropertyOp13
 70
     1
102
RTVSPropertyOp14
 70
     1
102
RTVSPropertyOp15
 70
     1
102
RTVSPropertyOp16
 70
     1
102
RTVSPropertyOp17
 70
     1
102
RTVSPropertyOp18
 70
     1
102
RTVSPropertyOp19
 70
     1
102
RTVSPropertyOp20
 70
     1
102
RTVSPropertyOp21
 70
     1
102
RTVSPropertyOp22
 70
     1
102
RTVSPropertyOp23
 70
     1
102
RTVSPropertyOp24
 70
     1
102
RTVSPropertyOp25
 70
     1
102
RTVSPropertyOp26
 70
     1
102
RTVSPropertyOp27
 70
     1
102
RTVSPropertyOp28
 70
     1
102
RTVSPropertyOp29
 70
     1
102
RTVSPropertyOp30
 70
     1
102
RTVSPropertyOp31
 70
     1
102
RTVSPropertyOp32
 70
     1
  0
XRECORD
  5
349A8
102
{ACAD_REACTORS
330
349A7
102
}
330
349A7
100
AcDbXrecord
280
     1
102
RTVSPropertyOp0
 70
     1
102
RTVSPropertyOp1
 70
     1
102
RTVSPropertyOp2
 70
     1
102
RTVSPropertyOp3
 70
     1
102
RTVSPropertyOp4
 70
     1
102
RTVSPropertyOp5
 70
     1
102
RTVSPropertyOp6
 70
     1
102
RTVSPropertyOp7
 70
     1
102
RTVSPropertyOp8
 70
     1
102
RTVSPropertyOp9
 70
     1
102
RTVSPropertyOp10
 70
     1
102
RTVSPropertyOp11
 70
     1
102
RTVSPropertyOp12
 70
     1
102
RTVSPropertyOp13
 70
     1
102
RTVSPropertyOp14
 70
     1
102
RTVSPropertyOp15
 70
     1
102
RTVSPropertyOp16
 70
     1
102
RTVSPropertyOp17
 70
     1
102
RTVSPropertyOp18
 70
     1
102
RTVSPropertyOp19
 70
     1
102
RTVSPropertyOp20
 70
     1
102
RTVSPropertyOp21
 70
     1
102
RTVSPropertyOp22
 70
     1
102
RTVSPropertyOp23
 70
     1
102
RTVSPropertyOp24
 70
     1
102
RTVSPropertyOp25
 70
     1
102
RTVSPropertyOp26
 70
     1
102
RTVSPropertyOp27
 70
     1
102
RTVSPropertyOp28
 70
     1
102
RTVSPropertyOp29
 70
     1
102
RTVSPropertyOp30
 70
     1
102
RTVSPropertyOp31
 70
     1
102
RTVSPropertyOp32
 70
     1
  0
XRECORD
  5
349B6
102
{ACAD_REACTORS
330
349B5
102
}
330
349B5
100
AcDbXrecord
280
     1
102
RTVSPropertyOp0
 70
     1
102
RTVSPropertyOp1
 70
     1
102
RTVSPropertyOp2
 70
     1
102
RTVSPropertyOp3
 70
     1
102
RTVSPropertyOp4
 70
     1
102
RTVSPropertyOp5
 70
     1
102
RTVSPropertyOp6
 70
     1
102
RTVSPropertyOp7
 70
     1
102
RTVSPropertyOp8
 70
     1
102
RTVSPropertyOp9
 70
     1
102
RTVSPropertyOp10
 70
     1
102
RTVSPropertyOp11
 70
     1
102
RTVSPropertyOp12
 70
     1
102
RTVSPropertyOp13
 70
     1
102
RTVSPropertyOp14
 70
     1
102
RTVSPropertyOp15
 70
     1
102
RTVSPropertyOp16
 70
     1
102
RTVSPropertyOp17
 70
     1
102
RTVSPropertyOp18
 70
     1
102
RTVSPropertyOp19
 70
     1
102
RTVSPropertyOp20
 70
     1
102
RTVSPropertyOp21
 70
     1
102
RTVSPropertyOp22
 70
     1
102
RTVSPropertyOp23
 70
     1
102
RTVSPropertyOp24
 70
     1
102
RTVSPropertyOp25
 70
     1
102
RTVSPropertyOp26
 70
     1
102
RTVSPropertyOp27
 70
     1
102
RTVSPropertyOp28
 70
     1
102
RTVSPropertyOp29
 70
     1
102
RTVSPropertyOp30
 70
     1
102
RTVSPropertyOp31
 70
     1
102
RTVSPropertyOp32
 70
     1
  0
XRECORD
  5
3499E
102
{ACAD_REACTORS
330
3499D
102
}
330
3499D
100
AcDbXrecord
280
     1
102
RTVSPropertyOp0
 70
     1
102
RTVSPropertyOp1
 70
     1
102
RTVSPropertyOp2
 70
     1
102
RTVSPropertyOp3
 70
     1
102
RTVSPropertyOp4
 70
     1
102
RTVSPropertyOp5
 70
     1
102
RTVSPropertyOp6
 70
     1
102
RTVSPropertyOp7
 70
     1
102
RTVSPropertyOp8
 70
     1
102
RTVSPropertyOp9
 70
     1
102
RTVSPropertyOp10
 70
     1
102
RTVSPropertyOp11
 70
     1
102
RTVSPropertyOp12
 70
     1
102
RTVSPropertyOp13
 70
     1
102
RTVSPropertyOp14
 70
     1
102
RTVSPropertyOp15
 70
     1
102
RTVSPropertyOp16
 70
     1
102
RTVSPropertyOp17
 70
     1
102
RTVSPropertyOp18
 70
     1
102
RTVSPropertyOp19
 70
     1
102
RTVSPropertyOp20
 70
     1
102
RTVSPropertyOp21
 70
     1
102
RTVSPropertyOp22
 70
     1
102
RTVSPropertyOp23
 70
     1
102
RTVSPropertyOp24
 70
     1
102
RTVSPropertyOp25
 70
     1
102
RTVSPropertyOp26
 70
     1
102
RTVSPropertyOp27
 70
     1
102
RTVSPropertyOp28
 70
     1
102
RTVSPropertyOp29
 70
     1
102
RTVSPropertyOp30
 70
     1
102
RTVSPropertyOp31
 70
     1
102
RTVSPropertyOp32
 70
     1
  0
XRECORD
  5
349CC
102
{ACAD_REACTORS
330
349CB
102
}
330
349CB
100
AcDbXrecord
280
     1
102
RTVSPropertyOp0
 70
     0
102
RTVSPropertyOp1
 70
     0
102
RTVSPropertyOp2
 70
     0
102
RTVSPropertyOp3
 70
     0
102
RTVSPropertyOp4
 70
     0
102
RTVSPropertyOp5
 70
     0
102
RTVSPropertyOp6
 70
     0
102
RTVSPropertyOp7
 70
     0
102
RTVSPropertyOp8
 70
     0
102
RTVSPropertyOp9
 70
     0
102
RTVSPropertyOp10
 70
     0
102
RTVSPropertyOp11
 70
     0
102
RTVSPropertyOp12
 70
     0
102
RTVSPropertyOp13
 70
     0
102
RTVSPropertyOp14
 70
     2
102
RTVSPropertyOp15
 70
     0
102
RTVSPropertyOp16
 70
     0
102
RTVSPropertyOp17
 70
     0
102
RTVSPropertyOp18
 70
     0
102
RTVSPropertyOp19
 70
     0
102
RTVSPropertyOp20
 70
     0
102
RTVSPropertyOp21
 70
     0
102
RTVSPropertyOp22
 70
     0
102
RTVSPropertyOp23
 70
     0
102
RTVSPropertyOp24
 70
     0
102
RTVSPropertyOp25
 70
     0
102
RTVSPropertyOp26
 70
     0
102
RTVSPropertyOp27
 70
     0
102
RTVSPropertyOp28
 70
     1
102
RTVSPropertyOp29
 70
     1
102
RTVSPropertyOp30
 70
     1
102
RTVSPropertyOp31
 70
     1
102
RTVSPropertyOp32
 70
     1
  0
XRECORD
  5
349A6
102
{ACAD_REACTORS
330
349A5
102
}
330
349A5
100
AcDbXrecord
280
     1
102
RTVSPropertyOp0
 70
     1
102
RTVSPropertyOp1
 70
     1
102
RTVSPropertyOp2
 70
     1
102
RTVSPropertyOp3
 70
     1
102
RTVSPropertyOp4
 70
     1
102
RTVSPropertyOp5
 70
     1
102
RTVSPropertyOp6
 70
     1
102
RTVSPropertyOp7
 70
     1
102
RTVSPropertyOp8
 70
     1
102
RTVSPropertyOp9
 70
     1
102
RTVSPropertyOp10
 70
     1
102
RTVSPropertyOp11
 70
     1
102
RTVSPropertyOp12
 70
     1
102
RTVSPropertyOp13
 70
     1
102
RTVSPropertyOp14
 70
     1
102
RTVSPropertyOp15
 70
     1
102
RTVSPropertyOp16
 70
     1
102
RTVSPropertyOp17
 70
     1
102
RTVSPropertyOp18
 70
     1
102
RTVSPropertyOp19
 70
     1
102
RTVSPropertyOp20
 70
     1
102
RTVSPropertyOp21
 70
     1
102
RTVSPropertyOp22
 70
     1
102
RTVSPropertyOp23
 70
     1
102
RTVSPropertyOp24
 70
     1
102
RTVSPropertyOp25
 70
     1
102
RTVSPropertyOp26
 70
     1
102
RTVSPropertyOp27
 70
     1
102
RTVSPropertyOp28
 70
     1
102
RTVSPropertyOp29
 70
     1
102
RTVSPropertyOp30
 70
     1
102
RTVSPropertyOp31
 70
     1
102
RTVSPropertyOp32
 70
     1
  0
XRECORD
  5
34992
102
{ACAD_REACTORS
330
34991
102
}
330
34991
100
AcDbXrecord
280
     1
102
RTVSPropertyOp0
 70
     1
102
RTVSPropertyOp1
 70
     1
102
RTVSPropertyOp2
 70
     1
102
RTVSPropertyOp3
 70
     1
102
RTVSPropertyOp4
 70
     1
102
RTVSPropertyOp5
 70
     1
102
RTVSPropertyOp6
 70
     1
102
RTVSPropertyOp7
 70
     1
102
RTVSPropertyOp8
 70
     1
102
RTVSPropertyOp9
 70
     1
102
RTVSPropertyOp10
 70
     1
102
RTVSPropertyOp11
 70
     1
102
RTVSPropertyOp12
 70
     1
102
RTVSPropertyOp13
 70
     1
102
RTVSPropertyOp14
 70
     1
102
RTVSPropertyOp15
 70
     1
102
RTVSPropertyOp16
 70
     1
102
RTVSPropertyOp17
 70
     1
102
RTVSPropertyOp18
 70
     1
102
RTVSPropertyOp19
 70
     1
102
RTVSPropertyOp20
 70
     1
102
RTVSPropertyOp21
 70
     1
102
RTVSPropertyOp22
 70
     1
102
RTVSPropertyOp23
 70
     1
102
RTVSPropertyOp24
 70
     1
102
RTVSPropertyOp25
 70
     1
102
RTVSPropertyOp26
 70
     1
102
RTVSPropertyOp27
 70
     1
102
RTVSPropertyOp28
 70
     1
102
RTVSPropertyOp29
 70
     1
102
RTVSPropertyOp30
 70
     1
102
RTVSPropertyOp31
 70
     1
102
RTVSPropertyOp32
 70
     1
  0
XRECORD
  5
34994
102
{ACAD_REACTORS
330
34993
102
}
330
34993
100
AcDbXrecord
280
     1
102
RTVSPropertyOp0
 70
     1
102
RTVSPropertyOp1
 70
     1
102
RTVSPropertyOp2
 70
     1
102
RTVSPropertyOp3
 70
     1
102
RTVSPropertyOp4
 70
     1
102
RTVSPropertyOp5
 70
     1
102
RTVSPropertyOp6
 70
     1
102
RTVSPropertyOp7
 70
     1
102
RTVSPropertyOp8
 70
     1
102
RTVSPropertyOp9
 70
     1
102
RTVSPropertyOp10
 70
     1
102
RTVSPropertyOp11
 70
     1
102
RTVSPropertyOp12
 70
     1
102
RTVSPropertyOp13
 70
     1
102
RTVSPropertyOp14
 70
     1
102
RTVSPropertyOp15
 70
     1
102
RTVSPropertyOp16
 70
     1
102
RTVSPropertyOp17
 70
     1
102
RTVSPropertyOp18
 70
     1
102
RTVSPropertyOp19
 70
     1
102
RTVSPropertyOp20
 70
     1
102
RTVSPropertyOp21
 70
     1
102
RTVSPropertyOp22
 70
     1
102
RTVSPropertyOp23
 70
     1
102
RTVSPropertyOp24
 70
     1
102
RTVSPropertyOp25
 70
     1
102
RTVSPropertyOp26
 70
     1
102
RTVSPropertyOp27
 70
     1
102
RTVSPropertyOp28
 70
     1
102
RTVSPropertyOp29
 70
     1
102
RTVSPropertyOp30
 70
     1
102
RTVSPropertyOp31
 70
     1
102
RTVSPropertyOp32
 70
     1
  0
XRECORD
  5
34996
102
{ACAD_REACTORS
330
34995
102
}
330
34995
100
AcDbXrecord
280
     1
102
RTVSPropertyOp0
 70
     1
102
RTVSPropertyOp1
 70
     1
102
RTVSPropertyOp2
 70
     1
102
RTVSPropertyOp3
 70
     1
102
RTVSPropertyOp4
 70
     1
102
RTVSPropertyOp5
 70
     1
102
RTVSPropertyOp6
 70
     1
102
RTVSPropertyOp7
 70
     1
102
RTVSPropertyOp8
 70
     1
102
RTVSPropertyOp9
 70
     1
102
RTVSPropertyOp10
 70
     1
102
RTVSPropertyOp11
 70
     1
102
RTVSPropertyOp12
 70
     1
102
RTVSPropertyOp13
 70
     1
102
RTVSPropertyOp14
 70
     1
102
RTVSPropertyOp15
 70
     1
102
RTVSPropertyOp16
 70
     1
102
RTVSPropertyOp17
 70
     1
102
RTVSPropertyOp18
 70
     1
102
RTVSPropertyOp19
 70
     1
102
RTVSPropertyOp20
 70
     1
102
RTVSPropertyOp21
 70
     1
102
RTVSPropertyOp22
 70
     1
102
RTVSPropertyOp23
 70
     1
102
RTVSPropertyOp24
 70
     1
102
RTVSPropertyOp25
 70
     1
102
RTVSPropertyOp26
 70
     1
102
RTVSPropertyOp27
 70
     1
102
RTVSPropertyOp28
 70
     1
102
RTVSPropertyOp29
 70
     1
102
RTVSPropertyOp30
 70
     1
102
RTVSPropertyOp31
 70
     1
102
RTVSPropertyOp32
 70
     1
  0
XRECORD
  5
34998
102
{ACAD_REACTORS
330
34997
102
}
330
34997
100
AcDbXrecord
280
     1
102
RTVSPropertyOp0
 70
     1
102
RTVSPropertyOp1
 70
     1
102
RTVSPropertyOp2
 70
     1
102
RTVSPropertyOp3
 70
     1
102
RTVSPropertyOp4
 70
     1
102
RTVSPropertyOp5
 70
     1
102
RTVSPropertyOp6
 70
     1
102
RTVSPropertyOp7
 70
     1
102
RTVSPropertyOp8
 70
     1
102
RTVSPropertyOp9
 70
     1
102
RTVSPropertyOp10
 70
     1
102
RTVSPropertyOp11
 70
     1
102
RTVSPropertyOp12
 70
     1
102
RTVSPropertyOp13
 70
     1
102
RTVSPropertyOp14
 70
     1
102
RTVSPropertyOp15
 70
     1
102
RTVSPropertyOp16
 70
     1
102
RTVSPropertyOp17
 70
     1
102
RTVSPropertyOp18
 70
     1
102
RTVSPropertyOp19
 70
     1
102
RTVSPropertyOp20
 70
     1
102
RTVSPropertyOp21
 70
     1
102
RTVSPropertyOp22
 70
     1
102
RTVSPropertyOp23
 70
     1
102
RTVSPropertyOp24
 70
     1
102
RTVSPropertyOp25
 70
     1
102
RTVSPropertyOp26
 70
     1
102
RTVSPropertyOp27
 70
     1
102
RTVSPropertyOp28
 70
     1
102
RTVSPropertyOp29
 70
     1
102
RTVSPropertyOp30
 70
     1
102
RTVSPropertyOp31
 70
     1
102
RTVSPropertyOp32
 70
     1
  0
XRECORD
  5
349BC
102
{ACAD_REACTORS
330
349BB
102
}
330
349BB
100
AcDbXrecord
280
     1
102
RTVSPropertyOp0
 70
     1
102
RTVSPropertyOp1
 70
     1
102
RTVSPropertyOp2
 70
     1
102
RTVSPropertyOp3
 70
     1
102
RTVSPropertyOp4
 70
     1
102
RTVSPropertyOp5
 70
     1
102
RTVSPropertyOp6
 70
     1
102
RTVSPropertyOp7
 70
     1
102
RTVSPropertyOp8
 70
     1
102
RTVSPropertyOp9
 70
     1
102
RTVSPropertyOp10
 70
     1
102
RTVSPropertyOp11
 70
     1
102
RTVSPropertyOp12
 70
     1
102
RTVSPropertyOp13
 70
     1
102
RTVSPropertyOp14
 70
     1
102
RTVSPropertyOp15
 70
     1
102
RTVSPropertyOp16
 70
     1
102
RTVSPropertyOp17
 70
     1
102
RTVSPropertyOp18
 70
     1
102
RTVSPropertyOp19
 70
     1
102
RTVSPropertyOp20
 70
     1
102
RTVSPropertyOp21
 70
     1
102
RTVSPropertyOp22
 70
     1
102
RTVSPropertyOp23
 70
     1
102
RTVSPropertyOp24
 70
     1
102
RTVSPropertyOp25
 70
     1
102
RTVSPropertyOp26
 70
     1
102
RTVSPropertyOp27
 70
     1
102
RTVSPropertyOp28
 70
     1
102
RTVSPropertyOp29
 70
     1
102
RTVSPropertyOp30
 70
     1
102
RTVSPropertyOp31
 70
     1
102
RTVSPropertyOp32
 70
     1
  0
XRECORD
  5
349C8
102
{ACAD_REACTORS
330
349C7
102
}
330
349C7
100
AcDbXrecord
280
     1
102
RTVSPropertyOp0
 70
     0
102
RTVSPropertyOp1
 70
     0
102
RTVSPropertyOp2
 70
     0
102
RTVSPropertyOp3
 70
     0
102
RTVSPropertyOp4
 70
     0
102
RTVSPropertyOp5
 70
     0
102
RTVSPropertyOp6
 70
     0
102
RTVSPropertyOp7
 70
     0
102
RTVSPropertyOp8
 70
     0
102
RTVSPropertyOp9
 70
     0
102
RTVSPropertyOp10
 70
     0
102
RTVSPropertyOp11
 70
     0
102
RTVSPropertyOp12
 70
     0
102
RTVSPropertyOp13
 70
     0
102
RTVSPropertyOp14
 70
     2
102
RTVSPropertyOp15
 70
     0
102
RTVSPropertyOp16
 70
     0
102
RTVSPropertyOp17
 70
     0
102
RTVSPropertyOp18
 70
     0
102
RTVSPropertyOp19
 70
     0
102
RTVSPropertyOp20
 70
     0
102
RTVSPropertyOp21
 70
     0
102
RTVSPropertyOp22
 70
     0
102
RTVSPropertyOp23
 70
     0
102
RTVSPropertyOp24
 70
     0
102
RTVSPropertyOp25
 70
     0
102
RTVSPropertyOp26
 70
     0
102
RTVSPropertyOp27
 70
     0
102
RTVSPropertyOp28
 70
     1
102
RTVSPropertyOp29
 70
     1
102
RTVSPropertyOp30
 70
     1
102
RTVSPropertyOp31
 70
     1
102
RTVSPropertyOp32
 70
     1
  0
XRECORD
  5
349A4
102
{ACAD_REACTORS
330
349A3
102
}
330
349A3
100
AcDbXrecord
280
     1
102
RTVSPropertyOp0
 70
     1
102
RTVSPropertyOp1
 70
     1
102
RTVSPropertyOp2
 70
     1
102
RTVSPropertyOp3
 70
     1
102
RTVSPropertyOp4
 70
     1
102
RTVSPropertyOp5
 70
     1
102
RTVSPropertyOp6
 70
     1
102
RTVSPropertyOp7
 70
     1
102
RTVSPropertyOp8
 70
     1
102
RTVSPropertyOp9
 70
     1
102
RTVSPropertyOp10
 70
     1
102
RTVSPropertyOp11
 70
     1
102
RTVSPropertyOp12
 70
     1
102
RTVSPropertyOp13
 70
     1
102
RTVSPropertyOp14
 70
     1
102
RTVSPropertyOp15
 70
     1
102
RTVSPropertyOp16
 70
     1
102
RTVSPropertyOp17
 70
     1
102
RTVSPropertyOp18
 70
     1
102
RTVSPropertyOp19
 70
     1
102
RTVSPropertyOp20
 70
     1
102
RTVSPropertyOp21
 70
     1
102
RTVSPropertyOp22
 70
     1
102
RTVSPropertyOp23
 70
     1
102
RTVSPropertyOp24
 70
     1
102
RTVSPropertyOp25
 70
     1
102
RTVSPropertyOp26
 70
     1
102
RTVSPropertyOp27
 70
     1
102
RTVSPropertyOp28
 70
     1
102
RTVSPropertyOp29
 70
     1
102
RTVSPropertyOp30
 70
     1
102
RTVSPropertyOp31
 70
     1
102
RTVSPropertyOp32
 70
     1
  0
XRECORD
  5
349CA
102
{ACAD_REACTORS
330
349C9
102
}
330
349C9
100
AcDbXrecord
280
     1
102
RTVSPropertyOp0
 70
     0
102
RTVSPropertyOp1
 70
     0
102
RTVSPropertyOp2
 70
     0
102
RTVSPropertyOp3
 70
     0
102
RTVSPropertyOp4
 70
     0
102
RTVSPropertyOp5
 70
     0
102
RTVSPropertyOp6
 70
     0
102
RTVSPropertyOp7
 70
     0
102
RTVSPropertyOp8
 70
     0
102
RTVSPropertyOp9
 70
     0
102
RTVSPropertyOp10
 70
     0
102
RTVSPropertyOp11
 70
     0
102
RTVSPropertyOp12
 70
     0
102
RTVSPropertyOp13
 70
     0
102
RTVSPropertyOp14
 70
     2
102
RTVSPropertyOp15
 70
     0
102
RTVSPropertyOp16
 70
     0
102
RTVSPropertyOp17
 70
     0
102
RTVSPropertyOp18
 70
     0
102
RTVSPropertyOp19
 70
     0
102
RTVSPropertyOp20
 70
     0
102
RTVSPropertyOp21
 70
     0
102
RTVSPropertyOp22
 70
     0
102
RTVSPropertyOp23
 70
     0
102
RTVSPropertyOp24
 70
     0
102
RTVSPropertyOp25
 70
     0
102
RTVSPropertyOp26
 70
     0
102
RTVSPropertyOp27
 70
     0
102
RTVSPropertyOp28
 70
     1
102
RTVSPropertyOp29
 70
     1
102
RTVSPropertyOp30
 70
     1
102
RTVSPropertyOp31
 70
     1
102
RTVSPropertyOp32
 70
     1
  0
XRECORD
  5
349B8
102
{ACAD_REACTORS
330
349B7
102
}
330
349B7
100
AcDbXrecord
280
     1
102
RTVSPropertyOp0
 70
     1
102
RTVSPropertyOp1
 70
     1
102
RTVSPropertyOp2
 70
     1
102
RTVSPropertyOp3
 70
     1
102
RTVSPropertyOp4
 70
     1
102
RTVSPropertyOp5
 70
     1
102
RTVSPropertyOp6
 70
     1
102
RTVSPropertyOp7
 70
     1
102
RTVSPropertyOp8
 70
     1
102
RTVSPropertyOp9
 70
     1
102
RTVSPropertyOp10
 70
     1
102
RTVSPropertyOp11
 70
     1
102
RTVSPropertyOp12
 70
     1
102
RTVSPropertyOp13
 70
     1
102
RTVSPropertyOp14
 70
     1
102
RTVSPropertyOp15
 70
     1
102
RTVSPropertyOp16
 70
     1
102
RTVSPropertyOp17
 70
     1
102
RTVSPropertyOp18
 70
     1
102
RTVSPropertyOp19
 70
     1
102
RTVSPropertyOp20
 70
     1
102
RTVSPropertyOp21
 70
     1
102
RTVSPropertyOp22
 70
     1
102
RTVSPropertyOp23
 70
     1
102
RTVSPropertyOp24
 70
     1
102
RTVSPropertyOp25
 70
     1
102
RTVSPropertyOp26
 70
     1
102
RTVSPropertyOp27
 70
     1
102
RTVSPropertyOp28
 70
     1
102
RTVSPropertyOp29
 70
     1
102
RTVSPropertyOp30
 70
     1
102
RTVSPropertyOp31
 70
     1
102
RTVSPropertyOp32
 70
     1
  0
XRECORD
  5
349C6
102
{ACAD_REACTORS
330
349C5
102
}
330
349C5
100
AcDbXrecord
280
     1
102
RTVSPropertyOp0
 70
     1
102
RTVSPropertyOp1
 70
     1
102
RTVSPropertyOp2
 70
     1
102
RTVSPropertyOp3
 70
     1
102
RTVSPropertyOp4
 70
     1
102
RTVSPropertyOp5
 70
     1
102
RTVSPropertyOp6
 70
     1
102
RTVSPropertyOp7
 70
     1
102
RTVSPropertyOp8
 70
     1
102
RTVSPropertyOp9
 70
     1
102
RTVSPropertyOp10
 70
     1
102
RTVSPropertyOp11
 70
     1
102
RTVSPropertyOp12
 70
     1
102
RTVSPropertyOp13
 70
     1
102
RTVSPropertyOp14
 70
     1
102
RTVSPropertyOp15
 70
     1
102
RTVSPropertyOp16
 70
     1
102
RTVSPropertyOp17
 70
     1
102
RTVSPropertyOp18
 70
     1
102
RTVSPropertyOp19
 70
     1
102
RTVSPropertyOp20
 70
     1
102
RTVSPropertyOp21
 70
     1
102
RTVSPropertyOp22
 70
     1
102
RTVSPropertyOp23
 70
     1
102
RTVSPropertyOp24
 70
     1
102
RTVSPropertyOp25
 70
     1
102
RTVSPropertyOp26
 70
     1
102
RTVSPropertyOp27
 70
     1
102
RTVSPropertyOp28
 70
     1
102
RTVSPropertyOp29
 70
     1
102
RTVSPropertyOp30
 70
     1
102
RTVSPropertyOp31
 70
     1
102
RTVSPropertyOp32
 70
     1
  0
XRECORD
  5
349C4
102
{ACAD_REACTORS
330
349C3
102
}
330
349C3
100
AcDbXrecord
280
     1
102
RTVSPropertyOp0
 70
     1
102
RTVSPropertyOp1
 70
     1
102
RTVSPropertyOp2
 70
     1
102
RTVSPropertyOp3
 70
     1
102
RTVSPropertyOp4
 70
     1
102
RTVSPropertyOp5
 70
     1
102
RTVSPropertyOp6
 70
     1
102
RTVSPropertyOp7
 70
     1
102
RTVSPropertyOp8
 70
     1
102
RTVSPropertyOp9
 70
     1
102
RTVSPropertyOp10
 70
     1
102
RTVSPropertyOp11
 70
     1
102
RTVSPropertyOp12
 70
     1
102
RTVSPropertyOp13
 70
     1
102
RTVSPropertyOp14
 70
     1
102
RTVSPropertyOp15
 70
     1
102
RTVSPropertyOp16
 70
     1
102
RTVSPropertyOp17
 70
     1
102
RTVSPropertyOp18
 70
     1
102
RTVSPropertyOp19
 70
     1
102
RTVSPropertyOp20
 70
     1
102
RTVSPropertyOp21
 70
     1
102
RTVSPropertyOp22
 70
     1
102
RTVSPropertyOp23
 70
     1
102
RTVSPropertyOp24
 70
     1
102
RTVSPropertyOp25
 70
     1
102
RTVSPropertyOp26
 70
     1
102
RTVSPropertyOp27
 70
     1
102
RTVSPropertyOp28
 70
     1
102
RTVSPropertyOp29
 70
     1
102
RTVSPropertyOp30
 70
     1
102
RTVSPropertyOp31
 70
     1
102
RTVSPropertyOp32
 70
     1
  0
XRECORD
  5
349BE
102
{ACAD_REACTORS
330
349BD
102
}
330
349BD
100
AcDbXrecord
280
     1
102
RTVSPropertyOp0
 70
     1
102
RTVSPropertyOp1
 70
     1
102
RTVSPropertyOp2
 70
     1
102
RTVSPropertyOp3
 70
     1
102
RTVSPropertyOp4
 70
     1
102
RTVSPropertyOp5
 70
     1
102
RTVSPropertyOp6
 70
     1
102
RTVSPropertyOp7
 70
     1
102
RTVSPropertyOp8
 70
     1
102
RTVSPropertyOp9
 70
     1
102
RTVSPropertyOp10
 70
     1
102
RTVSPropertyOp11
 70
     1
102
RTVSPropertyOp12
 70
     1
102
RTVSPropertyOp13
 70
     1
102
RTVSPropertyOp14
 70
     1
102
RTVSPropertyOp15
 70
     1
102
RTVSPropertyOp16
 70
     1
102
RTVSPropertyOp17
 70
     1
102
RTVSPropertyOp18
 70
     1
102
RTVSPropertyOp19
 70
     1
102
RTVSPropertyOp20
 70
     1
102
RTVSPropertyOp21
 70
     1
102
RTVSPropertyOp22
 70
     1
102
RTVSPropertyOp23
 70
     1
102
RTVSPropertyOp24
 70
     1
102
RTVSPropertyOp25
 70
     1
102
RTVSPropertyOp26
 70
     1
102
RTVSPropertyOp27
 70
     1
102
RTVSPropertyOp28
 70
     1
102
RTVSPropertyOp29
 70
     1
102
RTVSPropertyOp30
 70
     1
102
RTVSPropertyOp31
 70
     1
102
RTVSPropertyOp32
 70
     1
  0
XRECORD
  5
349C0
102
{ACAD_REACTORS
330
349BF
102
}
330
349BF
100
AcDbXrecord
280
     1
102
RTVSPropertyOp0
 70
     1
102
RTVSPropertyOp1
 70
     1
102
RTVSPropertyOp2
 70
     1
102
RTVSPropertyOp3
 70
     1
102
RTVSPropertyOp4
 70
     1
102
RTVSPropertyOp5
 70
     1
102
RTVSPropertyOp6
 70
     1
102
RTVSPropertyOp7
 70
     1
102
RTVSPropertyOp8
 70
     1
102
RTVSPropertyOp9
 70
     1
102
RTVSPropertyOp10
 70
     1
102
RTVSPropertyOp11
 70
     1
102
RTVSPropertyOp12
 70
     1
102
RTVSPropertyOp13
 70
     1
102
RTVSPropertyOp14
 70
     1
102
RTVSPropertyOp15
 70
     1
102
RTVSPropertyOp16
 70
     1
102
RTVSPropertyOp17
 70
     1
102
RTVSPropertyOp18
 70
     1
102
RTVSPropertyOp19
 70
     1
102
RTVSPropertyOp20
 70
     1
102
RTVSPropertyOp21
 70
     1
102
RTVSPropertyOp22
 70
     1
102
RTVSPropertyOp23
 70
     1
102
RTVSPropertyOp24
 70
     1
102
RTVSPropertyOp25
 70
     1
102
RTVSPropertyOp26
 70
     1
102
RTVSPropertyOp27
 70
     1
102
RTVSPropertyOp28
 70
     1
102
RTVSPropertyOp29
 70
     1
102
RTVSPropertyOp30
 70
     1
102
RTVSPropertyOp31
 70
     1
102
RTVSPropertyOp32
 70
     1
  0
XRECORD
  5
349A2
102
{ACAD_REACTORS
330
349A1
102
}
330
349A1
100
AcDbXrecord
280
     1
102
RTVSPropertyOp0
 70
     1
102
RTVSPropertyOp1
 70
     1
102
RTVSPropertyOp2
 70
     1
102
RTVSPropertyOp3
 70
     1
102
RTVSPropertyOp4
 70
     1
102
RTVSPropertyOp5
 70
     1
102
RTVSPropertyOp6
 70
     1
102
RTVSPropertyOp7
 70
     1
102
RTVSPropertyOp8
 70
     1
102
RTVSPropertyOp9
 70
     1
102
RTVSPropertyOp10
 70
     1
102
RTVSPropertyOp11
 70
     1
102
RTVSPropertyOp12
 70
     1
102
RTVSPropertyOp13
 70
     1
102
RTVSPropertyOp14
 70
     1
102
RTVSPropertyOp15
 70
     1
102
RTVSPropertyOp16
 70
     1
102
RTVSPropertyOp17
 70
     1
102
RTVSPropertyOp18
 70
     1
102
RTVSPropertyOp19
 70
     1
102
RTVSPropertyOp20
 70
     1
102
RTVSPropertyOp21
 70
     1
102
RTVSPropertyOp22
 70
     1
102
RTVSPropertyOp23
 70
     1
102
RTVSPropertyOp24
 70
     1
102
RTVSPropertyOp25
 70
     1
102
RTVSPropertyOp26
 70
     1
102
RTVSPropertyOp27
 70
     1
102
RTVSPropertyOp28
 70
     1
102
RTVSPropertyOp29
 70
     1
102
RTVSPropertyOp30
 70
     1
102
RTVSPropertyOp31
 70
     1
102
RTVSPropertyOp32
 70
     1
  0
XRECORD
  5
349BA
102
{ACAD_REACTORS
330
349B9
102
}
330
349B9
100
AcDbXrecord
280
     1
102
RTVSPropertyOp0
 70
     1
102
RTVSPropertyOp1
 70
     1
102
RTVSPropertyOp2
 70
     1
102
RTVSPropertyOp3
 70
     1
102
RTVSPropertyOp4
 70
     1
102
RTVSPropertyOp5
 70
     1
102
RTVSPropertyOp6
 70
     1
102
RTVSPropertyOp7
 70
     1
102
RTVSPropertyOp8
 70
     1
102
RTVSPropertyOp9
 70
     1
102
RTVSPropertyOp10
 70
     1
102
RTVSPropertyOp11
 70
     1
102
RTVSPropertyOp12
 70
     1
102
RTVSPropertyOp13
 70
     1
102
RTVSPropertyOp14
 70
     1
102
RTVSPropertyOp15
 70
     1
102
RTVSPropertyOp16
 70
     1
102
RTVSPropertyOp17
 70
     1
102
RTVSPropertyOp18
 70
     1
102
RTVSPropertyOp19
 70
     1
102
RTVSPropertyOp20
 70
     1
102
RTVSPropertyOp21
 70
     1
102
RTVSPropertyOp22
 70
     1
102
RTVSPropertyOp23
 70
     1
102
RTVSPropertyOp24
 70
     1
102
RTVSPropertyOp25
 70
     1
102
RTVSPropertyOp26
 70
     1
102
RTVSPropertyOp27
 70
     1
102
RTVSPropertyOp28
 70
     1
102
RTVSPropertyOp29
 70
     1
102
RTVSPropertyOp30
 70
     1
102
RTVSPropertyOp31
 70
     1
102
RTVSPropertyOp32
 70
     1
  0
XRECORD
  5
349C2
102
{ACAD_REACTORS
330
349C1
102
}
330
349C1
100
AcDbXrecord
280
     1
102
RTVSPropertyOp0
 70
     1
102
RTVSPropertyOp1
 70
     1
102
RTVSPropertyOp2
 70
     1
102
RTVSPropertyOp3
 70
     1
102
RTVSPropertyOp4
 70
     1
102
RTVSPropertyOp5
 70
     1
102
RTVSPropertyOp6
 70
     1
102
RTVSPropertyOp7
 70
     1
102
RTVSPropertyOp8
 70
     1
102
RTVSPropertyOp9
 70
     1
102
RTVSPropertyOp10
 70
     1
102
RTVSPropertyOp11
 70
     1
102
RTVSPropertyOp12
 70
     1
102
RTVSPropertyOp13
 70
     1
102
RTVSPropertyOp14
 70
     1
102
RTVSPropertyOp15
 70
     1
102
RTVSPropertyOp16
 70
     1
102
RTVSPropertyOp17
 70
     1
102
RTVSPropertyOp18
 70
     1
102
RTVSPropertyOp19
 70
     1
102
RTVSPropertyOp20
 70
     1
102
RTVSPropertyOp21
 70
     1
102
RTVSPropertyOp22
 70
     1
102
RTVSPropertyOp23
 70
     1
102
RTVSPropertyOp24
 70
     1
102
RTVSPropertyOp25
 70
     1
102
RTVSPropertyOp26
 70
     1
102
RTVSPropertyOp27
 70
     1
102
RTVSPropertyOp28
 70
     1
102
RTVSPropertyOp29
 70
     1
102
RTVSPropertyOp30
 70
     1
102
RTVSPropertyOp31
 70
     1
102
RTVSPropertyOp32
 70
     1
  0
ENDSEC
  0
EOF
