  0
SECTION
  2
HEADER
  9
$ACADVER
  1
AC1015
  9
$ACADMAINTVER
 70
    20
  9
$DWGCODEPAGE
  3
ANSI_1252
  9
$INSBASE
 10
1.235102848601107
 20
11.24774640129371
 30
0.0
  9
$EXTMIN
 10
11.43001484629069
 20
13.51153831381711
 30
0.0
  9
$EXTMAX
 10
29.58431691082698
 20
20.41622930812338
 30
0.0
  9
$LIMMIN
 10
0.0
 20
0.0
  9
$LIMMAX
 10
12.0
 20
9.0
  9
$ORTHOMODE
 70
     0
  9
$REGENMODE
 70
     1
  9
$FILLMODE
 70
     1
  9
$QTEXTMODE
 70
     0
  9
$MIRRTEXT
 70
     0
  9
$LTSCALE
 40
1.0
  9
$ATTMODE
 70
     1
  9
$TEXTSIZE
 40
0.25
  9
$TRACEWID
 40
0.05
  9
$TEXTSTYLE
  7
STD
  9
$CLAYER
  8
0
  9
$CELTYPE
  6
BYLAYER
  9
$CECOLOR
 62
   256
  9
$CELTSCALE
 40
1.0
  9
$DISPSILH
 70
     0
  9
$DIMSCALE
 40
1.0
  9
$DIMASZ
 40
0.18
  9
$DIMEXO
 40
0.0625
  9
$DIMDLI
 40
0.38
  9
$DIMRND
 40
0.0
  9
$DIMDLE
 40
0.0
  9
$DIMEXE
 40
0.18
  9
$DIMTP
 40
0.0
  9
$DIMTM
 40
0.0
  9
$DIMTXT
 40
0.18
  9
$DIMCEN
 40
0.09
  9
$DIMTSZ
 40
0.0
  9
$DIMTOL
 70
     0
  9
$DIMLIM
 70
     0
  9
$DIMTIH
 70
     1
  9
$DIMTOH
 70
     1
  9
$DIMSE1
 70
     0
  9
$DIMSE2
 70
     0
  9
$DIMTAD
 70
     0
  9
$DIMZIN
 70
     0
  9
$DIMBLK
  1

  9
$DIMASO
 70
     1
  9
$DIMSHO
 70
     1
  9
$DIMPOST
  1

  9
$DIMAPOST
  1

  9
$DIMALT
 70
     0
  9
$DIMALTD
 70
     2
  9
$DIMALTF
 40
25.4
  9
$DIMLFAC
 40
1.0
  9
$DIMTOFL
 70
     0
  9
$DIMTVP
 40
0.0
  9
$DIMTIX
 70
     0
  9
$DIMSOXD
 70
     0
  9
$DIMSAH
 70
     0
  9
$DIMBLK1
  1

  9
$DIMBLK2
  1

  9
$DIMSTYLE
  2
Standard
  9
$DIMCLRD
 70
     0
  9
$DIMCLRE
 70
     0
  9
$DIMCLRT
 70
     0
  9
$DIMTFAC
 40
1.0
  9
$DIMGAP
 40
0.09
  9
$DIMJUST
 70
     0
  9
$DIMSD1
 70
     0
  9
$DIMSD2
 70
     0
  9
$DIMTOLJ
 70
     1
  9
$DIMTZIN
 70
     0
  9
$DIMALTZ
 70
     0
  9
$DIMALTTZ
 70
     0
  9
$DIMUPT
 70
     0
  9
$DIMDEC
 70
     4
  9
$DIMTDEC
 70
     4
  9
$DIMALTU
 70
     2
  9
$DIMALTTD
 70
     2
  9
$DIMTXSTY
  7
STANDARD
  9
$DIMAUNIT
 70
     0
  9
$DIMADEC
 70
     0
  9
$DIMALTRND
 40
0.0
  9
$DIMAZIN
 70
     0
  9
$DIMDSEP
 70
    46
  9
$DIMATFIT
 70
     3
  9
$DIMFRAC
 70
     0
  9
$DIMLDRBLK
  1

  9
$DIMLUNIT
 70
     2
  9
$DIMLWD
 70
    -2
  9
$DIMLWE
 70
    -2
  9
$DIMTMOVE
 70
     0
  9
$LUNITS
 70
     5
  9
$LUPREC
 70
     6
  9
$SKETCHINC
 40
0.1
  9
$FILLETRAD
 40
0.0
  9
$AUNITS
 70
     0
  9
$AUPREC
 70
     0
  9
$MENU
  1
.
  9
$ELEVATION
 40
0.0
  9
$PELEVATION
 40
0.0
  9
$THICKNESS
 40
0.0
  9
$LIMCHECK
 70
     0
  9
$CHAMFERA
 40
0.5
  9
$CHAMFERB
 40
0.5
  9
$CHAMFERC
 40
1.0
  9
$CHAMFERD
 40
0.0
  9
$SKPOLY
 70
     0
  9
$TDCREATE
 40
2451225.386950695
  9
$TDUCREATE
 40
2451225.595284028
  9
$TDUPDATE
 40
2456114.651384896
  9
$TDUUPDATE
 40
2456114.859718229
  9
$TDINDWG
 40
0.5848622106
  9
$TDUSRTIMER
 40
0.5848622106
  9
$USRTIMER
 70
     1
  9
$ANGBASE
 50
0.0
  9
$ANGDIR
 70
     0
  9
$PDMODE
 70
     3
  9
$PDSIZE
 40
0.0
  9
$PLINEWID
 40
0.0
  9
$SPLFRAME
 70
     0
  9
$SPLINETYPE
 70
     6
  9
$SPLINESEGS
 70
     8
  9
$HANDSEED
  5
3588F
  9
$SURFTAB1
 70
     6
  9
$SURFTAB2
 70
     6
  9
$SURFTYPE
 70
     6
  9
$SURFU
 70
     6
  9
$SURFV
 70
     6
  9
$UCSBASE
  2

  9
$UCSNAME
  2

  9
$UCSORG
 10
0.0
 20
0.0
 30
0.0
  9
$UCSXDIR
 10
1.0
 20
0.0
 30
0.0
  9
$UCSYDIR
 10
0.0
 20
1.0
 30
0.0
  9
$UCSORTHOREF
  2

  9
$UCSORTHOVIEW
 70
     0
  9
$UCSORGTOP
 10
0.0
 20
0.0
 30
0.0
  9
$UCSORGBOTTOM
 10
0.0
 20
0.0
 30
0.0
  9
$UCSORGLEFT
 10
0.0
 20
0.0
 30
0.0
  9
$UCSORGRIGHT
 10
0.0
 20
0.0
 30
0.0
  9
$UCSORGFRONT
 10
0.0
 20
0.0
 30
0.0
  9
$UCSORGBACK
 10
0.0
 20
0.0
 30
0.0
  9
$PUCSBASE
  2

  9
$PUCSNAME
  2

  9
$PUCSORG
 10
0.0
 20
0.0
 30
0.0
  9
$PUCSXDIR
 10
1.0
 20
0.0
 30
0.0
  9
$PUCSYDIR
 10
0.0
 20
1.0
 30
0.0
  9
$PUCSORTHOREF
  2

  9
$PUCSORTHOVIEW
 70
     0
  9
$PUCSORGTOP
 10
0.0
 20
0.0
 30
0.0
  9
$PUCSORGBOTTOM
 10
0.0
 20
0.0
 30
0.0
  9
$PUCSORGLEFT
 10
0.0
 20
0.0
 30
0.0
  9
$PUCSORGRIGHT
 10
0.0
 20
0.0
 30
0.0
  9
$PUCSORGFRONT
 10
0.0
 20
0.0
 30
0.0
  9
$PUCSORGBACK
 10
0.0
 20
0.0
 30
0.0
  9
$USERI1
 70
     0
  9
$USERI2
 70
     0
  9
$USERI3
 70
     0
  9
$USERI4
 70
     0
  9
$USERI5
 70
     0
  9
$USERR1
 40
0.0
  9
$USERR2
 40
0.0
  9
$USERR3
 40
0.0
  9
$USERR4
 40
0.0
  9
$USERR5
 40
0.0
  9
$WORLDVIEW
 70
     1
  9
$SHADEDGE
 70
     3
  9
$SHADEDIF
 70
    70
  9
$TILEMODE
 70
     1
  9
$MAXACTVP
 70
    48
  9
$PINSBASE
 10
0.0
 20
0.0
 30
0.0
  9
$PLIMCHECK
 70
     0
  9
$PEXTMIN
 10
0.0
 20
0.0
 30
0.0
  9
$PEXTMAX
 10
10.205
 20
7.764780009564798
 30
0.0
  9
$PLIMMIN
 10
-0.2079161059762549
 20
-0.2079166691697489
  9
$PLIMMAX
 10
10.79208365372785
 20
8.29208309053436
  9
$UNITMODE
 70
     0
  9
$VISRETAIN
 70
     1
  9
$PLINEGEN
 70
     0
  9
$PSLTSCALE
 70
     1
  9
$TREEDEPTH
 70
     0
  9
$CMLSTYLE
  2
STANDARD
  9
$CMLJUST
 70
     0
  9
$CMLSCALE
 40
1.0
  9
$PROXYGRAPHICS
 70
     1
  9
$MEASUREMENT
 70
     0
  9
$CELWEIGHT
370
    -1
  9
$ENDCAPS
280
     0
  9
$JOINSTYLE
280
     0
  9
$LWDISPLAY
290
     0
  9
$INSUNITS
 70
     1
  9
$HYPERLINKBASE
  1

  9
$STYLESHEET
  1
5000N-BLACK.CTB
  9
$XEDIT
290
     1
  9
$CEPSNTYPE
380
     0
  9
$PSTYLEMODE
290
     1
  9
$FINGERPRINTGUID
  2
{B3E5E9A9-FEC4-11D2-95EF-00104B2EF1F9}
  9
$VERSIONGUID
  2
{14F13606-6938-42CE-8D50-9A304C508EE8}
  9
$EXTNAMES
290
     1
  9
$PSVPSCALE
 40
0.0
  9
$OLESTARTUP
290
     0
  0
ENDSEC
  0
SECTION
  2
CLASSES
  0
CLASS
  1
IDBUFFER
  2
AcDbIdBuffer
  3
ObjectDBX Classes
 90
    32768
280
     0
281
     0
  0
CLASS
  1
ACDBDICTIONARYWDFLT
  2
AcDbDictionaryWithDefault
  3
ObjectDBX Classes
 90
        0
280
     0
281
     0
  0
CLASS
  1
ACDBPLACEHOLDER
  2
AcDbPlaceHolder
  3
ObjectDBX Classes
 90
        0
280
     0
281
     0
  0
CLASS
  1
LAYOUT
  2
AcDbLayout
  3
ObjectDBX Classes
 90
        0
280
     0
281
     0
  0
CLASS
  1
DICTIONARYVAR
  2
AcDbDictionaryVar
  3
ObjectDBX Classes
 90
        0
280
     0
281
     0
  0
CLASS
  1
TABLESTYLE
  2
AcDbTableStyle
  3
ObjectDBX Classes
 90
     4095
280
     0
281
     0
  0
CLASS
  1
PLOTSETTINGS
  2
AcDbPlotSettings
  3
ObjectDBX Classes
 90
        0
280
     0
281
     0
  0
CLASS
  1
MATERIAL
  2
AcDbMaterial
  3
ObjectDBX Classes
 90
     1153
280
     0
281
     0
  0
CLASS
  1
VISUALSTYLE
  2
AcDbVisualStyle
  3
ObjectDBX Classes
 90
     4095
280
     0
281
     0
  0
CLASS
  1
SORTENTSTABLE
  2
AcDbSortentsTable
  3
ObjectDBX Classes
 90
        0
280
     0
281
     0
  0
CLASS
  1
FIELD
  2
AcDbField
  3
ObjectDBX Classes
 90
    33920
280
     0
281
     0
  0
CLASS
  1
FIELDLIST
  2
AcDbFieldList
  3
ObjectDBX Classes
 90
     1152
280
     0
281
     0
  0
CLASS
  1
EXACTERMXREFMAP
  2
ExAcTermXrefMap
  3
EXAC_SERVICE
 90
    33793
280
     0
281
     0
  0
CLASS
  1
NPOCOLLECTION
  2
AcDbImpNonPersistentObjectsCollection
  3
ObjectDBX Classes
 90
    33921
280
     0
281
     0
  0
CLASS
  1
EXACXREFPANELOBJECT
  2
ExAcXREFPanelObject
  3
EXAC_ESW
 90
    33793
280
     0
281
     0
  0
CLASS
  1
ACAD_EVALUATION_GRAPH
  2
AcDbEvalGraph
  3
ObjectDBX Classes
 90
    33921
280
     0
281
     0
  0
CLASS
  1
BLOCKBASEPOINTPARAMETER
  2
AcDbBlockBasepointParameter
  3
ObjectDBX Classes
 90
    33921
280
     0
281
     0
  0
CLASS
  1
BLOCKVISIBILITYPARAMETER
  2
AcDbBlockVisibilityParameter
  3
ObjectDBX Classes
 90
    33921
280
     0
281
     0
  0
CLASS
  1
BLOCKVISIBILITYGRIP
  2
AcDbBlockVisibilityGrip
  3
ObjectDBX Classes
 90
    33921
280
     0
281
     0
  0
CLASS
  1
BLOCKGRIPLOCATIONCOMPONENT
  2
AcDbBlockGripExpr
  3
ObjectDBX Classes
 90
    33921
280
     0
281
     0
  0
CLASS
  1
ACDB_DYNAMICBLOCKPURGEPREVENTER_VERSION
  2
AcDbDynamicBlockPurgePreventer
  3
ObjectDBX Classes
 90
    33921
280
     0
281
     0
  0
CLASS
  1
ACAECUSTOBJ
  2
AcAeEditorObj
  3
AcAeEditorObj
 90
    33792
280
     0
281
     0
  0
CLASS
  1
BASEPOINTPARAMETERENTITY
  2
AcDbBlockBasepointParameterEntity
  3
ObjectDBX Classes
 90
    33793
280
     0
281
     1
  0
CLASS
  1
ACAEEEMGROBJ
  2
AcAeEEMgrObj
  3
AcAeEEMgrObj
 90
    33792
280
     0
281
     0
  0
CLASS
  1
VISIBILITYPARAMETERENTITY
  2
AcDbBlockVisibilityParameterEntity
  3
ObjectDBX Classes
 90
    33793
280
     0
281
     1
  0
CLASS
  1
VISIBILITYGRIPENTITY
  2
AcDbBlockVisibilityGripEntity
  3
ObjectDBX Classes
 90
    33793
280
     0
281
     1
  0
CLASS
  1
ACDB_BLOCKREPRESENTATION_DATA
  2
AcDbBlockRepresentationData
  3
ObjectDBX Classes
 90
    33921
280
     0
281
     0
  0
CLASS
  1
DIMASSOC
  2
AcDbDimAssoc
  3
"AcDbDimAssoc|Product Desc:     AcDim ARX App For Dimension|Company:          Autodesk, Inc.|WEB Address:      www.autodesk.com"
 90
    32768
280
     0
281
     0
  0
CLASS
  1
SCALE
  2
AcDbScale
  3
ObjectDBX Classes
 90
     1153
280
     0
281
     0
  0
CLASS
  1
MLEADERSTYLE
  2
AcDbMLeaderStyle
  3
ACDB_MLEADERSTYLE_CLASS
 90
     4095
280
     0
281
     0
  0
CLASS
  1
CELLSTYLEMAP
  2
AcDbCellStyleMap
  3
ObjectDBX Classes
 90
     1152
280
     0
281
     0
  0
ENDSEC
  0
SECTION
  2
TABLES
  0
TABLE
  2
VPORT
  5
1A
102
{ACAD_XDICTIONARY
360
139C
102
}
330
0
100
AcDbSymbolTable
 70
     1
  0
VPORT
  5
882
330
1A
100
AcDbSymbolTableRecord
100
AcDbViewportTableRecord
  2
*Active
 70
     0
 10
0.0
 20
0.0
 11
1.0
 21
1.0
 12
20.50714650841179
 22
17.55323862494335
 13
0.0
 23
0.0
 14
0.5
 24
0.5
 15
0.5
 25
0.5
 16
0.0
 26
0.0
 36
1.0
 17
0.0
 27
0.0
 37
0.0
 40
7.086813806791316
 41
2.570469798657718
 42
50.0
 43
0.0
 44
0.0
 50
0.0
 51
0.0
 71
     0
 72
 20000
 73
     1
 74
     1
 75
     0
 76
     0
 77
     0
 78
     1
281
     0
 65
     1
110
0.0
120
0.0
130
0.0
111
1.0
121
0.0
131
0.0
112
0.0
122
1.0
132
0.0
 79
     0
146
0.0
1001
ACAD_NAV_VCDISPLAY
1070
     3
  0
ENDTAB
  0
TABLE
  2
LTYPE
  5
15
330
0
100
AcDbSymbolTable
 70
     4
  0
LTYPE
  5
16
330
15
100
AcDbSymbolTableRecord
100
AcDbLinetypeTableRecord
  2
BYBLOCK
 70
     0
  3

 72
    65
 73
     0
 40
0.0
  0
LTYPE
  5
17
330
15
100
AcDbSymbolTableRecord
100
AcDbLinetypeTableRecord
  2
BYLAYER
 70
     0
  3

 72
    65
 73
     0
 40
0.0
  0
LTYPE
  5
8
330
15
100
AcDbSymbolTableRecord
100
AcDbLinetypeTableRecord
  2
CONTINUOUS
 70
     0
  3
Solid line
 72
    65
 73
     0
 40
0.0
  0
LTYPE
  5
1A5A
330
15
100
AcDbSymbolTableRecord
100
AcDbLinetypeTableRecord
  2
HIDDEN
 70
     0
  3
Hidden __ __ __ __ __ __ __ __ __ __ __ __ __ _
 72
    65
 73
     2
 40
0.375
 49
0.25
 74
     0
 49
-0.125
 74
     0
  0
LTYPE
  5
1A5B
330
15
100
AcDbSymbolTableRecord
100
AcDbLinetypeTableRecord
  2
HIDDEN2
 70
     0
  3
Hidden (.5x) _ _ _ _ _ _ _ _ _ _ _ _ _ _ _ _ _
 72
    65
 73
     2
 40
0.1875
 49
0.125
 74
     0
 49
-0.0625
 74
     0
  0
LTYPE
  5
1A5D
330
15
100
AcDbSymbolTableRecord
100
AcDbLinetypeTableRecord
  2
PHANTOM
 70
     0
  3
Phantom ______  __  __  ______  __  __  ______
 72
    65
 73
     6
 40
2.5
 49
1.25
 74
     0
 49
-0.25
 74
     0
 49
0.25
 74
     0
 49
-0.25
 74
     0
 49
0.25
 74
     0
 49
-0.25
 74
     0
  0
ENDTAB
  0
TABLE
  2
LAYER
  5
11
102
{ACAD_XDICTIONARY
360
899
102
}
330
0
100
AcDbSymbolTable
 70
     7
  0
LAYER
  5
4
102
{ACAD_XDICTIONARY
360
34BB8
102
}
330
11
100
AcDbSymbolTableRecord
100
AcDbLayerTableRecord
  2
0
 70
     0
 62
     7
  6
CONTINUOUS
370
    -3
390
5
1001
RAK
1000
{ACET-LAYISO
1070
     0
1070
     7
1000
CONTINUOUS
1071
       -3
1071
        1
1005
5
1000
ACET-LAYISO}
  0
LAYER
  5
1A61
102
{ACAD_XDICTIONARY
360
1A62
102
}
330
11
100
AcDbSymbolTableRecord
100
AcDbLayerTableRecord
  2
DIM
 70
     0
 62
     1
  6
CONTINUOUS
370
    -3
390
5
  0
LAYER
  5
1A67
102
{ACAD_XDICTIONARY
360
1A68
102
}
330
11
100
AcDbSymbolTableRecord
100
AcDbLayerTableRecord
  2
GRID
 70
     0
 62
     2
  6
CONTINUOUS
370
    -3
390
5
  0
LAYER
  5
1A79
102
{ACAD_XDICTIONARY
360
1A7A
102
}
330
11
100
AcDbSymbolTableRecord
100
AcDbLayerTableRecord
  2
HATCH
 70
     0
 62
     2
  6
CONTINUOUS
370
    -3
390
5
  0
LAYER
  5
1A7C
102
{ACAD_XDICTIONARY
360
1A7D
102
}
330
11
100
AcDbSymbolTableRecord
100
AcDbLayerTableRecord
  2
SECTION
 70
     0
 62
   253
  6
PHANTOM
370
    -3
390
5
  0
LAYER
  5
1A7F
102
{ACAD_XDICTIONARY
360
1A80
102
}
330
11
100
AcDbSymbolTableRecord
100
AcDbLayerTableRecord
  2
DETAIL
 70
     0
 62
     1
  6
CONTINUOUS
370
    -3
390
5
  0
LAYER
  5
1A91
102
{ACAD_XDICTIONARY
360
1A92
102
}
330
11
100
AcDbSymbolTableRecord
100
AcDbLayerTableRecord
  2
PANEL
 70
     0
 62
    60
  6
CONTINUOUS
370
    -3
390
5
1001
AcAecLayerStandard
1000

1000

  0
ENDTAB
  0
TABLE
  2
STYLE
  5
12
330
0
100
AcDbSymbolTable
 70
     2
  0
STYLE
  5
13
330
12
100
AcDbSymbolTableRecord
100
AcDbTextStyleTableRecord
  2
STANDARD
 70
     0
 40
0.0
 41
1.0
 50
0.0
 71
     0
 42
0.2
  3
arial.ttf
  4

1001
ACAD
1000
Arial CYR
1071
    52258
  0
STYLE
  5
20
330
12
100
AcDbSymbolTableRecord
100
AcDbTextStyleTableRecord
  2
STD
 70
     0
 40
0.0
 41
1.0
 50
0.0
 71
     0
 42
0.25
  3
arial.ttf
  4

1001
ACAD
1000
Arial CYR
1071
    52258
  0
ENDTAB
  0
TABLE
  2
VIEW
  5
18
330
0
100
AcDbSymbolTable
 70
     0
  0
ENDTAB
  0
TABLE
  2
UCS
  5
19
330
0
100
AcDbSymbolTable
 70
     0
  0
ENDTAB
  0
TABLE
  2
APPID
  5
1C
330
0
100
AcDbSymbolTable
 70
    25
  0
APPID
  5
1D
330
1C
100
AcDbSymbolTableRecord
100
AcDbRegAppTableRecord
  2
ACAD
 70
     0
  0
APPID
  5
9
330
1C
100
AcDbSymbolTableRecord
100
AcDbRegAppTableRecord
  2
RAK
 70
     0
  0
APPID
  5
3A
330
1C
100
AcDbSymbolTableRecord
100
AcDbRegAppTableRecord
  2
DCO15
 70
     0
  0
APPID
  5
126
330
1C
100
AcDbSymbolTableRecord
100
AcDbRegAppTableRecord
  2
ABNSLEADERTOOLS
 70
     0
  0
APPID
  5
895
330
1C
100
AcDbSymbolTableRecord
100
AcDbRegAppTableRecord
  2
ACAD_PSEXT
 70
     0
  0
APPID
  5
A2A
330
1C
100
AcDbSymbolTableRecord
100
AcDbRegAppTableRecord
  2
ACAD_DSTYLE_DIMTEXT_FILL
 70
     0
  0
APPID
  5
10A5
330
1C
100
AcDbSymbolTableRecord
100
AcDbRegAppTableRecord
  2
AcAecLayerStandard
 70
     0
  0
APPID
  5
198C
330
1C
100
AcDbSymbolTableRecord
100
AcDbRegAppTableRecord
  2
AcDbBlockRepETag
 70
     0
  0
APPID
  5
198D
330
1C
100
AcDbSymbolTableRecord
100
AcDbRegAppTableRecord
  2
AcLayerTools
 70
     0
  0
APPID
  5
1A37
330
1C
100
AcDbSymbolTableRecord
100
AcDbRegAppTableRecord
  2
ACAD_DSTYLE_DIMJAG
 70
     0
  0
APPID
  5
1A38
330
1C
100
AcDbSymbolTableRecord
100
AcDbRegAppTableRecord
  2
ACAD_DSTYLE_DIMBREAK
 70
     0
  0
APPID
  5
1A39
330
1C
100
AcDbSymbolTableRecord
100
AcDbRegAppTableRecord
  2
AcadAnnotative
 70
     0
  0
APPID
  5
1A3A
330
1C
100
AcDbSymbolTableRecord
100
AcDbRegAppTableRecord
  2
ACAD_DSTYLE_DIMTALN
 70
     0
  0
APPID
  5
1A3B
330
1C
100
AcDbSymbolTableRecord
100
AcDbRegAppTableRecord
  2
AcadAnnoAV
 70
     0
  0
APPID
  5
1D4C
330
1C
100
AcDbSymbolTableRecord
100
AcDbRegAppTableRecord
  2
ACAD_MLEADERVER
 70
     0
  0
APPID
  5
1D4D
330
1C
100
AcDbSymbolTableRecord
100
AcDbRegAppTableRecord
  2
AcadAnnoPO
 70
     0
  0
APPID
  5
1D4E
330
1C
100
AcDbSymbolTableRecord
100
AcDbRegAppTableRecord
  2
ACAD_DSTYLE_DIMRADIAL_EXTENSION
 70
     0
  0
APPID
  5
8637
330
1C
100
AcDbSymbolTableRecord
100
AcDbRegAppTableRecord
  2
AcDbDynamicBlockTrueName
 70
     0
  0
APPID
  5
8638
330
1C
100
AcDbSymbolTableRecord
100
AcDbRegAppTableRecord
  2
AcDbDynamicBlockGUID
 70
     0
  0
APPID
  5
EECA
330
1C
100
AcDbSymbolTableRecord
100
AcDbRegAppTableRecord
  2
ACAUTHENVIRON
 70
     0
  0
APPID
  5
EED2
330
1C
100
AcDbSymbolTableRecord
100
AcDbRegAppTableRecord
  2
AcDbBlockRepBTag
 70
     0
  0
APPID
  5
31EA1
330
1C
100
AcDbSymbolTableRecord
100
AcDbRegAppTableRecord
  2
ACAD_EXEMPT_FROM_CAD_STANDARDS
 70
     0
  0
APPID
  5
34B9A
330
1C
100
AcDbSymbolTableRecord
100
AcDbRegAppTableRecord
  2
GradientColor1ACI
 70
     0
  0
APPID
  5
34B9B
330
1C
100
AcDbSymbolTableRecord
100
AcDbRegAppTableRecord
  2
GradientColor2ACI
 70
     0
  0
APPID
  5
34C64
330
1C
100
AcDbSymbolTableRecord
100
AcDbRegAppTableRecord
  2
ACAD_NAV_VCDISPLAY
 70
     0
  0
ENDTAB
  0
TABLE
  2
DIMSTYLE
  5
1E
330
0
100
AcDbSymbolTable
 70
     1
100
AcDbDimStyleTable
 71
     1
340
172
  0
DIMSTYLE
105
172
330
1E
100
AcDbSymbolTableRecord
100
AcDbDimStyleTableRecord
  2
Standard
 70
     0
340
13
  0
ENDTAB
  0
TABLE
  2
BLOCK_RECORD
  5
1
330
0
100
AcDbSymbolTable
 70
     0
  0
BLOCK_RECORD
  5
2
102
{ACAD_XDICTIONARY
360
31E97
102
}
330
1
100
AcDbSymbolTableRecord
100
AcDbBlockTableRecord
  2
*MODEL_SPACE
340
B
  0
BLOCK_RECORD
  5
D
102
{ACAD_XDICTIONARY
360
1D72
102
}
330
1
100
AcDbSymbolTableRecord
100
AcDbBlockTableRecord
  2
*PAPER_SPACE
340
10
  0
ENDTAB
  0
ENDSEC
  0
SECTION
  2
BLOCKS
  0
BLOCK
  5
3
330
2
100
AcDbEntity
  8
0
100
AcDbBlockBegin
  2
*MODEL_SPACE
 70
     0
 10
0.0
 20
0.0
 30
0.0
  3
*MODEL_SPACE
  1

  0
ENDBLK
  5
A
330
2
100
AcDbEntity
  8
0
100
AcDbBlockEnd
  0
BLOCK
  5
E
330
D
100
AcDbEntity
 67
     1
  8
0
100
AcDbBlockBegin
  2
*PAPER_SPACE
 70
     0
 10
0.0
 20
0.0
 30
0.0
  3
*PAPER_SPACE
  1

  0
ENDBLK
  5
F
330
D
100
AcDbEntity
 67
     1
  8
0
100
AcDbBlockEnd
  0
ENDSEC
  0
SECTION
  2
ENTITIES
  0
LINE
  5
334B8
330
2
100
AcDbEntity
  8
GRID
100
AcDbLine
 10
17.73513749597501
 20
17.61897553438771
 30
0.0
 11
16.14973663128266
 21
17.61897553438771
 31
0.0
  0
LINE
  5
334B9
330
2
100
AcDbEntity
  8
GRID
100
AcDbLine
 10
25.12628104082988
 20
17.43097553438761
 30
0.0
 11
23.2656452797082
 21
17.43097553438761
 31
0.0
  0
LINE
  5
334BA
330
2
100
AcDbEntity
  8
GRID
100
AcDbLine
 10
19.78053855519701
 20
17.43097553438761
 30
0.0
 11
18.17273749598863
 21
17.43097553438761
 31
0.0
  0
LINE
  5
334BB
330
2
100
AcDbEntity
  8
GRID
100
AcDbLine
 10
17.73513749597343
 20
17.43097553438761
 30
0.0
 11
16.12733643677231
 21
17.43097553438761
 31
0.0
  0
LINE
  5
334CB
330
2
100
AcDbEntity
  8
PANEL
100
AcDbLine
 10
17.45393749598466
 20
16.10335053438771
 30
0.0
 11
17.45393749598466
 21
15.44635053438756
 31
0.0
  0
SPLINE
  5
334D0
330
2
100
AcDbEntity
  8
SECTION
  6
Continuous
100
AcDbSpline
210
0.0
220
0.0
230
1.0
 70
     8
 71
     3
 72
    11
 73
     7
 74
     0
 42
0.0000000001
 43
0.0000000001
 40
0.80770980502488
 40
0.80770980502488
 40
0.80770980502488
 40
0.80770980502488
 40
1.109427566953387
 40
1.633135244127979
 40
2.188273232771745
 40
2.363796193659969
 40
2.363796193659969
 40
2.363796193659969
 40
2.363796193659969
 10
19.74687957005935
 20
17.66897553438735
 30
0.0
 10
19.77018051474485
 20
17.56732856833453
 30
0.0
 10
19.8324434211806
 20
17.28995069686137
 30
0.0
 10
19.44804715296303
 20
16.90661636487417
 30
0.0
 10
19.5875069850688
 20
16.4634299869696
 30
0.0
 10
19.54078424949219
 20
16.22548806022601
 30
0.0
 10
19.52546376458738
 20
16.16897553438789
 30
0.0
  0
LINE
  5
334D1
330
2
100
AcDbEntity
  8
PANEL
100
AcDbLine
 10
12.60857072712333
 20
16.10335053438771
 30
0.0
 11
28.45628104083147
 21
16.10335053438771
 31
0.0
  0
LINE
  5
334D2
330
2
100
AcDbEntity
  8
PANEL
100
AcDbLine
 10
18.45393749597738
 20
16.10335053438771
 30
0.0
 11
18.45393749597738
 21
15.44635053438756
 31
0.0
  0
LINE
  5
334D3
330
2
100
AcDbEntity
  8
PANEL
100
AcDbLine
 10
28.45628104083147
 20
15.44635053438756
 30
0.0
 11
12.60857072712333
 21
15.44635053438756
 31
0.0
  0
LINE
  5
334D4
330
2
100
AcDbEntity
  8
PANEL
  6
HIDDEN
 62
     1
100
AcDbLine
 10
12.60857072712333
 20
15.47835053438771
 30
0.0
 11
28.45628104083147
 21
15.47835053438771
 31
0.0
  0
LINE
  5
334D5
330
2
100
AcDbEntity
  8
PANEL
100
AcDbLine
 10
28.45628104083149
 20
16.07135053438756
 30
0.0
 11
12.60857072712333
 21
16.07135053438756
 31
0.0
  0
LINE
  5
334D7
330
2
100
AcDbEntity
  8
GRID
100
AcDbLine
 10
12.60857072712333
 20
16.16897553438789
 30
0.0
 11
17.73513749597501
 21
16.16897553438789
 31
0.0
  0
LINE
  5
334D8
330
2
100
AcDbEntity
  8
GRID
100
AcDbLine
 10
25.12628104081918
 20
16.16897553438771
 30
0.0
 11
25.12628104082053
 21
16.32647553438772
 31
0.0
  0
LINE
  5
334D9
330
2
100
AcDbEntity
  8
GRID
100
AcDbLine
 10
25.1262810408242
 20
16.76147553438771
 30
0.0
 11
25.12628104083149
 21
17.61897553438771
 31
0.0
  0
LINE
  5
334DA
330
2
100
AcDbEntity
  8
GRID
100
AcDbLine
 10
25.12628104083149
 20
17.61897553438771
 30
0.0
 11
23.28804547421855
 21
17.61897553438771
 31
0.0
  0
LINE
  5
334DB
330
2
100
AcDbEntity
  8
GRID
100
AcDbLine
 10
19.75813836068666
 20
17.61897553438771
 30
0.0
 11
18.17273749598702
 21
17.61897553438771
 31
0.0
  0
LINE
  5
334DC
330
2
100
AcDbEntity
  8
GRID
100
AcDbLine
 10
24.87628104083149
 20
16.11897553438771
 30
0.0
 11
12.60857072712333
 21
16.11897553438771
 31
0.0
  0
LINE
  5
33534
330
2
100
AcDbEntity
  8
GRID
100
AcDbLine
 10
18.17273749598703
 20
16.16897553438789
 30
0.0
 11
18.17273749599431
 21
16.32647553438724
 31
0.0
  0
LINE
  5
33535
330
2
100
AcDbEntity
  8
GRID
100
AcDbLine
 10
18.17273749599431
 20
16.76147553438764
 30
0.0
 11
18.17273749598703
 21
17.61897553438771
 31
0.0
  0
LINE
  5
33536
330
2
100
AcDbEntity
  8
DETAIL
  6
HIDDEN2
100
AcDbLine
 10
19.2139374959855
 20
16.32647553438789
 30
0.0
 11
19.2139374959855
 21
16.76147553438787
 31
0.0
  0
LINE
  5
33537
330
2
100
AcDbEntity
  8
DETAIL
  6
HIDDEN2
100
AcDbLine
 10
19.14393749598551
 20
16.32647553438789
 30
0.0
 11
19.14393749598551
 21
16.76147553438787
 31
0.0
  0
LINE
  5
33538
330
2
100
AcDbEntity
  8
DETAIL
100
AcDbLine
 10
19.2139374959855
 20
16.76147553438787
 30
0.0
 11
19.2139374959855
 21
16.79397553438787
 31
0.0
  0
LINE
  5
33539
330
2
100
AcDbEntity
  8
DETAIL
100
AcDbLine
 10
19.2139374959855
 20
16.2939755343879
 30
0.0
 11
19.2139374959855
 21
16.32647553438789
 31
0.0
  0
LINE
  5
3353A
330
2
100
AcDbEntity
  8
DETAIL
100
AcDbLine
 10
19.14393749598551
 20
16.2939755343879
 30
0.0
 11
19.14393749598551
 21
16.32647553438789
 31
0.0
  0
LINE
  5
3353B
330
2
100
AcDbEntity
  8
DETAIL
100
AcDbLine
 10
19.14393749598551
 20
16.76147553438787
 30
0.0
 11
19.14393749598551
 21
16.79397553438787
 31
0.0
  0
LINE
  5
3353C
330
2
100
AcDbEntity
  8
DETAIL
100
AcDbLine
 10
19.38443749598551
 20
16.32647553438789
 30
0.0
 11
17.98143749598549
 21
16.32647553438789
 31
0.0
  0
LINE
  5
3353D
330
2
100
AcDbEntity
  8
DETAIL
100
AcDbLine
 10
19.38443749598556
 20
16.76147553438787
 30
0.0
 11
17.98143749598549
 21
16.7614755343879
 31
0.0
  0
LINE
  5
3353E
330
2
100
AcDbEntity
  8
DETAIL
100
AcDbLine
 10
19.38443749598556
 20
16.7614755343877
 30
0.0
 11
19.38443749598551
 21
16.3264755343877
 31
0.0
  0
LINE
  5
3353F
330
2
100
AcDbEntity
  8
DETAIL
100
AcDbLine
 10
18.09943749598554
 20
16.76147553438787
 30
0.0
 11
18.09943749598548
 21
16.32647553438786
 31
0.0
  0
LINE
  5
33540
330
2
100
AcDbEntity
  8
DETAIL
100
AcDbLine
 10
17.88443749598556
 20
16.7614755343879
 30
0.0
 11
17.88443749598551
 21
16.32647553438789
 31
0.0
  0
LINE
  5
33541
330
2
100
AcDbEntity
  8
DETAIL
100
AcDbLine
 10
19.14393749598551
 20
16.79397553438787
 30
0.0
 11
19.2139374959855
 21
16.79397553438787
 31
0.0
  0
LINE
  5
33542
330
2
100
AcDbEntity
  8
DETAIL
100
AcDbLine
 10
19.14393749598551
 20
16.2939755343879
 30
0.0
 11
19.2139374959855
 21
16.2939755343879
 31
0.0
  0
LINE
  5
33543
330
2
100
AcDbEntity
  8
DETAIL
100
AcDbLine
 10
16.52843749598545
 20
16.76147553438787
 30
0.0
 11
17.93143749598553
 21
16.7614755343879
 31
0.0
  0
LINE
  5
33544
330
2
100
AcDbEntity
  8
DETAIL
100
AcDbLine
 10
16.52843749598551
 20
16.32647553438789
 30
0.0
 11
17.64578749598755
 21
16.32647553438789
 31
0.0
  0
LINE
  5
33545
330
2
100
AcDbEntity
  8
DETAIL
100
AcDbLine
 10
16.76893749598551
 20
16.2939755343879
 30
0.0
 11
16.69893749598552
 21
16.2939755343879
 31
0.0
  0
LINE
  5
33546
330
2
100
AcDbEntity
  8
DETAIL
100
AcDbLine
 10
16.76893749598551
 20
16.79397553438787
 30
0.0
 11
16.69893749598552
 21
16.79397553438787
 31
0.0
  0
LINE
  5
33547
330
2
100
AcDbEntity
  8
DETAIL
100
AcDbLine
 10
16.52843749598545
 20
16.7614755343877
 30
0.0
 11
16.52843749598551
 21
16.3264755343877
 31
0.0
  0
LINE
  5
33548
330
2
100
AcDbEntity
  8
DETAIL
100
AcDbLine
 10
16.76893749598551
 20
16.76147553438787
 30
0.0
 11
16.76893749598551
 21
16.79397553438787
 31
0.0
  0
LINE
  5
33549
330
2
100
AcDbEntity
  8
DETAIL
100
AcDbLine
 10
16.76893749598551
 20
16.2939755343879
 30
0.0
 11
16.76893749598551
 21
16.32647553438789
 31
0.0
  0
LINE
  5
3354A
330
2
100
AcDbEntity
  8
DETAIL
100
AcDbLine
 10
16.69893749598552
 20
16.2939755343879
 30
0.0
 11
16.69893749598552
 21
16.32647553438789
 31
0.0
  0
LINE
  5
3354B
330
2
100
AcDbEntity
  8
DETAIL
100
AcDbLine
 10
16.69893749598552
 20
16.76147553438787
 30
0.0
 11
16.69893749598552
 21
16.79397553438787
 31
0.0
  0
LINE
  5
3354C
330
2
100
AcDbEntity
  8
DETAIL
  6
HIDDEN2
100
AcDbLine
 10
16.76893749598551
 20
16.32647553438789
 30
0.0
 11
16.76893749598551
 21
16.76147553438787
 31
0.0
  0
LINE
  5
3354D
330
2
100
AcDbEntity
  8
DETAIL
  6
HIDDEN2
100
AcDbLine
 10
16.69893749598552
 20
16.32647553438789
 30
0.0
 11
16.69893749598552
 21
16.76147553438787
 31
0.0
  0
LINE
  5
33550
330
2
100
AcDbEntity
  8
GRID
100
AcDbLine
 10
17.73513749596773
 20
16.76147553438764
 30
0.0
 11
17.73513749597501
 21
17.61897553438771
 31
0.0
  0
LINE
  5
3359B
330
2
100
AcDbEntity
  8
DETAIL
  6
HIDDEN2
100
AcDbLine
 10
24.08508104084116
 20
16.32647553438771
 30
0.0
 11
24.08508104084116
 21
16.76147553438769
 31
0.0
  0
LINE
  5
3359C
330
2
100
AcDbEntity
  8
DETAIL
  6
HIDDEN2
100
AcDbLine
 10
24.15508104084115
 20
16.32647553438771
 30
0.0
 11
24.15508104084115
 21
16.76147553438769
 31
0.0
  0
LINE
  5
3359D
330
2
100
AcDbEntity
  8
DETAIL
100
AcDbLine
 10
24.08508104084116
 20
16.76147553438769
 30
0.0
 11
24.08508104084116
 21
16.79397553438769
 31
0.0
  0
LINE
  5
3359E
330
2
100
AcDbEntity
  8
DETAIL
100
AcDbLine
 10
24.08508104084116
 20
16.29397553438771
 30
0.0
 11
24.08508104084116
 21
16.32647553438771
 31
0.0
  0
LINE
  5
3359F
330
2
100
AcDbEntity
  8
DETAIL
100
AcDbLine
 10
24.15508104084115
 20
16.29397553438771
 30
0.0
 11
24.15508104084115
 21
16.32647553438771
 31
0.0
  0
LINE
  5
335A0
330
2
100
AcDbEntity
  8
DETAIL
100
AcDbLine
 10
24.15508104084115
 20
16.76147553438769
 30
0.0
 11
24.15508104084115
 21
16.79397553438769
 31
0.0
  0
LINE
  5
335A1
330
2
100
AcDbEntity
  8
DETAIL
100
AcDbLine
 10
23.91458104084116
 20
16.32647553438771
 30
0.0
 11
25.32258104084113
 21
16.32647553438771
 31
0.0
  0
LINE
  5
335A2
330
2
100
AcDbEntity
  8
DETAIL
100
AcDbLine
 10
23.9145810408411
 20
16.76147553438769
 30
0.0
 11
25.32258104084114
 21
16.76147553438771
 31
0.0
  0
LINE
  5
335A3
330
2
100
AcDbEntity
  8
DETAIL
100
AcDbLine
 10
23.9145810408411
 20
16.76147553438752
 30
0.0
 11
23.91458104084116
 21
16.32647553438751
 31
0.0
  0
LINE
  5
335A4
330
2
100
AcDbEntity
  8
DETAIL
100
AcDbLine
 10
25.19958104084113
 20
16.76147553438769
 30
0.0
 11
25.19958104084118
 21
16.32647553438771
 31
0.0
  0
LINE
  5
335A5
330
2
100
AcDbEntity
  8
DETAIL
100
AcDbLine
 10
25.36758104084113
 20
16.32647553438771
 30
0.0
 11
25.41458104084111
 21
16.32647553438771
 31
0.0
  0
LINE
  5
335A6
330
2
100
AcDbEntity
  8
DETAIL
100
AcDbLine
 10
25.36758104084113
 20
16.76147553438771
 30
0.0
 11
25.41458104084111
 21
16.76147553438771
 31
0.0
  0
LINE
  5
335A7
330
2
100
AcDbEntity
  8
DETAIL
100
AcDbLine
 10
25.41458104084111
 20
16.76147553438771
 30
0.0
 11
25.41458104084116
 21
16.32647553438771
 31
0.0
  0
LINE
  5
335A8
330
2
100
AcDbEntity
  8
DETAIL
100
AcDbLine
 10
24.15508104084115
 20
16.79397553438769
 30
0.0
 11
24.08508104084116
 21
16.79397553438769
 31
0.0
  0
LINE
  5
335A9
330
2
100
AcDbEntity
  8
DETAIL
100
AcDbLine
 10
24.15508104084115
 20
16.29397553438771
 30
0.0
 11
24.08508104084116
 21
16.29397553438771
 31
0.0
  0
SPLINE
  5
335AA
330
2
100
AcDbEntity
  8
SECTION
  6
Continuous
100
AcDbSpline
210
0.0
220
0.0
230
1.0
 70
     8
 71
     3
 72
    11
 73
     7
 74
     0
 42
0.0000000001
 43
0.0000000001
 40
0.80770980502488
 40
0.80770980502488
 40
0.80770980502488
 40
0.80770980502488
 40
1.109427566953387
 40
1.633135244127979
 40
2.188273232771745
 40
2.363796193659969
 40
2.363796193659969
 40
2.363796193659969
 40
2.363796193659969
 10
23.29930426484586
 20
17.66897553438735
 30
0.0
 10
23.27600332016036
 20
17.56732856833453
 30
0.0
 10
23.21374041372459
 20
17.28995069686137
 30
0.0
 10
23.59813668194219
 20
16.90661636487417
 30
0.0
 10
23.45867684983639
 20
16.4634299869696
 30
0.0
 10
23.50539958541302
 20
16.22548806022601
 30
0.0
 10
23.52072007031782
 20
16.16897553438789
 30
0.0
  0
LINE
  5
335B9
330
2
100
AcDbEntity
  8
DETAIL
100
AcDbLine
 10
25.37176732380294
 20
19.78745704442902
 30
0.0
 11
25.37176732380283
 21
18.18964169525903
 31
0.0
  0
LINE
  5
335BA
330
2
100
AcDbEntity
  8
DETAIL
100
AcDbLine
 10
25.31821732380274
 20
19.78745704442902
 30
0.0
 11
25.31821732380274
 21
18.22227863470752
 31
0.0
  0
LINE
  5
335BB
330
2
100
AcDbEntity
  8
DETAIL
100
AcDbLine
 10
25.15017076110041
 20
17.38443094314587
 30
0.0
 11
25.31695313614216
 21
17.99754147335889
 31
0.0
  0
LINE
  5
335BC
330
2
100
AcDbEntity
  8
DETAIL
100
AcDbLine
 10
25.53950954304935
 20
17.38443094314587
 30
0.0
 11
25.37767610771278
 21
17.99077006166178
 31
0.0
  0
LINE
  5
335BD
330
2
100
AcDbEntity
  8
DETAIL
100
AcDbLine
 10
25.20251143294718
 20
17.37019253260163
 30
0.0
 11
25.34393390096534
 21
17.89959374759812
 31
0.0
  0
LINE
  5
335BE
330
2
100
AcDbEntity
  8
DETAIL
100
AcDbLine
 10
25.48716887120236
 20
17.37019253260163
 30
0.0
 11
25.30702674943234
 21
18.03357703460537
 31
0.0
  0
LINE
  5
335BF
330
2
100
AcDbEntity
  8
DETAIL
100
AcDbLine
 10
25.41723745804893
 20
18.16192916457564
 30
0.0
 11
25.30363786400972
 21
18.23116432931923
 31
0.0
  0
LINE
  5
335C0
330
2
100
AcDbEntity
  8
DETAIL
100
AcDbLine
 10
25.50237676101449
 20
18.22997417438395
 30
0.0
 11
25.41083209461203
 21
18.16583302001234
 31
0.0
  0
LINE
  5
335C1
330
2
100
AcDbEntity
  8
DETAIL
100
AcDbLine
 10
25.47164860003193
 20
18.27383056072207
 30
0.0
 11
25.37176732380283
 21
18.20384832571912
 31
0.0
  0
ARC
  5
335C2
330
2
100
AcDbEntity
  8
DETAIL
100
AcDbCircle
 10
25.28915634177668
 20
18.20740335391255
 30
0.0
 40
0.0278262185440991
100
AcDbArc
 50
58.63908544337914
 51
238.6390854433791
  0
ARC
  5
335C3
330
2
100
AcDbEntity
  8
DETAIL
100
AcDbCircle
 10
25.40275593581589
 20
18.13816818916913
 30
0.0
 40
0.0278262185440991
100
AcDbArc
 50
238.6390854433791
 51
58.63908544337914
  0
ARC
  5
335C4
330
2
100
AcDbEntity
  8
DETAIL
100
AcDbCircle
 10
25.28915634177668
 20
18.14222939323039
 30
0.0
 40
0.0278262185440991
100
AcDbArc
 50
58.63908544337914
 51
238.6390854433791
  0
ARC
  5
335C5
330
2
100
AcDbEntity
  8
DETAIL
100
AcDbCircle
 10
25.40275593581589
 20
18.07299422848698
 30
0.0
 40
0.0278262185440991
100
AcDbArc
 50
238.6390854433791
 51
58.63908544337914
  0
LINE
  5
335C6
330
2
100
AcDbEntity
  8
DETAIL
100
AcDbLine
 10
25.41723745804893
 20
18.09675520389365
 30
0.0
 11
25.27467481954364
 21
18.18364237850594
 31
0.0
  0
LINE
  5
335C7
330
2
100
AcDbEntity
  8
DETAIL
100
AcDbLine
 10
25.41723745804893
 20
18.03158124321143
 30
0.0
 11
25.27467481954364
 21
18.11846841782372
 31
0.0
  0
ARC
  5
335C8
330
2
100
AcDbEntity
  8
DETAIL
100
AcDbCircle
 10
25.40275593581589
 20
18.00782026780476
 30
0.0
 40
0.0278262185440991
100
AcDbArc
 50
238.6390854433791
 51
58.63908544337914
  0
LINE
  5
335C9
330
2
100
AcDbEntity
  8
DETAIL
100
AcDbLine
 10
25.38827441358285
 20
17.98405929239808
 30
0.0
 11
25.27467481954364
 21
18.0532944571415
 31
0.0
  0
ARC
  5
335CA
330
2
100
AcDbEntity
  8
DETAIL
100
AcDbCircle
 10
25.28915634177668
 20
18.07705543254818
 30
0.0
 40
0.0278262185440991
100
AcDbArc
 50
58.63908544337914
 51
238.6390854433791
  0
LINE
  5
335CB
330
2
100
AcDbEntity
  8
DETAIL
100
AcDbLine
 10
25.50237676101449
 20
18.22997417438395
 30
0.0
 11
25.47164860003193
 21
18.27383056072207
 31
0.0
  0
ARC
  5
335CC
330
2
100
AcDbEntity
  8
DETAIL
100
AcDbCircle
 10
25.34484015207477
 20
17.33147436824365
 30
0.0
 40
0.2017438242122658
100
AcDbArc
 50
164.7818918362371
 51
263.6654566936597
  0
ARC
  5
335CD
330
2
100
AcDbEntity
  8
DETAIL
100
AcDbCircle
 10
25.34484015207477
 20
17.33147436824365
 30
0.0
 40
0.2017438242122658
100
AcDbArc
 50
276.4722284042952
 51
15.21810816376266
  0
ARC
  5
335CE
330
2
100
AcDbEntity
  8
DETAIL
100
AcDbCircle
 10
25.34484015207477
 20
17.33147436824365
 30
0.0
 40
0.1475010526733604
100
AcDbArc
 50
164.7818918362371
 51
261.3204410650667
  0
ARC
  5
335CF
330
2
100
AcDbEntity
  8
DETAIL
100
AcDbCircle
 10
25.34484015207477
 20
17.33147436824365
 30
0.0
 40
0.1475010526733604
100
AcDbArc
 50
278.8689182817703
 51
15.21810816376266
  0
LINE
  5
335D2
330
2
100
AcDbEntity
  8
DETAIL
100
AcDbLine
 10
17.98062377894646
 20
19.78745704442902
 30
0.0
 11
17.98062377894635
 21
18.18964169525903
 31
0.0
  0
LINE
  5
335D3
330
2
100
AcDbEntity
  8
DETAIL
100
AcDbLine
 10
17.92707377894626
 20
19.78745704442902
 30
0.0
 11
17.92707377894626
 21
18.22227863470752
 31
0.0
  0
LINE
  5
335D4
330
2
100
AcDbEntity
  8
DETAIL
100
AcDbLine
 10
17.75902721624393
 20
17.38443094314587
 30
0.0
 11
17.92580959128568
 21
17.99754147335889
 31
0.0
  0
LINE
  5
335D5
330
2
100
AcDbEntity
  8
DETAIL
100
AcDbLine
 10
18.14836599819287
 20
17.38443094314587
 30
0.0
 11
17.9865325628563
 21
17.99077006166178
 31
0.0
  0
LINE
  5
335D6
330
2
100
AcDbEntity
  8
DETAIL
100
AcDbLine
 10
17.8113678880907
 20
17.37019253260163
 30
0.0
 11
17.95279035610886
 21
17.89959374759812
 31
0.0
  0
LINE
  5
335D7
330
2
100
AcDbEntity
  8
DETAIL
100
AcDbLine
 10
18.09602532634588
 20
17.37019253260163
 30
0.0
 11
17.91588320457586
 21
18.03357703460537
 31
0.0
  0
LINE
  5
335D8
330
2
100
AcDbEntity
  8
DETAIL
100
AcDbLine
 10
18.02609391319245
 20
18.16192916457564
 30
0.0
 11
17.91249431915323
 21
18.23116432931923
 31
0.0
  0
LINE
  5
335D9
330
2
100
AcDbEntity
  8
DETAIL
100
AcDbLine
 10
18.11123321615801
 20
18.22997417438395
 30
0.0
 11
18.01968854975555
 21
18.16583302001234
 31
0.0
  0
LINE
  5
335DA
330
2
100
AcDbEntity
  8
DETAIL
100
AcDbLine
 10
18.08050505517545
 20
18.27383056072207
 30
0.0
 11
17.98062377894635
 21
18.20384832571912
 31
0.0
  0
ARC
  5
335DB
330
2
100
AcDbEntity
  8
DETAIL
100
AcDbCircle
 10
17.8980127969202
 20
18.20740335391255
 30
0.0
 40
0.0278262185440991
100
AcDbArc
 50
58.63908544337914
 51
238.6390854433791
  0
ARC
  5
335DC
330
2
100
AcDbEntity
  8
DETAIL
100
AcDbCircle
 10
18.01161239095941
 20
18.13816818916913
 30
0.0
 40
0.0278262185440991
100
AcDbArc
 50
238.6390854433791
 51
58.63908544337914
  0
ARC
  5
335DD
330
2
100
AcDbEntity
  8
DETAIL
100
AcDbCircle
 10
17.8980127969202
 20
18.14222939323039
 30
0.0
 40
0.0278262185440991
100
AcDbArc
 50
58.63908544337914
 51
238.6390854433791
  0
ARC
  5
335DE
330
2
100
AcDbEntity
  8
DETAIL
100
AcDbCircle
 10
18.01161239095941
 20
18.07299422848698
 30
0.0
 40
0.0278262185440991
100
AcDbArc
 50
238.6390854433791
 51
58.63908544337914
  0
LINE
  5
335DF
330
2
100
AcDbEntity
  8
DETAIL
100
AcDbLine
 10
18.02609391319245
 20
18.09675520389365
 30
0.0
 11
17.88353127468716
 21
18.18364237850594
 31
0.0
  0
LINE
  5
335E0
330
2
100
AcDbEntity
  8
DETAIL
100
AcDbLine
 10
18.02609391319245
 20
18.03158124321143
 30
0.0
 11
17.88353127468716
 21
18.11846841782372
 31
0.0
  0
ARC
  5
335E1
330
2
100
AcDbEntity
  8
DETAIL
100
AcDbCircle
 10
18.01161239095941
 20
18.00782026780476
 30
0.0
 40
0.0278262185440991
100
AcDbArc
 50
238.6390854433791
 51
58.63908544337914
  0
LINE
  5
335E2
330
2
100
AcDbEntity
  8
DETAIL
100
AcDbLine
 10
17.99713086872637
 20
17.98405929239808
 30
0.0
 11
17.88353127468716
 21
18.0532944571415
 31
0.0
  0
ARC
  5
335E3
330
2
100
AcDbEntity
  8
DETAIL
100
AcDbCircle
 10
17.8980127969202
 20
18.07705543254818
 30
0.0
 40
0.0278262185440991
100
AcDbArc
 50
58.63908544337914
 51
238.6390854433791
  0
LINE
  5
335E4
330
2
100
AcDbEntity
  8
DETAIL
100
AcDbLine
 10
18.11123321615801
 20
18.22997417438395
 30
0.0
 11
18.08050505517545
 21
18.27383056072207
 31
0.0
  0
ARC
  5
335E5
330
2
100
AcDbEntity
  8
DETAIL
100
AcDbCircle
 10
17.95369660721829
 20
17.33147436824365
 30
0.0
 40
0.2017438242122658
100
AcDbArc
 50
164.7818918362371
 51
263.6654566936597
  0
ARC
  5
335E6
330
2
100
AcDbEntity
  8
DETAIL
100
AcDbCircle
 10
17.95369660721829
 20
17.33147436824365
 30
0.0
 40
0.2017438242122658
100
AcDbArc
 50
276.4722284042952
 51
15.21810816376266
  0
ARC
  5
335E7
330
2
100
AcDbEntity
  8
DETAIL
100
AcDbCircle
 10
17.95369660721829
 20
17.33147436824365
 30
0.0
 40
0.1475010526733604
100
AcDbArc
 50
164.7818918362371
 51
261.3204410650667
  0
ARC
  5
335E8
330
2
100
AcDbEntity
  8
DETAIL
100
AcDbCircle
 10
17.95369660721829
 20
17.33147436824365
 30
0.0
 40
0.1475010526733604
100
AcDbArc
 50
278.8689182817703
 51
15.21810816376266
  0
LINE
  5
335F1
330
2
100
AcDbEntity
  8
DETAIL
100
AcDbLine
 10
16.38241122738193
 20
16.16897553438789
 30
0.0
 11
12.60857072712333
 21
16.16897553438789
 31
0.0
  0
LINE
  5
335F2
330
2
100
AcDbEntity
  8
DETAIL
100
AcDbLine
 10
16.1609954219101
 20
17.6689755343879
 30
0.0
 11
12.60857072712333
 21
17.6689755343879
 31
0.0
  0
SPLINE
  5
335F3
330
2
100
AcDbEntity
  8
SECTION
  6
Continuous
100
AcDbSpline
210
0.0
220
0.0
230
1.0
 70
     8
 71
     3
 72
    11
 73
     7
 74
     0
 42
0.0000000001
 43
0.0000000001
 40
0.80770980502488
 40
0.80770980502488
 40
0.80770980502488
 40
0.80770980502488
 40
1.109427566953387
 40
1.633135244127979
 40
2.188273232771745
 40
2.363796193659969
 40
2.363796193659969
 40
2.363796193659969
 40
2.363796193659969
 10
16.16099542190997
 20
17.66897553438735
 30
0.0
 10
16.13769447722447
 20
17.56732856833453
 30
0.0
 10
16.07543157078871
 20
17.28995069686137
 30
0.0
 10
16.45982783900629
 20
16.90661636487417
 30
0.0
 10
16.32036800690051
 20
16.4634299869696
 30
0.0
 10
16.36709074247713
 20
16.22548806022601
 30
0.0
 10
16.38241122738193
 20
16.16897553438789
 30
0.0
  0
LINE
  5
335F8
330
2
100
AcDbEntity
  8
DETAIL
100
AcDbLine
 10
19.52546376458738
 20
16.16897553438789
 30
0.0
 11
23.52072007031782
 21
16.16897553438789
 31
0.0
  0
LINE
  5
335F9
330
2
100
AcDbEntity
  8
DETAIL
100
AcDbLine
 10
19.74687957005922
 20
17.6689755343879
 30
0.0
 11
23.29930426484599
 21
17.6689755343879
 31
0.0
  0
LINE
  5
335FB
330
2
100
AcDbEntity
  8
PANEL
100
AcDbLine
 10
28.45628104083147
 20
16.10335053438771
 30
0.0
 11
28.45628104083149
 21
15.44635053438756
 31
0.0
  0
LINE
  5
335FE
330
2
100
AcDbEntity
  8
GRID
100
AcDbLine
 10
18.17273749598703
 20
16.16897553438789
 30
0.0
 11
25.12628104083149
 21
16.16897553438789
 31
0.0
  0
LINE
  5
33600
330
2
100
AcDbEntity
  8
DETAIL
100
AcDbLine
 10
17.78216174141897
 20
16.3264755343879
 30
0.0
 11
17.93143749598553
 21
16.32647553438789
 31
0.0
  0
LINE
  5
33602
330
2
100
AcDbEntity
  8
DETAIL
100
AcDbLine
 10
17.64578749598464
 20
16.32463502044753
 30
0.0
 11
17.64578749598467
 21
16.46785053438756
 31
0.0
  0
LINE
  5
33603
330
2
100
AcDbEntity
  8
DETAIL
100
AcDbLine
 10
17.77078749598467
 20
16.3332510419347
 30
0.0
 11
17.64578749598467
 21
16.32463502044752
 31
0.0
  0
LINE
  5
33604
330
2
100
AcDbEntity
  8
DETAIL
100
AcDbLine
 10
17.77078749598467
 20
16.3332510419347
 30
0.0
 11
17.79378749598468
 21
16.31955020573277
 31
0.0
  0
LINE
  5
33605
330
2
100
AcDbEntity
  8
DETAIL
100
AcDbLine
 10
17.70828749598467
 20
16.50935053438757
 30
0.0
 11
17.6715471338255
 21
16.33935053438756
 31
0.0
  0
LINE
  5
33606
330
2
100
AcDbEntity
  8
DETAIL
100
AcDbLine
 10
17.70828749598467
 20
16.50935053438757
 30
0.0
 11
17.64578749598467
 21
16.33935053438756
 31
0.0
  0
LINE
  5
33607
330
2
100
AcDbEntity
  8
DETAIL
100
AcDbLine
 10
17.70828749598467
 20
16.50935053438757
 30
0.0
 11
17.64578749598467
 21
16.46785053438756
 31
0.0
  0
LINE
  5
33608
330
2
100
AcDbEntity
  8
DETAIL
100
AcDbLine
 10
17.70828749598467
 20
16.50935053438757
 30
0.0
 11
17.77078749598467
 21
16.46785053438757
 31
0.0
  0
LINE
  5
33609
330
2
100
AcDbEntity
  8
DETAIL
100
AcDbLine
 10
17.77078749598467
 20
16.3332510419347
 30
0.0
 11
17.77078749598467
 21
16.46785053438757
 31
0.0
  0
LINE
  5
3360A
330
2
100
AcDbEntity
  8
DETAIL
100
AcDbLine
 10
17.69931852522229
 20
16.46785053438756
 30
0.0
 11
17.77078749598467
 21
16.46785053438757
 31
0.0
  0
LINE
  5
3360B
330
2
100
AcDbEntity
  8
DETAIL
100
AcDbLine
 10
17.6715471338255
 20
16.33935053438756
 30
0.0
 11
17.64578749598467
 21
16.33935053438756
 31
0.0
  0
LINE
  5
3360C
330
2
100
AcDbEntity
  8
DETAIL
100
AcDbLine
 10
17.77078749598467
 20
16.08967446817699
 30
0.0
 11
17.64578749598467
 21
16.08105844668981
 31
0.0
  0
LINE
  5
3360D
330
2
100
AcDbEntity
  8
DETAIL
100
AcDbLine
 10
17.77078749598464
 20
16.09969819549213
 30
0.0
 11
17.64578749598464
 21
16.09108217400495
 31
0.0
  0
LINE
  5
3360E
330
2
100
AcDbEntity
  8
DETAIL
100
AcDbLine
 10
17.77078749598467
 20
16.13027056380327
 30
0.0
 11
17.64578749598467
 21
16.12165454231609
 31
0.0
  0
LINE
  5
3360F
330
2
100
AcDbEntity
  8
DETAIL
100
AcDbLine
 10
17.77078749598464
 20
16.14029429111841
 30
0.0
 11
17.64578749598464
 21
16.13167826963123
 31
0.0
  0
LINE
  5
33610
330
2
100
AcDbEntity
  8
DETAIL
100
AcDbLine
 10
17.77078749598467
 20
16.17086665942956
 30
0.0
 11
17.64578749598464
 21
16.16225063794238
 31
0.0
  0
LINE
  5
33611
330
2
100
AcDbEntity
  8
DETAIL
100
AcDbLine
 10
17.77078749598464
 20
16.1808903867447
 30
0.0
 11
17.64578749598467
 21
16.17227436525752
 31
0.0
  0
LINE
  5
33612
330
2
100
AcDbEntity
  8
DETAIL
100
AcDbLine
 10
17.77078749598464
 20
16.21146275505584
 30
0.0
 11
17.64578749598464
 21
16.20284673356867
 31
0.0
  0
LINE
  5
33613
330
2
100
AcDbEntity
  8
DETAIL
100
AcDbLine
 10
17.77078749598464
 20
16.22148648237098
 30
0.0
 11
17.64578749598467
 21
16.2128704608838
 31
0.0
  0
LINE
  5
33614
330
2
100
AcDbEntity
  8
DETAIL
100
AcDbLine
 10
17.77078749598467
 20
16.25205885068213
 30
0.0
 11
17.64578749598464
 21
16.24344282919496
 31
0.0
  0
LINE
  5
33615
330
2
100
AcDbEntity
  8
DETAIL
100
AcDbLine
 10
17.77078749598467
 20
16.26208257799726
 30
0.0
 11
17.64578749598464
 21
16.25346655651008
 31
0.0
  0
LINE
  5
33616
330
2
100
AcDbEntity
  8
DETAIL
100
AcDbLine
 10
17.77078749598467
 20
16.29265494630841
 30
0.0
 11
17.64578749598467
 21
16.28403892482124
 31
0.0
  0
LINE
  5
33617
330
2
100
AcDbEntity
  8
DETAIL
100
AcDbLine
 10
17.77078749598464
 20
16.30267867362355
 30
0.0
 11
17.64578749598464
 21
16.29406265213638
 31
0.0
  0
LINE
  5
33618
330
2
100
AcDbEntity
  8
DETAIL
100
AcDbLine
 10
17.79378749598467
 20
16.11656972760134
 30
0.0
 11
17.62278749598466
 21
16.10478301020688
 31
0.0
  0
LINE
  5
33619
330
2
100
AcDbEntity
  8
DETAIL
100
AcDbLine
 10
17.79378749598468
 20
16.15716582322762
 30
0.0
 11
17.62278749598466
 21
16.14537910583317
 31
0.0
  0
LINE
  5
3361A
330
2
100
AcDbEntity
  8
DETAIL
100
AcDbLine
 10
17.79378749598467
 20
16.19776191885392
 30
0.0
 11
17.62278749598466
 21
16.18597520145946
 31
0.0
  0
LINE
  5
3361B
330
2
100
AcDbEntity
  8
DETAIL
100
AcDbLine
 10
17.79378749598467
 20
16.23835801448019
 30
0.0
 11
17.62278749598466
 21
16.22657129708574
 31
0.0
  0
LINE
  5
3361C
330
2
100
AcDbEntity
  8
DETAIL
100
AcDbLine
 10
17.79378749598467
 20
16.27895411010648
 30
0.0
 11
17.62278749598466
 21
16.26716739271202
 31
0.0
  0
LINE
  5
3361D
330
2
100
AcDbEntity
  8
DETAIL
100
AcDbLine
 10
17.79378749598468
 20
16.31955020573277
 30
0.0
 11
17.62278749598466
 21
16.30776348833831
 31
0.0
  0
LINE
  5
3361E
330
2
100
AcDbEntity
  8
DETAIL
100
AcDbLine
 10
17.79378749598468
 20
16.15716582322762
 30
0.0
 11
17.77078749598464
 21
16.14029429111841
 31
0.0
  0
LINE
  5
3361F
330
2
100
AcDbEntity
  8
DETAIL
100
AcDbLine
 10
17.77078749598467
 20
16.17086665942956
 30
0.0
 11
17.77078749598464
 21
16.1808903867447
 31
0.0
  0
LINE
  5
33620
330
2
100
AcDbEntity
  8
DETAIL
100
AcDbLine
 10
17.77078749598464
 20
16.21146275505584
 30
0.0
 11
17.77078749598464
 21
16.22148648237098
 31
0.0
  0
LINE
  5
33621
330
2
100
AcDbEntity
  8
DETAIL
100
AcDbLine
 10
17.77078749598467
 20
16.29265494630841
 30
0.0
 11
17.77078749598467
 21
16.30267867362355
 31
0.0
  0
LINE
  5
33622
330
2
100
AcDbEntity
  8
DETAIL
100
AcDbLine
 10
17.77078749598467
 20
16.25205885068213
 30
0.0
 11
17.77078749598468
 21
16.26208257799726
 31
0.0
  0
LINE
  5
33623
330
2
100
AcDbEntity
  8
DETAIL
100
AcDbLine
 10
17.77078749598467
 20
16.17086665942956
 30
0.0
 11
17.79378749598468
 21
16.15716582322762
 31
0.0
  0
LINE
  5
33624
330
2
100
AcDbEntity
  8
DETAIL
100
AcDbLine
 10
17.77078749598464
 20
16.21146275505584
 30
0.0
 11
17.79378749598467
 21
16.19776191885392
 31
0.0
  0
LINE
  5
33625
330
2
100
AcDbEntity
  8
DETAIL
100
AcDbLine
 10
17.79378749598467
 20
16.19776191885392
 30
0.0
 11
17.77078749598464
 21
16.1808903867447
 31
0.0
  0
LINE
  5
33626
330
2
100
AcDbEntity
  8
DETAIL
100
AcDbLine
 10
17.77078749598467
 20
16.25205885068213
 30
0.0
 11
17.79378749598467
 21
16.23835801448019
 31
0.0
  0
LINE
  5
33627
330
2
100
AcDbEntity
  8
DETAIL
100
AcDbLine
 10
17.79378749598467
 20
16.23835801448019
 30
0.0
 11
17.77078749598464
 21
16.22148648237098
 31
0.0
  0
LINE
  5
33628
330
2
100
AcDbEntity
  8
DETAIL
100
AcDbLine
 10
17.79378749598467
 20
16.27895411010648
 30
0.0
 11
17.77078749598467
 21
16.26208257799726
 31
0.0
  0
LINE
  5
33629
330
2
100
AcDbEntity
  8
DETAIL
100
AcDbLine
 10
17.77078749598467
 20
16.29265494630841
 30
0.0
 11
17.79378749598467
 21
16.27895411010648
 31
0.0
  0
LINE
  5
3362A
330
2
100
AcDbEntity
  8
DETAIL
100
AcDbLine
 10
17.79378749598468
 20
16.31955020573277
 30
0.0
 11
17.77078749598464
 21
16.30267867362355
 31
0.0
  0
LINE
  5
3362B
330
2
100
AcDbEntity
  8
DETAIL
100
AcDbLine
 10
17.77078749598464
 20
16.13027056380327
 30
0.0
 11
17.77078749598464
 21
16.14029429111841
 31
0.0
  0
LINE
  5
3362C
330
2
100
AcDbEntity
  8
DETAIL
100
AcDbLine
 10
17.77078749598467
 20
16.08967446817699
 30
0.0
 11
17.77078749598464
 21
16.09969819549213
 31
0.0
  0
LINE
  5
3362D
330
2
100
AcDbEntity
  8
DETAIL
100
AcDbLine
 10
17.79378749598467
 20
16.07597363197506
 30
0.0
 11
17.72671626139027
 21
16.07135053438756
 31
0.0
  0
LINE
  5
3362E
330
2
100
AcDbEntity
  8
DETAIL
100
AcDbLine
 10
17.79378749598467
 20
16.07597363197506
 30
0.0
 11
17.78748509002509
 21
16.07135053438756
 31
0.0
  0
LINE
  5
3362F
330
2
100
AcDbEntity
  8
DETAIL
100
AcDbLine
 10
17.77078749598467
 20
16.08967446817699
 30
0.0
 11
17.79378749598467
 21
16.07597363197506
 31
0.0
  0
LINE
  5
33630
330
2
100
AcDbEntity
  8
DETAIL
100
AcDbLine
 10
17.77078749598467
 20
16.13027056380327
 30
0.0
 11
17.79378749598467
 21
16.11656972760134
 31
0.0
  0
LINE
  5
33631
330
2
100
AcDbEntity
  8
DETAIL
100
AcDbLine
 10
17.79378749598467
 20
16.11656972760134
 30
0.0
 11
17.77078749598467
 21
16.09969819549212
 31
0.0
  0
LINE
  5
33632
330
2
100
AcDbEntity
  8
DETAIL
100
AcDbLine
 10
17.64578749598467
 20
16.16225063794238
 30
0.0
 11
17.62278749598466
 21
16.14537910583317
 31
0.0
  0
LINE
  5
33633
330
2
100
AcDbEntity
  8
DETAIL
100
AcDbLine
 10
17.64578749598467
 20
16.28403892482124
 30
0.0
 11
17.64578749598464
 21
16.29406265213638
 31
0.0
  0
LINE
  5
33634
330
2
100
AcDbEntity
  8
DETAIL
100
AcDbLine
 10
17.64578749598464
 20
16.16225063794238
 30
0.0
 11
17.64578749598467
 21
16.17227436525752
 31
0.0
  0
LINE
  5
33635
330
2
100
AcDbEntity
  8
DETAIL
100
AcDbLine
 10
17.64578749598464
 20
16.24344282919496
 30
0.0
 11
17.64578749598464
 21
16.25346655651008
 31
0.0
  0
LINE
  5
33636
330
2
100
AcDbEntity
  8
DETAIL
100
AcDbLine
 10
17.64578749598464
 20
16.20284673356867
 30
0.0
 11
17.64578749598467
 21
16.2128704608838
 31
0.0
  0
LINE
  5
33637
330
2
100
AcDbEntity
  8
DETAIL
100
AcDbLine
 10
17.62278749598466
 20
16.18597520145946
 30
0.0
 11
17.64578749598467
 21
16.17227436525752
 31
0.0
  0
LINE
  5
33638
330
2
100
AcDbEntity
  8
DETAIL
100
AcDbLine
 10
17.64578749598464
 20
16.20284673356867
 30
0.0
 11
17.62278749598466
 21
16.18597520145946
 31
0.0
  0
LINE
  5
33639
330
2
100
AcDbEntity
  8
DETAIL
100
AcDbLine
 10
17.62278749598466
 20
16.22657129708574
 30
0.0
 11
17.64578749598467
 21
16.2128704608838
 31
0.0
  0
LINE
  5
3363A
330
2
100
AcDbEntity
  8
DETAIL
100
AcDbLine
 10
17.64578749598467
 20
16.24344282919496
 30
0.0
 11
17.62278749598466
 21
16.22657129708574
 31
0.0
  0
LINE
  5
3363B
330
2
100
AcDbEntity
  8
DETAIL
100
AcDbLine
 10
17.64578749598467
 20
16.28403892482124
 30
0.0
 11
17.62278749598466
 21
16.26716739271202
 31
0.0
  0
LINE
  5
3363C
330
2
100
AcDbEntity
  8
DETAIL
100
AcDbLine
 10
17.62278749598466
 20
16.26716739271202
 30
0.0
 11
17.64578749598464
 21
16.25346655651008
 31
0.0
  0
LINE
  5
3363D
330
2
100
AcDbEntity
  8
DETAIL
100
AcDbLine
 10
17.62278749598466
 20
16.30776348833831
 30
0.0
 11
17.64578749598464
 21
16.29406265213637
 31
0.0
  0
LINE
  5
3363E
330
2
100
AcDbEntity
  8
DETAIL
100
AcDbLine
 10
17.64578749598467
 20
16.32463502044752
 30
0.0
 11
17.62278749598466
 21
16.30776348833831
 31
0.0
  0
LINE
  5
3363F
330
2
100
AcDbEntity
  8
DETAIL
100
AcDbLine
 10
17.64578749598464
 20
16.12165454231609
 30
0.0
 11
17.64578749598464
 21
16.13167826963123
 31
0.0
  0
LINE
  5
33640
330
2
100
AcDbEntity
  8
DETAIL
100
AcDbLine
 10
17.64578749598464
 20
16.08105844668981
 30
0.0
 11
17.64578749598464
 21
16.09108217400495
 31
0.0
  0
LINE
  5
33641
330
2
100
AcDbEntity
  8
DETAIL
100
AcDbLine
 10
17.64578749598467
 20
16.08105844668981
 30
0.0
 11
17.63255325137033
 21
16.07135053438756
 31
0.0
  0
LINE
  5
33642
330
2
100
AcDbEntity
  8
DETAIL
100
AcDbLine
 10
17.62278749598466
 20
16.10478301020688
 30
0.0
 11
17.64578749598464
 21
16.09108217400495
 31
0.0
  0
LINE
  5
33643
330
2
100
AcDbEntity
  8
DETAIL
100
AcDbLine
 10
17.64578749598467
 20
16.12165454231609
 30
0.0
 11
17.62278749598466
 21
16.10478301020688
 31
0.0
  0
LINE
  5
33644
330
2
100
AcDbEntity
  8
DETAIL
100
AcDbLine
 10
17.62278749598466
 20
16.14537910583317
 30
0.0
 11
17.64578749598464
 21
16.13167826963123
 31
0.0
  0
ARC
  5
33645
330
2
100
AcDbEntity
  8
DETAIL
100
AcDbCircle
 10
17.69173630622132
 20
16.30642388796116
 30
0.0
 40
0.3088363825057014
100
AcDbArc
 50
275.3604612699314
 51
302.9108624683185
  0
LINE
  5
33646
330
2
100
AcDbEntity
  8
DETAIL
100
AcDbLine
 10
17.55703749598466
 20
16.04715053438775
 30
0.0
 11
17.8595374959847
 21
16.04715053438775
 31
0.0
  0
LINE
  5
33647
330
2
100
AcDbEntity
  8
DETAIL
100
AcDbLine
 10
17.55703749598466
 20
16.07135053438756
 30
0.0
 11
17.8595374959847
 21
16.07135053438756
 31
0.0
  0
LINE
  5
33648
330
2
100
AcDbEntity
  8
DETAIL
100
AcDbLine
 10
17.8595374959847
 20
16.04715053438775
 30
0.0
 11
17.8595374959847
 21
16.07135053438756
 31
0.0
  0
LINE
  5
33649
330
2
100
AcDbEntity
  8
DETAIL
100
AcDbLine
 10
17.69598679788539
 20
15.99893814890003
 30
0.0
 11
17.70022082931808
 21
16.02295053438794
 31
0.0
  0
LINE
  5
3364A
330
2
100
AcDbEntity
  8
DETAIL
100
AcDbLine
 10
17.72058819408398
 20
15.99893814890003
 30
0.0
 11
17.71635416265129
 21
16.02295053438794
 31
0.0
  0
LINE
  5
3364B
330
2
100
AcDbEntity
  8
DETAIL
100
AcDbLine
 10
17.71635416265129
 20
16.02295053438794
 30
0.0
 11
17.70022082931808
 21
16.02295053438794
 31
0.0
  0
ARC
  5
3364C
330
2
100
AcDbEntity
  8
DETAIL
100
AcDbCircle
 10
17.72483868574805
 20
16.30642388796118
 30
0.0
 40
0.308836382505713
100
AcDbArc
 50
237.0891375316834
 51
264.6395387300702
  0
LINE
  5
3364D
330
2
100
AcDbEntity
  8
DETAIL
100
AcDbLine
 10
17.55703749598466
 20
16.04715053438775
 30
0.0
 11
17.55703749598466
 21
16.07135053438756
 31
0.0
  0
LINE
  5
3364F
330
2
100
AcDbEntity
  8
DETAIL
100
AcDbLine
 10
25.52823104084113
 20
16.32463502044753
 30
0.0
 11
25.52823104084114
 21
16.46785053438756
 31
0.0
  0
LINE
  5
33650
330
2
100
AcDbEntity
  8
DETAIL
100
AcDbLine
 10
25.65323104084114
 20
16.3332510419347
 30
0.0
 11
25.52823104084114
 21
16.32463502044752
 31
0.0
  0
LINE
  5
33651
330
2
100
AcDbEntity
  8
DETAIL
100
AcDbLine
 10
25.65323104084114
 20
16.3332510419347
 30
0.0
 11
25.67623104084115
 21
16.31955020573277
 31
0.0
  0
LINE
  5
33652
330
2
100
AcDbEntity
  8
DETAIL
100
AcDbLine
 10
25.59073104084114
 20
16.50935053438757
 30
0.0
 11
25.55399067868198
 21
16.33935053438756
 31
0.0
  0
LINE
  5
33653
330
2
100
AcDbEntity
  8
DETAIL
100
AcDbLine
 10
25.59073104084114
 20
16.50935053438757
 30
0.0
 11
25.52823104084114
 21
16.33935053438756
 31
0.0
  0
LINE
  5
33654
330
2
100
AcDbEntity
  8
DETAIL
100
AcDbLine
 10
25.59073104084114
 20
16.50935053438757
 30
0.0
 11
25.52823104084114
 21
16.46785053438756
 31
0.0
  0
LINE
  5
33655
330
2
100
AcDbEntity
  8
DETAIL
100
AcDbLine
 10
25.59073104084114
 20
16.50935053438757
 30
0.0
 11
25.65323104084114
 21
16.46785053438757
 31
0.0
  0
LINE
  5
33656
330
2
100
AcDbEntity
  8
DETAIL
100
AcDbLine
 10
25.65323104084114
 20
16.3332510419347
 30
0.0
 11
25.65323104084114
 21
16.46785053438757
 31
0.0
  0
LINE
  5
33657
330
2
100
AcDbEntity
  8
DETAIL
100
AcDbLine
 10
25.58176207007877
 20
16.46785053438756
 30
0.0
 11
25.65323104084114
 21
16.46785053438757
 31
0.0
  0
LINE
  5
33658
330
2
100
AcDbEntity
  8
DETAIL
100
AcDbLine
 10
25.55399067868198
 20
16.33935053438756
 30
0.0
 11
25.52823104084114
 21
16.33935053438756
 31
0.0
  0
LINE
  5
33659
330
2
100
AcDbEntity
  8
DETAIL
100
AcDbLine
 10
25.65323104084114
 20
16.08967446817699
 30
0.0
 11
25.52823104084114
 21
16.08105844668981
 31
0.0
  0
LINE
  5
3365A
330
2
100
AcDbEntity
  8
DETAIL
100
AcDbLine
 10
25.65323104084113
 20
16.09969819549213
 30
0.0
 11
25.52823104084113
 21
16.09108217400495
 31
0.0
  0
LINE
  5
3365B
330
2
100
AcDbEntity
  8
DETAIL
100
AcDbLine
 10
25.65323104084114
 20
16.13027056380327
 30
0.0
 11
25.52823104084114
 21
16.12165454231609
 31
0.0
  0
LINE
  5
3365C
330
2
100
AcDbEntity
  8
DETAIL
100
AcDbLine
 10
25.65323104084113
 20
16.14029429111841
 30
0.0
 11
25.52823104084113
 21
16.13167826963123
 31
0.0
  0
LINE
  5
3365D
330
2
100
AcDbEntity
  8
DETAIL
100
AcDbLine
 10
25.65323104084114
 20
16.17086665942956
 30
0.0
 11
25.52823104084113
 21
16.16225063794238
 31
0.0
  0
LINE
  5
3365E
330
2
100
AcDbEntity
  8
DETAIL
100
AcDbLine
 10
25.65323104084113
 20
16.1808903867447
 30
0.0
 11
25.52823104084114
 21
16.17227436525752
 31
0.0
  0
LINE
  5
3365F
330
2
100
AcDbEntity
  8
DETAIL
100
AcDbLine
 10
25.65323104084113
 20
16.21146275505584
 30
0.0
 11
25.52823104084113
 21
16.20284673356867
 31
0.0
  0
LINE
  5
33660
330
2
100
AcDbEntity
  8
DETAIL
100
AcDbLine
 10
25.65323104084113
 20
16.22148648237098
 30
0.0
 11
25.52823104084114
 21
16.2128704608838
 31
0.0
  0
LINE
  5
33661
330
2
100
AcDbEntity
  8
DETAIL
100
AcDbLine
 10
25.65323104084114
 20
16.25205885068213
 30
0.0
 11
25.52823104084113
 21
16.24344282919496
 31
0.0
  0
LINE
  5
33662
330
2
100
AcDbEntity
  8
DETAIL
100
AcDbLine
 10
25.65323104084114
 20
16.26208257799726
 30
0.0
 11
25.52823104084113
 21
16.25346655651008
 31
0.0
  0
LINE
  5
33663
330
2
100
AcDbEntity
  8
DETAIL
100
AcDbLine
 10
25.65323104084114
 20
16.29265494630841
 30
0.0
 11
25.52823104084114
 21
16.28403892482124
 31
0.0
  0
LINE
  5
33664
330
2
100
AcDbEntity
  8
DETAIL
100
AcDbLine
 10
25.65323104084113
 20
16.30267867362355
 30
0.0
 11
25.52823104084113
 21
16.29406265213638
 31
0.0
  0
LINE
  5
33665
330
2
100
AcDbEntity
  8
DETAIL
100
AcDbLine
 10
25.67623104084114
 20
16.11656972760134
 30
0.0
 11
25.50523104084113
 21
16.10478301020688
 31
0.0
  0
LINE
  5
33666
330
2
100
AcDbEntity
  8
DETAIL
100
AcDbLine
 10
25.67623104084115
 20
16.15716582322762
 30
0.0
 11
25.50523104084113
 21
16.14537910583317
 31
0.0
  0
LINE
  5
33667
330
2
100
AcDbEntity
  8
DETAIL
100
AcDbLine
 10
25.67623104084114
 20
16.19776191885392
 30
0.0
 11
25.50523104084113
 21
16.18597520145946
 31
0.0
  0
LINE
  5
33668
330
2
100
AcDbEntity
  8
DETAIL
100
AcDbLine
 10
25.67623104084114
 20
16.23835801448019
 30
0.0
 11
25.50523104084113
 21
16.22657129708574
 31
0.0
  0
LINE
  5
33669
330
2
100
AcDbEntity
  8
DETAIL
100
AcDbLine
 10
25.67623104084114
 20
16.27895411010648
 30
0.0
 11
25.50523104084113
 21
16.26716739271202
 31
0.0
  0
LINE
  5
3366A
330
2
100
AcDbEntity
  8
DETAIL
100
AcDbLine
 10
25.67623104084115
 20
16.31955020573277
 30
0.0
 11
25.50523104084113
 21
16.30776348833831
 31
0.0
  0
LINE
  5
3366B
330
2
100
AcDbEntity
  8
DETAIL
100
AcDbLine
 10
25.67623104084115
 20
16.15716582322762
 30
0.0
 11
25.65323104084113
 21
16.14029429111841
 31
0.0
  0
LINE
  5
3366C
330
2
100
AcDbEntity
  8
DETAIL
100
AcDbLine
 10
25.65323104084114
 20
16.17086665942956
 30
0.0
 11
25.65323104084113
 21
16.1808903867447
 31
0.0
  0
LINE
  5
3366D
330
2
100
AcDbEntity
  8
DETAIL
100
AcDbLine
 10
25.65323104084113
 20
16.21146275505584
 30
0.0
 11
25.65323104084113
 21
16.22148648237098
 31
0.0
  0
LINE
  5
3366E
330
2
100
AcDbEntity
  8
DETAIL
100
AcDbLine
 10
25.65323104084114
 20
16.29265494630841
 30
0.0
 11
25.65323104084114
 21
16.30267867362355
 31
0.0
  0
LINE
  5
3366F
330
2
100
AcDbEntity
  8
DETAIL
100
AcDbLine
 10
25.65323104084114
 20
16.25205885068213
 30
0.0
 11
25.65323104084116
 21
16.26208257799726
 31
0.0
  0
LINE
  5
33670
330
2
100
AcDbEntity
  8
DETAIL
100
AcDbLine
 10
25.65323104084114
 20
16.17086665942956
 30
0.0
 11
25.67623104084115
 21
16.15716582322762
 31
0.0
  0
LINE
  5
33671
330
2
100
AcDbEntity
  8
DETAIL
100
AcDbLine
 10
25.65323104084113
 20
16.21146275505584
 30
0.0
 11
25.67623104084114
 21
16.19776191885392
 31
0.0
  0
LINE
  5
33672
330
2
100
AcDbEntity
  8
DETAIL
100
AcDbLine
 10
25.67623104084114
 20
16.19776191885392
 30
0.0
 11
25.65323104084113
 21
16.1808903867447
 31
0.0
  0
LINE
  5
33673
330
2
100
AcDbEntity
  8
DETAIL
100
AcDbLine
 10
25.65323104084114
 20
16.25205885068213
 30
0.0
 11
25.67623104084114
 21
16.23835801448019
 31
0.0
  0
LINE
  5
33674
330
2
100
AcDbEntity
  8
DETAIL
100
AcDbLine
 10
25.67623104084114
 20
16.23835801448019
 30
0.0
 11
25.65323104084113
 21
16.22148648237098
 31
0.0
  0
LINE
  5
33675
330
2
100
AcDbEntity
  8
DETAIL
100
AcDbLine
 10
25.67623104084114
 20
16.27895411010648
 30
0.0
 11
25.65323104084114
 21
16.26208257799726
 31
0.0
  0
LINE
  5
33676
330
2
100
AcDbEntity
  8
DETAIL
100
AcDbLine
 10
25.65323104084114
 20
16.29265494630841
 30
0.0
 11
25.67623104084114
 21
16.27895411010648
 31
0.0
  0
LINE
  5
33677
330
2
100
AcDbEntity
  8
DETAIL
100
AcDbLine
 10
25.67623104084115
 20
16.31955020573277
 30
0.0
 11
25.65323104084113
 21
16.30267867362355
 31
0.0
  0
LINE
  5
33678
330
2
100
AcDbEntity
  8
DETAIL
100
AcDbLine
 10
25.65323104084113
 20
16.13027056380327
 30
0.0
 11
25.65323104084113
 21
16.14029429111841
 31
0.0
  0
LINE
  5
33679
330
2
100
AcDbEntity
  8
DETAIL
100
AcDbLine
 10
25.65323104084114
 20
16.08967446817699
 30
0.0
 11
25.65323104084113
 21
16.09969819549213
 31
0.0
  0
LINE
  5
3367A
330
2
100
AcDbEntity
  8
DETAIL
100
AcDbLine
 10
25.67623104084114
 20
16.07597363197506
 30
0.0
 11
25.60915980624674
 21
16.07135053438756
 31
0.0
  0
LINE
  5
3367B
330
2
100
AcDbEntity
  8
DETAIL
100
AcDbLine
 10
25.67623104084114
 20
16.07597363197506
 30
0.0
 11
25.66992863488156
 21
16.07135053438756
 31
0.0
  0
LINE
  5
3367C
330
2
100
AcDbEntity
  8
DETAIL
100
AcDbLine
 10
25.65323104084114
 20
16.08967446817699
 30
0.0
 11
25.67623104084114
 21
16.07597363197506
 31
0.0
  0
LINE
  5
3367D
330
2
100
AcDbEntity
  8
DETAIL
100
AcDbLine
 10
25.65323104084114
 20
16.13027056380327
 30
0.0
 11
25.67623104084114
 21
16.11656972760134
 31
0.0
  0
LINE
  5
3367E
330
2
100
AcDbEntity
  8
DETAIL
100
AcDbLine
 10
25.67623104084114
 20
16.11656972760134
 30
0.0
 11
25.65323104084114
 21
16.09969819549212
 31
0.0
  0
LINE
  5
3367F
330
2
100
AcDbEntity
  8
DETAIL
100
AcDbLine
 10
25.52823104084114
 20
16.16225063794238
 30
0.0
 11
25.50523104084113
 21
16.14537910583317
 31
0.0
  0
LINE
  5
33680
330
2
100
AcDbEntity
  8
DETAIL
100
AcDbLine
 10
25.52823104084114
 20
16.28403892482124
 30
0.0
 11
25.52823104084113
 21
16.29406265213638
 31
0.0
  0
LINE
  5
33681
330
2
100
AcDbEntity
  8
DETAIL
100
AcDbLine
 10
25.52823104084113
 20
16.16225063794238
 30
0.0
 11
25.52823104084114
 21
16.17227436525752
 31
0.0
  0
LINE
  5
33682
330
2
100
AcDbEntity
  8
DETAIL
100
AcDbLine
 10
25.52823104084113
 20
16.24344282919496
 30
0.0
 11
25.52823104084113
 21
16.25346655651008
 31
0.0
  0
LINE
  5
33683
330
2
100
AcDbEntity
  8
DETAIL
100
AcDbLine
 10
25.52823104084113
 20
16.20284673356867
 30
0.0
 11
25.52823104084114
 21
16.2128704608838
 31
0.0
  0
LINE
  5
33684
330
2
100
AcDbEntity
  8
DETAIL
100
AcDbLine
 10
25.50523104084113
 20
16.18597520145946
 30
0.0
 11
25.52823104084114
 21
16.17227436525752
 31
0.0
  0
LINE
  5
33685
330
2
100
AcDbEntity
  8
DETAIL
100
AcDbLine
 10
25.52823104084113
 20
16.20284673356867
 30
0.0
 11
25.50523104084113
 21
16.18597520145946
 31
0.0
  0
LINE
  5
33686
330
2
100
AcDbEntity
  8
DETAIL
100
AcDbLine
 10
25.50523104084113
 20
16.22657129708574
 30
0.0
 11
25.52823104084114
 21
16.2128704608838
 31
0.0
  0
LINE
  5
33687
330
2
100
AcDbEntity
  8
DETAIL
100
AcDbLine
 10
25.52823104084114
 20
16.24344282919496
 30
0.0
 11
25.50523104084113
 21
16.22657129708574
 31
0.0
  0
LINE
  5
33688
330
2
100
AcDbEntity
  8
DETAIL
100
AcDbLine
 10
25.52823104084114
 20
16.28403892482124
 30
0.0
 11
25.50523104084113
 21
16.26716739271202
 31
0.0
  0
LINE
  5
33689
330
2
100
AcDbEntity
  8
DETAIL
100
AcDbLine
 10
25.50523104084113
 20
16.26716739271202
 30
0.0
 11
25.52823104084113
 21
16.25346655651008
 31
0.0
  0
LINE
  5
3368A
330
2
100
AcDbEntity
  8
DETAIL
100
AcDbLine
 10
25.50523104084113
 20
16.30776348833831
 30
0.0
 11
25.52823104084113
 21
16.29406265213637
 31
0.0
  0
LINE
  5
3368B
330
2
100
AcDbEntity
  8
DETAIL
100
AcDbLine
 10
25.52823104084114
 20
16.32463502044752
 30
0.0
 11
25.50523104084113
 21
16.30776348833831
 31
0.0
  0
LINE
  5
3368C
330
2
100
AcDbEntity
  8
DETAIL
100
AcDbLine
 10
25.52823104084113
 20
16.12165454231609
 30
0.0
 11
25.52823104084113
 21
16.13167826963123
 31
0.0
  0
LINE
  5
3368D
330
2
100
AcDbEntity
  8
DETAIL
100
AcDbLine
 10
25.52823104084113
 20
16.08105844668981
 30
0.0
 11
25.52823104084113
 21
16.09108217400495
 31
0.0
  0
LINE
  5
3368E
330
2
100
AcDbEntity
  8
DETAIL
100
AcDbLine
 10
25.52823104084114
 20
16.08105844668981
 30
0.0
 11
25.5149967962268
 21
16.07135053438756
 31
0.0
  0
LINE
  5
3368F
330
2
100
AcDbEntity
  8
DETAIL
100
AcDbLine
 10
25.50523104084113
 20
16.10478301020688
 30
0.0
 11
25.52823104084113
 21
16.09108217400495
 31
0.0
  0
LINE
  5
33690
330
2
100
AcDbEntity
  8
DETAIL
100
AcDbLine
 10
25.52823104084114
 20
16.12165454231609
 30
0.0
 11
25.50523104084113
 21
16.10478301020688
 31
0.0
  0
LINE
  5
33691
330
2
100
AcDbEntity
  8
DETAIL
100
AcDbLine
 10
25.50523104084113
 20
16.14537910583317
 30
0.0
 11
25.52823104084113
 21
16.13167826963123
 31
0.0
  0
ARC
  5
33692
330
2
100
AcDbEntity
  8
DETAIL
100
AcDbCircle
 10
25.57417985107779
 20
16.30642388796116
 30
0.0
 40
0.3088363825057014
100
AcDbArc
 50
275.3604612699314
 51
302.9108624683185
  0
LINE
  5
33693
330
2
100
AcDbEntity
  8
DETAIL
100
AcDbLine
 10
25.43948104084114
 20
16.04715053438775
 30
0.0
 11
25.74198104084118
 21
16.04715053438775
 31
0.0
  0
LINE
  5
33694
330
2
100
AcDbEntity
  8
DETAIL
100
AcDbLine
 10
25.43948104084114
 20
16.07135053438756
 30
0.0
 11
25.74198104084118
 21
16.07135053438756
 31
0.0
  0
LINE
  5
33695
330
2
100
AcDbEntity
  8
DETAIL
100
AcDbLine
 10
25.74198104084118
 20
16.04715053438775
 30
0.0
 11
25.74198104084118
 21
16.07135053438756
 31
0.0
  0
LINE
  5
33696
330
2
100
AcDbEntity
  8
DETAIL
100
AcDbLine
 10
25.57843034274186
 20
15.99893814890003
 30
0.0
 11
25.58266437417455
 21
16.02295053438794
 31
0.0
  0
LINE
  5
33697
330
2
100
AcDbEntity
  8
DETAIL
100
AcDbLine
 10
25.60303173894045
 20
15.99893814890003
 30
0.0
 11
25.59879770750776
 21
16.02295053438794
 31
0.0
  0
LINE
  5
33698
330
2
100
AcDbEntity
  8
DETAIL
100
AcDbLine
 10
25.59879770750776
 20
16.02295053438794
 30
0.0
 11
25.58266437417455
 21
16.02295053438794
 31
0.0
  0
ARC
  5
33699
330
2
100
AcDbEntity
  8
DETAIL
100
AcDbCircle
 10
25.60728223060452
 20
16.30642388796118
 30
0.0
 40
0.308836382505713
100
AcDbArc
 50
237.0891375316834
 51
264.6395387300702
  0
LINE
  5
3369A
330
2
100
AcDbEntity
  8
DETAIL
100
AcDbLine
 10
25.43948104084114
 20
16.04715053438775
 30
0.0
 11
25.43948104084114
 21
16.07135053438756
 31
0.0
  0
LINE
  5
34C65
330
2
100
AcDbEntity
  8
0
  6
Continuous
 62
     4
100
AcDbLine
 10
18.01643749598466
 20
17.61897553438771
 30
0.0
 11
18.01643749598466
 21
17.43097553438771
 31
0.0
  0
LINE
  5
34C66
330
2
100
AcDbEntity
  8
0
  6
Continuous
 62
     4
100
AcDbLine
 10
18.01643749598466
 20
17.43097553438771
 30
0.0
 11
17.97643749598465
 21
17.43097553438771
 31
0.0
  0
LINE
  5
34C67
330
2
100
AcDbEntity
  8
0
  6
Continuous
 62
     4
100
AcDbLine
 10
17.97643749598465
 20
17.43097553438771
 30
0.0
 11
17.97643749598465
 21
16.16897553438771
 31
0.0
  0
LINE
  5
34C68
330
2
100
AcDbEntity
  8
0
  6
Continuous
 62
     4
100
AcDbLine
 10
17.97643749598465
 20
16.16897553438771
 30
0.0
 11
18.42273749598466
 21
16.16897553438771
 31
0.0
  0
LINE
  5
34C69
330
2
100
AcDbEntity
  8
0
  6
Continuous
 62
     4
100
AcDbLine
 10
18.42273749598466
 20
16.16897553438771
 30
0.0
 11
18.42273749598466
 21
16.11897553438771
 31
0.0
  0
LINE
  5
34C6A
330
2
100
AcDbEntity
  8
0
  6
Continuous
 62
     4
100
AcDbLine
 10
18.42273749598466
 20
16.11897553438771
 30
0.0
 11
17.48513749598466
 21
16.11897553438771
 31
0.0
  0
LINE
  5
34C6B
330
2
100
AcDbEntity
  8
0
  6
Continuous
 62
     4
100
AcDbLine
 10
17.48513749598466
 20
16.11897553438771
 30
0.0
 11
17.48513749598466
 21
16.16897553438771
 31
0.0
  0
LINE
  5
34C6C
330
2
100
AcDbEntity
  8
0
  6
Continuous
 62
     4
100
AcDbLine
 10
17.48513749598466
 20
16.16897553438771
 30
0.0
 11
17.93143749598467
 21
16.16897553438771
 31
0.0
  0
LINE
  5
34C6D
330
2
100
AcDbEntity
  8
0
  6
Continuous
 62
     4
100
AcDbLine
 10
17.93143749598467
 20
16.16897553438771
 30
0.0
 11
17.93143749598464
 21
17.43097553438771
 31
0.0
  0
LINE
  5
34C6E
330
2
100
AcDbEntity
  8
0
  6
Continuous
 62
     4
100
AcDbLine
 10
17.93143749598464
 20
17.43097553438771
 30
0.0
 11
17.89143749598466
 21
17.43097553438771
 31
0.0
  0
LINE
  5
34C6F
330
2
100
AcDbEntity
  8
0
  6
Continuous
 62
     4
100
AcDbLine
 10
17.89143749598466
 20
17.43097553438771
 30
0.0
 11
17.89143749598466
 21
17.61897553438771
 31
0.0
  0
LINE
  5
34C70
330
2
100
AcDbEntity
  8
0
  6
Continuous
 62
     4
100
AcDbLine
 10
17.89143749598466
 20
17.61897553438771
 30
0.0
 11
18.01643749598466
 21
17.61897553438771
 31
0.0
  0
LINE
  5
34C72
330
2
100
AcDbEntity
  8
0
  6
Continuous
 62
     4
100
AcDbLine
 10
25.81388104084351
 20
16.16897553438789
 30
0.0
 11
25.81388104084114
 21
16.11897553438771
 31
0.0
  0
LINE
  5
34C73
330
2
100
AcDbEntity
  8
0
  6
Continuous
 62
     4
100
AcDbLine
 10
25.81388104084114
 20
16.11897553438771
 30
0.0
 11
24.87628104084114
 21
16.11897553438771
 31
0.0
  0
LINE
  5
34C74
330
2
100
AcDbEntity
  8
0
  6
Continuous
 62
     4
100
AcDbLine
 10
24.87628104084114
 20
16.11897553438771
 30
0.0
 11
24.87628104084114
 21
16.16897553438771
 31
0.0
  0
LINE
  5
34C75
330
2
100
AcDbEntity
  8
0
  6
Continuous
 62
     4
100
AcDbLine
 10
24.87628104084114
 20
16.16897553438771
 30
0.0
 11
25.32258104084114
 21
16.16897553438771
 31
0.0
  0
LINE
  5
34C76
330
2
100
AcDbEntity
  8
0
  6
Continuous
 62
     4
100
AcDbLine
 10
25.32258104084114
 20
16.16897553438771
 30
0.0
 11
25.32258104084113
 21
17.43097553438771
 31
0.0
  0
LINE
  5
34C77
330
2
100
AcDbEntity
  8
0
  6
Continuous
 62
     4
100
AcDbLine
 10
25.32258104084113
 20
17.43097553438771
 30
0.0
 11
25.28258104084114
 21
17.43097553438771
 31
0.0
  0
LINE
  5
34C78
330
2
100
AcDbEntity
  8
0
  6
Continuous
 62
     4
100
AcDbLine
 10
25.28258104084114
 20
17.43097553438771
 30
0.0
 11
25.28258104084114
 21
17.61897553438771
 31
0.0
  0
LINE
  5
34C79
330
2
100
AcDbEntity
  8
0
  6
Continuous
 62
     4
100
AcDbLine
 10
25.28258104084114
 20
17.61897553438771
 30
0.0
 11
25.40758104084114
 21
17.61897553438771
 31
0.0
  0
LINE
  5
34C7A
330
2
100
AcDbEntity
  8
0
  6
Continuous
 62
     4
100
AcDbLine
 10
25.40758104084114
 20
17.61897553438771
 30
0.0
 11
25.40758104084114
 21
17.43097553438771
 31
0.0
  0
LINE
  5
34C7B
330
2
100
AcDbEntity
  8
0
  6
Continuous
 62
     4
100
AcDbLine
 10
25.40758104084114
 20
17.43097553438771
 30
0.0
 11
25.36758104084113
 21
17.43097553438771
 31
0.0
  0
LINE
  5
34C7C
330
2
100
AcDbEntity
  8
0
  6
Continuous
 62
     4
100
AcDbLine
 10
25.36758104084113
 20
17.43097553438771
 30
0.0
 11
25.36758104084113
 21
16.16897553438771
 31
0.0
  0
LINE
  5
34C7D
330
2
100
AcDbEntity
  8
0
  6
Continuous
 62
     4
100
AcDbLine
 10
25.36758104084113
 20
16.16897553438771
 30
0.0
 11
25.81388104084114
 21
16.16897553438771
 31
0.0
  0
LINE
  5
34C7E
330
2
100
AcDbEntity
  8
SECTION
  6
Continuous
100
AcDbLine
 10
12.60857072712333
 20
17.8089755343879
 30
0.0
 11
12.60857072712333
 21
16.80766303438773
 31
0.0
  0
LINE
  5
34C7F
330
2
100
AcDbEntity
  8
SECTION
  6
Continuous
100
AcDbLine
 10
12.60857072712333
 20
16.80766303438773
 30
0.0
 11
12.2651360496915
 21
16.68266303438772
 31
0.0
  0
LINE
  5
34C80
330
2
100
AcDbEntity
  8
SECTION
  6
Continuous
100
AcDbLine
 10
12.2651360496915
 20
16.68266303438772
 30
0.0
 11
12.95200540455516
 21
16.43266303438772
 31
0.0
  0
LINE
  5
34C81
330
2
100
AcDbEntity
  8
SECTION
  6
Continuous
100
AcDbLine
 10
12.95200540455516
 20
16.43266303438772
 30
0.0
 11
12.60857072712333
 21
16.30766303438773
 31
0.0
  0
LINE
  5
34C82
330
2
100
AcDbEntity
  8
SECTION
  6
Continuous
100
AcDbLine
 10
12.60857072712333
 20
16.30766303438773
 30
0.0
 11
12.60857072712333
 21
15.30635053438756
 31
0.0
  0
LINE
  5
34C83
330
2
100
AcDbEntity
  8
HATCH
 62
     1
100
AcDbLine
 10
12.61824716448468
 20
17.62619035133395
 30
0.0
 11
12.66103234753809
 21
17.66897553438736
 31
0.0
1001
ACAD
1010
0.0
1020
0.0
1030
0.0
  0
LINE
  5
34C84
330
2
100
AcDbEntity
  8
HATCH
 62
     1
100
AcDbLine
 10
12.60857072712333
 20
17.08618382808269
 30
0.0
 11
13.19136243342808
 21
17.66897553438744
 31
0.0
1001
ACAD
1010
0.0
1020
0.0
1030
0.0
  0
LINE
  5
34C85
330
2
100
AcDbEntity
  8
HATCH
 62
     1
100
AcDbLine
 10
12.60989721662397
 20
16.55718023169342
 30
0.0
 11
13.72169251931807
 21
17.66897553438752
 31
0.0
1001
ACAD
1010
0.0
1020
0.0
1030
0.0
  0
LINE
  5
34C86
330
2
100
AcDbEntity
  8
HATCH
 62
     1
100
AcDbLine
 10
12.75202260520836
 20
16.16897553438789
 30
0.0
 11
14.25202260520806
 21
17.6689755343876
 31
0.0
1001
ACAD
1010
0.0
1020
0.0
1030
0.0
  0
LINE
  5
34C87
330
2
100
AcDbEntity
  8
HATCH
 62
     1
100
AcDbLine
 10
13.28235269109827
 20
16.16897553438789
 30
0.0
 11
14.78235269109806
 21
17.66897553438769
 31
0.0
1001
ACAD
1010
0.0
1020
0.0
1030
0.0
  0
LINE
  5
34C88
330
2
100
AcDbEntity
  8
HATCH
 62
     1
100
AcDbLine
 10
13.81268277698818
 20
16.16897553438789
 30
0.0
 11
15.31268277698805
 21
17.66897553438777
 31
0.0
1001
ACAD
1010
0.0
1020
0.0
1030
0.0
  0
LINE
  5
34C89
330
2
100
AcDbEntity
  8
HATCH
 62
     1
100
AcDbLine
 10
14.34301286287809
 20
16.16897553438789
 30
0.0
 11
15.84301286287804
 21
17.66897553438785
 31
0.0
1001
ACAD
1010
0.0
1020
0.0
1030
0.0
  0
LINE
  5
34C8A
330
2
100
AcDbEntity
  8
HATCH
 62
     1
100
AcDbLine
 10
14.873342948768
 20
16.16897553438789
 30
0.0
 11
16.12603488710055
 21
17.42166747272044
 31
0.0
1001
ACAD
1010
0.0
1020
0.0
1030
0.0
  0
LINE
  5
34C8B
330
2
100
AcDbEntity
  8
HATCH
 62
     1
100
AcDbLine
 10
15.40367303465791
 20
16.16897553438789
 30
0.0
 11
16.28395219929648
 21
17.04925469902647
 31
0.0
1001
ACAD
1010
0.0
1020
0.0
1030
0.0
  0
LINE
  5
34C8C
330
2
100
AcDbEntity
  8
HATCH
 62
     1
100
AcDbLine
 10
15.93400312054782
 20
16.16897553438789
 30
0.0
 11
16.36407463020013
 21
16.5990470440402
 31
0.0
1001
ACAD
1010
0.0
1020
0.0
1030
0.0
  0
LINE
  5
34C8D
330
2
100
AcDbEntity
  8
HATCH
 62
     1
100
AcDbLine
 10
19.77407155115755
 20
17.35739353554807
 30
0.0
 11
20.08565354999738
 21
17.6689755343879
 31
0.0
1001
ACAD
1010
0.0
1020
0.0
1030
0.0
  0
LINE
  5
34C8E
330
2
100
AcDbEntity
  8
HATCH
 62
     1
100
AcDbLine
 10
19.5439835288318
 20
16.59697542733241
 30
0.0
 11
20.61598363588728
 21
17.6689755343879
 31
0.0
1001
ACAD
1010
0.0
1020
0.0
1030
0.0
  0
LINE
  5
34C8F
330
2
100
AcDbEntity
  8
HATCH
 62
     1
100
AcDbLine
 10
19.6463137217772
 20
16.16897553438789
 30
0.0
 11
21.1463137217772
 21
17.6689755343879
 31
0.0
1001
ACAD
1010
0.0
1020
0.0
1030
0.0
  0
LINE
  5
34C90
330
2
100
AcDbEntity
  8
HATCH
 62
     1
100
AcDbLine
 10
20.1766438076671
 20
16.16897553438789
 30
0.0
 11
21.67664380766711
 21
17.6689755343879
 31
0.0
1001
ACAD
1010
0.0
1020
0.0
1030
0.0
  0
LINE
  5
34C91
330
2
100
AcDbEntity
  8
HATCH
 62
     1
100
AcDbLine
 10
20.70697389355702
 20
16.16897553438789
 30
0.0
 11
22.20697389355702
 21
17.6689755343879
 31
0.0
1001
ACAD
1010
0.0
1020
0.0
1030
0.0
  0
LINE
  5
34C92
330
2
100
AcDbEntity
  8
HATCH
 62
     1
100
AcDbLine
 10
21.23730397944693
 20
16.16897553438789
 30
0.0
 11
22.73730397944693
 21
17.6689755343879
 31
0.0
1001
ACAD
1010
0.0
1020
0.0
1030
0.0
  0
LINE
  5
34C93
330
2
100
AcDbEntity
  8
HATCH
 62
     1
100
AcDbLine
 10
21.76763406533684
 20
16.16897553438789
 30
0.0
 11
23.26763406533684
 21
17.6689755343879
 31
0.0
1001
ACAD
1010
0.0
1020
0.0
1030
0.0
  0
LINE
  5
34C94
330
2
100
AcDbEntity
  8
HATCH
 62
     1
100
AcDbLine
 10
22.29796415122675
 20
16.16897553438789
 30
0.0
 11
23.33284266017056
 21
17.20385404333171
 31
0.0
1001
ACAD
1010
0.0
1020
0.0
1030
0.0
  0
LINE
  5
34C95
330
2
100
AcDbEntity
  8
HATCH
 62
     1
100
AcDbLine
 10
22.82829423711666
 20
16.16897553438789
 30
0.0
 11
23.50211107763984
 21
16.84279237491107
 31
0.0
1001
ACAD
1010
0.0
1020
0.0
1030
0.0
  0
LINE
  5
34C96
330
2
100
AcDbEntity
  8
HATCH
 62
     1
100
AcDbLine
 10
23.35862432300657
 20
16.16897553438789
 30
0.0
 11
23.49373559432896
 21
16.30408680571029
 31
0.0
1001
ACAD
1010
0.0
1020
0.0
1030
0.0
  0
LINE
  5
34C97
330
2
100
AcDbEntity
  8
HATCH
 62
     1
100
AcDbLine
 10
12.66766030941946
 20
17.32205010567545
 30
0.0
 11
12.75604865706778
 21
17.41043845332377
 31
0.0
1001
ACAD
1010
0.0
1020
0.0
1030
0.0
  0
LINE
  5
34C98
330
2
100
AcDbEntity
  8
HATCH
 62
     1
100
AcDbLine
 10
12.8444370047161
 20
17.49882680097209
 30
0.0
 11
12.93282535236441
 21
17.58721514862041
 31
0.0
1001
ACAD
1010
0.0
1020
0.0
1030
0.0
  0
LINE
  5
34C99
330
2
100
AcDbEntity
  8
HATCH
 62
     1
100
AcDbLine
 10
12.48029270557558
 20
16.60435241594167
 30
0.0
 11
12.49088361412282
 21
16.6149433244889
 31
0.0
1001
ACAD
1010
0.0
1020
0.0
1030
0.0
  0
LINE
  5
34C9A
330
2
100
AcDbEntity
  8
HATCH
 62
     1
100
AcDbLine
 10
12.57927196177113
 20
16.70333167213722
 30
0.0
 11
12.66766030941945
 21
16.79172001978554
 31
0.0
1001
ACAD
1010
0.0
1020
0.0
1030
0.0
  0
LINE
  5
34C9B
330
2
100
AcDbEntity
  8
HATCH
 62
     1
100
AcDbLine
 10
12.75604865706777
 20
16.88010836743386
 30
0.0
 11
12.84443700471609
 21
16.96849671508218
 31
0.0
1001
ACAD
1010
0.0
1020
0.0
1030
0.0
  0
LINE
  5
34C9C
330
2
100
AcDbEntity
  8
HATCH
 62
     1
100
AcDbLine
 10
12.93282535236441
 20
17.0568850627305
 30
0.0
 11
13.02121370001273
 21
17.14527341037882
 31
0.0
1001
ACAD
1010
0.0
1020
0.0
1030
0.0
  0
LINE
  5
34C9D
330
2
100
AcDbEntity
  8
HATCH
 62
     1
100
AcDbLine
 10
13.10960204766105
 20
17.23366175802714
 30
0.0
 11
13.19799039530937
 21
17.32205010567546
 31
0.0
1001
ACAD
1010
0.0
1020
0.0
1030
0.0
  0
LINE
  5
34C9E
330
2
100
AcDbEntity
  8
HATCH
 62
     1
100
AcDbLine
 10
13.28637874295769
 20
17.41043845332377
 30
0.0
 11
13.37476709060601
 21
17.4988268009721
 31
0.0
1001
ACAD
1010
0.0
1020
0.0
1030
0.0
  0
LINE
  5
34C9F
330
2
100
AcDbEntity
  8
HATCH
 62
     1
100
AcDbLine
 10
13.46315543825433
 20
17.58721514862041
 30
0.0
 11
13.54491582402141
 21
17.6689755343875
 31
0.0
1001
ACAD
1010
0.0
1020
0.0
1030
0.0
  0
LINE
  5
34CA0
330
2
100
AcDbEntity
  8
HATCH
 62
     1
100
AcDbLine
 10
12.66766030941946
 20
16.26138993389563
 30
0.0
 11
12.75604865706778
 21
16.34977828154395
 31
0.0
1001
ACAD
1010
0.0
1020
0.0
1030
0.0
  0
LINE
  5
34CA1
330
2
100
AcDbEntity
  8
HATCH
 62
     1
100
AcDbLine
 10
12.86910623872076
 20
16.46283586319694
 30
0.0
 11
12.93282535236441
 21
16.52655497684058
 31
0.0
1001
ACAD
1010
0.0
1020
0.0
1030
0.0
  0
LINE
  5
34CA2
330
2
100
AcDbEntity
  8
HATCH
 62
     1
100
AcDbLine
 10
13.02121370001273
 20
16.6149433244889
 30
0.0
 11
13.10960204766105
 21
16.70333167213722
 31
0.0
1001
ACAD
1010
0.0
1020
0.0
1030
0.0
  0
LINE
  5
34CA3
330
2
100
AcDbEntity
  8
HATCH
 62
     1
100
AcDbLine
 10
13.19799039530937
 20
16.79172001978554
 30
0.0
 11
13.28637874295769
 21
16.88010836743386
 31
0.0
1001
ACAD
1010
0.0
1020
0.0
1030
0.0
  0
LINE
  5
34CA4
330
2
100
AcDbEntity
  8
HATCH
 62
     1
100
AcDbLine
 10
13.37476709060601
 20
16.96849671508218
 30
0.0
 11
13.46315543825433
 21
17.0568850627305
 31
0.0
1001
ACAD
1010
0.0
1020
0.0
1030
0.0
  0
LINE
  5
34CA5
330
2
100
AcDbEntity
  8
HATCH
 62
     1
100
AcDbLine
 10
13.55154378590264
 20
17.14527341037882
 30
0.0
 11
13.63993213355096
 21
17.23366175802714
 31
0.0
1001
ACAD
1010
0.0
1020
0.0
1030
0.0
  0
LINE
  5
34CA6
330
2
100
AcDbEntity
  8
HATCH
 62
     1
100
AcDbLine
 10
13.72832048119928
 20
17.32205010567546
 30
0.0
 11
13.8167088288476
 21
17.41043845332377
 31
0.0
1001
ACAD
1010
0.0
1020
0.0
1030
0.0
  0
LINE
  5
34CA7
330
2
100
AcDbEntity
  8
HATCH
 62
     1
100
AcDbLine
 10
13.90509717649592
 20
17.4988268009721
 30
0.0
 11
13.99348552414424
 21
17.58721514862041
 31
0.0
1001
ACAD
1010
0.0
1020
0.0
1030
0.0
  0
LINE
  5
34CA8
330
2
100
AcDbEntity
  8
HATCH
 62
     1
100
AcDbLine
 10
13.10960204766105
 20
16.17300158624731
 30
0.0
 11
13.19799039530936
 21
16.26138993389563
 31
0.0
1001
ACAD
1010
0.0
1020
0.0
1030
0.0
  0
LINE
  5
34CA9
330
2
100
AcDbEntity
  8
HATCH
 62
     1
100
AcDbLine
 10
13.28637874295768
 20
16.34977828154395
 30
0.0
 11
13.374767090606
 21
16.43816662919227
 31
0.0
1001
ACAD
1010
0.0
1020
0.0
1030
0.0
  0
LINE
  5
34CAA
330
2
100
AcDbEntity
  8
HATCH
 62
     1
100
AcDbLine
 10
13.46315543825432
 20
16.52655497684059
 30
0.0
 11
13.55154378590264
 21
16.61494332448891
 31
0.0
1001
ACAD
1010
0.0
1020
0.0
1030
0.0
  0
LINE
  5
34CAB
330
2
100
AcDbEntity
  8
HATCH
 62
     1
100
AcDbLine
 10
13.63993213355096
 20
16.70333167213723
 30
0.0
 11
13.72832048119928
 21
16.79172001978554
 31
0.0
1001
ACAD
1010
0.0
1020
0.0
1030
0.0
  0
LINE
  5
34CAC
330
2
100
AcDbEntity
  8
HATCH
 62
     1
100
AcDbLine
 10
13.8167088288476
 20
16.88010836743386
 30
0.0
 11
13.90509717649592
 21
16.96849671508218
 31
0.0
1001
ACAD
1010
0.0
1020
0.0
1030
0.0
  0
LINE
  5
34CAD
330
2
100
AcDbEntity
  8
HATCH
 62
     1
100
AcDbLine
 10
13.99348552414424
 20
17.0568850627305
 30
0.0
 11
14.08187387179256
 21
17.14527341037882
 31
0.0
1001
ACAD
1010
0.0
1020
0.0
1030
0.0
  0
LINE
  5
34CAE
330
2
100
AcDbEntity
  8
HATCH
 62
     1
100
AcDbLine
 10
14.17026221944088
 20
17.23366175802714
 30
0.0
 11
14.25865056708919
 21
17.32205010567546
 31
0.0
1001
ACAD
1010
0.0
1020
0.0
1030
0.0
  0
LINE
  5
34CAF
330
2
100
AcDbEntity
  8
HATCH
 62
     1
100
AcDbLine
 10
14.34703891473751
 20
17.41043845332377
 30
0.0
 11
14.43542726238583
 21
17.4988268009721
 31
0.0
1001
ACAD
1010
0.0
1020
0.0
1030
0.0
  0
LINE
  5
34CB0
330
2
100
AcDbEntity
  8
HATCH
 62
     1
100
AcDbLine
 10
14.52381561003415
 20
17.58721514862042
 30
0.0
 11
14.6055759958014
 21
17.66897553438767
 31
0.0
1001
ACAD
1010
0.0
1020
0.0
1030
0.0
  0
LINE
  5
34CB1
330
2
100
AcDbEntity
  8
HATCH
 62
     1
100
AcDbLine
 10
13.63590608169154
 20
16.16897553438789
 30
0.0
 11
13.63993213355096
 21
16.17300158624732
 31
0.0
1001
ACAD
1010
0.0
1020
0.0
1030
0.0
  0
LINE
  5
34CB2
330
2
100
AcDbEntity
  8
HATCH
 62
     1
100
AcDbLine
 10
13.72832048119928
 20
16.26138993389563
 30
0.0
 11
13.8167088288476
 21
16.34977828154395
 31
0.0
1001
ACAD
1010
0.0
1020
0.0
1030
0.0
  0
LINE
  5
34CB3
330
2
100
AcDbEntity
  8
HATCH
 62
     1
100
AcDbLine
 10
13.90509717649592
 20
16.43816662919227
 30
0.0
 11
13.99348552414424
 21
16.52655497684059
 31
0.0
1001
ACAD
1010
0.0
1020
0.0
1030
0.0
  0
LINE
  5
34CB4
330
2
100
AcDbEntity
  8
HATCH
 62
     1
100
AcDbLine
 10
14.08187387179256
 20
16.61494332448891
 30
0.0
 11
14.17026221944088
 21
16.70333167213723
 31
0.0
1001
ACAD
1010
0.0
1020
0.0
1030
0.0
  0
LINE
  5
34CB5
330
2
100
AcDbEntity
  8
HATCH
 62
     1
100
AcDbLine
 10
14.2586505670892
 20
16.79172001978555
 30
0.0
 11
14.34703891473751
 21
16.88010836743387
 31
0.0
1001
ACAD
1010
0.0
1020
0.0
1030
0.0
  0
LINE
  5
34CB6
330
2
100
AcDbEntity
  8
HATCH
 62
     1
100
AcDbLine
 10
14.43542726238583
 20
16.96849671508219
 30
0.0
 11
14.52381561003415
 21
17.05688506273051
 31
0.0
1001
ACAD
1010
0.0
1020
0.0
1030
0.0
  0
LINE
  5
34CB7
330
2
100
AcDbEntity
  8
HATCH
 62
     1
100
AcDbLine
 10
14.61220395768247
 20
17.14527341037882
 30
0.0
 11
14.70059230533079
 21
17.23366175802715
 31
0.0
1001
ACAD
1010
0.0
1020
0.0
1030
0.0
  0
LINE
  5
34CB8
330
2
100
AcDbEntity
  8
HATCH
 62
     1
100
AcDbLine
 10
14.78898065297911
 20
17.32205010567546
 30
0.0
 11
14.87736900062743
 21
17.41043845332377
 31
0.0
1001
ACAD
1010
0.0
1020
0.0
1030
0.0
  0
LINE
  5
34CB9
330
2
100
AcDbEntity
  8
HATCH
 62
     1
100
AcDbLine
 10
14.96575734827575
 20
17.4988268009721
 30
0.0
 11
15.05414569592407
 21
17.58721514862042
 31
0.0
1001
ACAD
1010
0.0
1020
0.0
1030
0.0
  0
LINE
  5
34CBA
330
2
100
AcDbEntity
  8
HATCH
 62
     1
100
AcDbLine
 10
14.17026221944087
 20
16.17300158624731
 30
0.0
 11
14.25865056708919
 21
16.26138993389563
 31
0.0
1001
ACAD
1010
0.0
1020
0.0
1030
0.0
  0
LINE
  5
34CBB
330
2
100
AcDbEntity
  8
HATCH
 62
     1
100
AcDbLine
 10
14.34703891473751
 20
16.34977828154395
 30
0.0
 11
14.43542726238583
 21
16.43816662919227
 31
0.0
1001
ACAD
1010
0.0
1020
0.0
1030
0.0
  0
LINE
  5
34CBC
330
2
100
AcDbEntity
  8
HATCH
 62
     1
100
AcDbLine
 10
14.52381561003415
 20
16.52655497684059
 30
0.0
 11
14.61220395768246
 21
16.61494332448891
 31
0.0
1001
ACAD
1010
0.0
1020
0.0
1030
0.0
  0
LINE
  5
34CBD
330
2
100
AcDbEntity
  8
HATCH
 62
     1
100
AcDbLine
 10
14.70059230533078
 20
16.70333167213723
 30
0.0
 11
14.7889806529791
 21
16.79172001978554
 31
0.0
1001
ACAD
1010
0.0
1020
0.0
1030
0.0
  0
LINE
  5
34CBE
330
2
100
AcDbEntity
  8
HATCH
 62
     1
100
AcDbLine
 10
14.87736900062742
 20
16.88010836743386
 30
0.0
 11
14.96575734827574
 21
16.96849671508218
 31
0.0
1001
ACAD
1010
0.0
1020
0.0
1030
0.0
  0
LINE
  5
34CBF
330
2
100
AcDbEntity
  8
HATCH
 62
     1
100
AcDbLine
 10
15.05414569592406
 20
17.0568850627305
 30
0.0
 11
15.14253404357238
 21
17.14527341037882
 31
0.0
1001
ACAD
1010
0.0
1020
0.0
1030
0.0
  0
LINE
  5
34CC0
330
2
100
AcDbEntity
  8
HATCH
 62
     1
100
AcDbLine
 10
15.23092239122069
 20
17.23366175802714
 30
0.0
 11
15.31931073886902
 21
17.32205010567546
 31
0.0
1001
ACAD
1010
0.0
1020
0.0
1030
0.0
  0
LINE
  5
34CC1
330
2
100
AcDbEntity
  8
HATCH
 62
     1
100
AcDbLine
 10
15.40769908651734
 20
17.41043845332377
 30
0.0
 11
15.49608743416565
 21
17.4988268009721
 31
0.0
1001
ACAD
1010
0.0
1020
0.0
1030
0.0
  0
LINE
  5
34CC2
330
2
100
AcDbEntity
  8
HATCH
 62
     1
100
AcDbLine
 10
15.58447578181398
 20
17.58721514862042
 30
0.0
 11
15.66623616758139
 21
17.66897553438783
 31
0.0
1001
ACAD
1010
0.0
1020
0.0
1030
0.0
  0
LINE
  5
34CC3
330
2
100
AcDbEntity
  8
HATCH
 62
     1
100
AcDbLine
 10
14.69656625347136
 20
16.16897553438789
 30
0.0
 11
14.70059230533078
 21
16.17300158624731
 31
0.0
1001
ACAD
1010
0.0
1020
0.0
1030
0.0
  0
LINE
  5
34CC4
330
2
100
AcDbEntity
  8
HATCH
 62
     1
100
AcDbLine
 10
14.7889806529791
 20
16.26138993389563
 30
0.0
 11
14.87736900062742
 21
16.34977828154395
 31
0.0
1001
ACAD
1010
0.0
1020
0.0
1030
0.0
  0
LINE
  5
34CC5
330
2
100
AcDbEntity
  8
HATCH
 62
     1
100
AcDbLine
 10
14.96575734827574
 20
16.43816662919227
 30
0.0
 11
15.05414569592406
 21
16.52655497684059
 31
0.0
1001
ACAD
1010
0.0
1020
0.0
1030
0.0
  0
LINE
  5
34CC6
330
2
100
AcDbEntity
  8
HATCH
 62
     1
100
AcDbLine
 10
15.14253404357237
 20
16.61494332448891
 30
0.0
 11
15.23092239122069
 21
16.70333167213723
 31
0.0
1001
ACAD
1010
0.0
1020
0.0
1030
0.0
  0
LINE
  5
34CC7
330
2
100
AcDbEntity
  8
HATCH
 62
     1
100
AcDbLine
 10
15.31931073886901
 20
16.79172001978554
 30
0.0
 11
15.40769908651733
 21
16.88010836743386
 31
0.0
1001
ACAD
1010
0.0
1020
0.0
1030
0.0
  0
LINE
  5
34CC8
330
2
100
AcDbEntity
  8
HATCH
 62
     1
100
AcDbLine
 10
15.49608743416565
 20
16.96849671508218
 30
0.0
 11
15.58447578181397
 21
17.0568850627305
 31
0.0
1001
ACAD
1010
0.0
1020
0.0
1030
0.0
  0
LINE
  5
34CC9
330
2
100
AcDbEntity
  8
HATCH
 62
     1
100
AcDbLine
 10
15.67286412946229
 20
17.14527341037882
 30
0.0
 11
15.76125247711061
 21
17.23366175802714
 31
0.0
1001
ACAD
1010
0.0
1020
0.0
1030
0.0
  0
LINE
  5
34CCA
330
2
100
AcDbEntity
  8
HATCH
 62
     1
100
AcDbLine
 10
15.84964082475893
 20
17.32205010567546
 30
0.0
 11
15.93802917240725
 21
17.41043845332377
 31
0.0
1001
ACAD
1010
0.0
1020
0.0
1030
0.0
  0
LINE
  5
34CCB
330
2
100
AcDbEntity
  8
HATCH
 62
     1
100
AcDbLine
 10
16.02641752005556
 20
17.4988268009721
 30
0.0
 11
16.11480586770388
 21
17.58721514862042
 31
0.0
1001
ACAD
1010
0.0
1020
0.0
1030
0.0
  0
LINE
  5
34CCC
330
2
100
AcDbEntity
  8
HATCH
 62
     1
100
AcDbLine
 10
15.23092239122069
 20
16.17300158624732
 30
0.0
 11
15.31931073886901
 21
16.26138993389563
 31
0.0
1001
ACAD
1010
0.0
1020
0.0
1030
0.0
  0
LINE
  5
34CCD
330
2
100
AcDbEntity
  8
HATCH
 62
     1
100
AcDbLine
 10
15.40769908651733
 20
16.34977828154395
 30
0.0
 11
15.49608743416565
 21
16.43816662919227
 31
0.0
1001
ACAD
1010
0.0
1020
0.0
1030
0.0
  0
LINE
  5
34CCE
330
2
100
AcDbEntity
  8
HATCH
 62
     1
100
AcDbLine
 10
15.58447578181397
 20
16.52655497684059
 30
0.0
 11
15.67286412946229
 21
16.61494332448891
 31
0.0
1001
ACAD
1010
0.0
1020
0.0
1030
0.0
  0
LINE
  5
34CCF
330
2
100
AcDbEntity
  8
HATCH
 62
     1
100
AcDbLine
 10
15.76125247711061
 20
16.70333167213723
 30
0.0
 11
15.84964082475893
 21
16.79172001978555
 31
0.0
1001
ACAD
1010
0.0
1020
0.0
1030
0.0
  0
LINE
  5
34CD0
330
2
100
AcDbEntity
  8
HATCH
 62
     1
100
AcDbLine
 10
15.93802917240725
 20
16.88010836743387
 30
0.0
 11
16.02641752005556
 21
16.96849671508219
 31
0.0
1001
ACAD
1010
0.0
1020
0.0
1030
0.0
  0
LINE
  5
34CD1
330
2
100
AcDbEntity
  8
HATCH
 62
     1
100
AcDbLine
 10
16.11480586770388
 20
17.05688506273051
 30
0.0
 11
16.2031942153522
 21
17.14527341037882
 31
0.0
1001
ACAD
1010
0.0
1020
0.0
1030
0.0
  0
LINE
  5
34CD2
330
2
100
AcDbEntity
  8
HATCH
 62
     1
100
AcDbLine
 10
15.75722642525118
 20
16.16897553438789
 30
0.0
 11
15.7612524771106
 21
16.17300158624731
 31
0.0
1001
ACAD
1010
0.0
1020
0.0
1030
0.0
  0
LINE
  5
34CD3
330
2
100
AcDbEntity
  8
HATCH
 62
     1
100
AcDbLine
 10
15.84964082475892
 20
16.26138993389563
 30
0.0
 11
15.93802917240724
 21
16.34977828154395
 31
0.0
1001
ACAD
1010
0.0
1020
0.0
1030
0.0
  0
LINE
  5
34CD4
330
2
100
AcDbEntity
  8
HATCH
 62
     1
100
AcDbLine
 10
16.02641752005555
 20
16.43816662919227
 30
0.0
 11
16.11480586770387
 21
16.52655497684059
 31
0.0
1001
ACAD
1010
0.0
1020
0.0
1030
0.0
  0
LINE
  5
34CD5
330
2
100
AcDbEntity
  8
HATCH
 62
     1
100
AcDbLine
 10
16.20319421535219
 20
16.61494332448891
 30
0.0
 11
16.29158256300051
 21
16.70333167213723
 31
0.0
1001
ACAD
1010
0.0
1020
0.0
1030
0.0
  0
LINE
  5
34CD6
330
2
100
AcDbEntity
  8
HATCH
 62
     1
100
AcDbLine
 10
16.29158256300051
 20
16.17300158624731
 30
0.0
 11
16.36448058434706
 21
16.24589960759386
 31
0.0
1001
ACAD
1010
0.0
1020
0.0
1030
0.0
  0
LINE
  5
34CD7
330
2
100
AcDbEntity
  8
HATCH
 62
     1
100
AcDbLine
 10
19.82711646893324
 20
17.58721514862041
 30
0.0
 11
19.90887685470073
 21
17.6689755343879
 31
0.0
1001
ACAD
1010
0.0
1020
0.0
1030
0.0
  0
LINE
  5
34CD8
330
2
100
AcDbEntity
  8
HATCH
 62
     1
100
AcDbLine
 10
19.56195142598829
 20
16.79172001978554
 30
0.0
 11
19.65033977363661
 21
16.88010836743386
 31
0.0
1001
ACAD
1010
0.0
1020
0.0
1030
0.0
  0
LINE
  5
34CD9
330
2
100
AcDbEntity
  8
HATCH
 62
     1
100
AcDbLine
 10
19.73872812128493
 20
16.96849671508218
 30
0.0
 11
19.82711646893325
 21
17.0568850627305
 31
0.0
1001
ACAD
1010
0.0
1020
0.0
1030
0.0
  0
LINE
  5
34CDA
330
2
100
AcDbEntity
  8
HATCH
 62
     1
100
AcDbLine
 10
19.91550481658157
 20
17.14527341037882
 30
0.0
 11
20.00389316422989
 21
17.23366175802714
 31
0.0
1001
ACAD
1010
0.0
1020
0.0
1030
0.0
  0
LINE
  5
34CDB
330
2
100
AcDbEntity
  8
HATCH
 62
     1
100
AcDbLine
 10
20.09228151187821
 20
17.32205010567546
 30
0.0
 11
20.18066985952653
 21
17.41043845332377
 31
0.0
1001
ACAD
1010
0.0
1020
0.0
1030
0.0
  0
LINE
  5
34CDC
330
2
100
AcDbEntity
  8
HATCH
 62
     1
100
AcDbLine
 10
20.26905820717485
 20
17.4988268009721
 30
0.0
 11
20.35744655482317
 21
17.58721514862041
 31
0.0
1001
ACAD
1010
0.0
1020
0.0
1030
0.0
  0
LINE
  5
34CDD
330
2
100
AcDbEntity
  8
HATCH
 62
     1
100
AcDbLine
 10
19.54265816673918
 20
16.24209667464651
 30
0.0
 11
19.56195142598829
 21
16.26138993389563
 31
0.0
1001
ACAD
1010
0.0
1020
0.0
1030
0.0
  0
LINE
  5
34CDE
330
2
100
AcDbEntity
  8
HATCH
 62
     1
100
AcDbLine
 10
19.65033977363661
 20
16.34977828154395
 30
0.0
 11
19.73872812128493
 21
16.43816662919227
 31
0.0
1001
ACAD
1010
0.0
1020
0.0
1030
0.0
  0
LINE
  5
34CDF
330
2
100
AcDbEntity
  8
HATCH
 62
     1
100
AcDbLine
 10
19.82711646893325
 20
16.52655497684059
 30
0.0
 11
19.91550481658157
 21
16.61494332448891
 31
0.0
1001
ACAD
1010
0.0
1020
0.0
1030
0.0
  0
LINE
  5
34CE0
330
2
100
AcDbEntity
  8
HATCH
 62
     1
100
AcDbLine
 10
20.00389316422989
 20
16.70333167213723
 30
0.0
 11
20.09228151187821
 21
16.79172001978554
 31
0.0
1001
ACAD
1010
0.0
1020
0.0
1030
0.0
  0
LINE
  5
34CE1
330
2
100
AcDbEntity
  8
HATCH
 62
     1
100
AcDbLine
 10
20.18066985952653
 20
16.88010836743386
 30
0.0
 11
20.26905820717485
 21
16.96849671508218
 31
0.0
1001
ACAD
1010
0.0
1020
0.0
1030
0.0
  0
LINE
  5
34CE2
330
2
100
AcDbEntity
  8
HATCH
 62
     1
100
AcDbLine
 10
20.35744655482317
 20
17.0568850627305
 30
0.0
 11
20.44583490247148
 21
17.14527341037882
 31
0.0
1001
ACAD
1010
0.0
1020
0.0
1030
0.0
  0
LINE
  5
34CE3
330
2
100
AcDbEntity
  8
HATCH
 62
     1
100
AcDbLine
 10
20.53422325011981
 20
17.23366175802714
 30
0.0
 11
20.62261159776813
 21
17.32205010567546
 31
0.0
1001
ACAD
1010
0.0
1020
0.0
1030
0.0
  0
LINE
  5
34CE4
330
2
100
AcDbEntity
  8
HATCH
 62
     1
100
AcDbLine
 10
20.71099994541644
 20
17.41043845332377
 30
0.0
 11
20.79938829306476
 21
17.4988268009721
 31
0.0
1001
ACAD
1010
0.0
1020
0.0
1030
0.0
  0
LINE
  5
34CE5
330
2
100
AcDbEntity
  8
HATCH
 62
     1
100
AcDbLine
 10
20.88777664071308
 20
17.58721514862042
 30
0.0
 11
20.96953702648057
 21
17.66897553438791
 31
0.0
1001
ACAD
1010
0.0
1020
0.0
1030
0.0
  0
LINE
  5
34CE6
330
2
100
AcDbEntity
  8
HATCH
 62
     1
100
AcDbLine
 10
19.99986711237047
 20
16.16897553438789
 30
0.0
 11
20.00389316422989
 21
16.17300158624731
 31
0.0
1001
ACAD
1010
0.0
1020
0.0
1030
0.0
  0
LINE
  5
34CE7
330
2
100
AcDbEntity
  8
HATCH
 62
     1
100
AcDbLine
 10
20.09228151187821
 20
16.26138993389563
 30
0.0
 11
20.18066985952652
 21
16.34977828154395
 31
0.0
1001
ACAD
1010
0.0
1020
0.0
1030
0.0
  0
LINE
  5
34CE8
330
2
100
AcDbEntity
  8
HATCH
 62
     1
100
AcDbLine
 10
20.26905820717484
 20
16.43816662919227
 30
0.0
 11
20.35744655482316
 21
16.52655497684059
 31
0.0
1001
ACAD
1010
0.0
1020
0.0
1030
0.0
  0
LINE
  5
34CE9
330
2
100
AcDbEntity
  8
HATCH
 62
     1
100
AcDbLine
 10
20.44583490247148
 20
16.61494332448891
 30
0.0
 11
20.5342232501198
 21
16.70333167213723
 31
0.0
1001
ACAD
1010
0.0
1020
0.0
1030
0.0
  0
LINE
  5
34CEA
330
2
100
AcDbEntity
  8
HATCH
 62
     1
100
AcDbLine
 10
20.62261159776812
 20
16.79172001978554
 30
0.0
 11
20.71099994541644
 21
16.88010836743386
 31
0.0
1001
ACAD
1010
0.0
1020
0.0
1030
0.0
  0
LINE
  5
34CEB
330
2
100
AcDbEntity
  8
HATCH
 62
     1
100
AcDbLine
 10
20.79938829306476
 20
16.96849671508218
 30
0.0
 11
20.88777664071308
 21
17.0568850627305
 31
0.0
1001
ACAD
1010
0.0
1020
0.0
1030
0.0
  0
LINE
  5
34CEC
330
2
100
AcDbEntity
  8
HATCH
 62
     1
100
AcDbLine
 10
20.9761649883614
 20
17.14527341037882
 30
0.0
 11
21.06455333600972
 21
17.23366175802714
 31
0.0
1001
ACAD
1010
0.0
1020
0.0
1030
0.0
  0
LINE
  5
34CED
330
2
100
AcDbEntity
  8
HATCH
 62
     1
100
AcDbLine
 10
21.15294168365803
 20
17.32205010567546
 30
0.0
 11
21.24133003130635
 21
17.41043845332377
 31
0.0
1001
ACAD
1010
0.0
1020
0.0
1030
0.0
  0
LINE
  5
34CEE
330
2
100
AcDbEntity
  8
HATCH
 62
     1
100
AcDbLine
 10
21.32971837895468
 20
17.4988268009721
 30
0.0
 11
21.41810672660299
 21
17.58721514862042
 31
0.0
1001
ACAD
1010
0.0
1020
0.0
1030
0.0
  0
LINE
  5
34CEF
330
2
100
AcDbEntity
  8
HATCH
 62
     1
100
AcDbLine
 10
20.5342232501198
 20
16.17300158624732
 30
0.0
 11
20.62261159776812
 21
16.26138993389563
 31
0.0
1001
ACAD
1010
0.0
1020
0.0
1030
0.0
  0
LINE
  5
34CF0
330
2
100
AcDbEntity
  8
HATCH
 62
     1
100
AcDbLine
 10
20.71099994541644
 20
16.34977828154395
 30
0.0
 11
20.79938829306476
 21
16.43816662919227
 31
0.0
1001
ACAD
1010
0.0
1020
0.0
1030
0.0
  0
LINE
  5
34CF1
330
2
100
AcDbEntity
  8
HATCH
 62
     1
100
AcDbLine
 10
20.88777664071308
 20
16.52655497684059
 30
0.0
 11
20.9761649883614
 21
16.61494332448891
 31
0.0
1001
ACAD
1010
0.0
1020
0.0
1030
0.0
  0
LINE
  5
34CF2
330
2
100
AcDbEntity
  8
HATCH
 62
     1
100
AcDbLine
 10
21.06455333600972
 20
16.70333167213723
 30
0.0
 11
21.15294168365803
 21
16.79172001978555
 31
0.0
1001
ACAD
1010
0.0
1020
0.0
1030
0.0
  0
LINE
  5
34CF3
330
2
100
AcDbEntity
  8
HATCH
 62
     1
100
AcDbLine
 10
21.24133003130635
 20
16.88010836743387
 30
0.0
 11
21.32971837895468
 21
16.96849671508219
 31
0.0
1001
ACAD
1010
0.0
1020
0.0
1030
0.0
  0
LINE
  5
34CF4
330
2
100
AcDbEntity
  8
HATCH
 62
     1
100
AcDbLine
 10
21.41810672660299
 20
17.05688506273051
 30
0.0
 11
21.50649507425131
 21
17.14527341037882
 31
0.0
1001
ACAD
1010
0.0
1020
0.0
1030
0.0
  0
LINE
  5
34CF5
330
2
100
AcDbEntity
  8
HATCH
 62
     1
100
AcDbLine
 10
21.59488342189963
 20
17.23366175802715
 30
0.0
 11
21.68327176954795
 21
17.32205010567546
 31
0.0
1001
ACAD
1010
0.0
1020
0.0
1030
0.0
  0
LINE
  5
34CF6
330
2
100
AcDbEntity
  8
HATCH
 62
     1
100
AcDbLine
 10
21.77166011719627
 20
17.41043845332377
 30
0.0
 11
21.86004846484459
 21
17.4988268009721
 31
0.0
1001
ACAD
1010
0.0
1020
0.0
1030
0.0
  0
LINE
  5
34CF7
330
2
100
AcDbEntity
  8
HATCH
 62
     1
100
AcDbLine
 10
21.94843681249291
 20
17.58721514862042
 30
0.0
 11
22.0301971982604
 21
17.66897553438792
 31
0.0
1001
ACAD
1010
0.0
1020
0.0
1030
0.0
  0
LINE
  5
34CF8
330
2
100
AcDbEntity
  8
HATCH
 62
     1
100
AcDbLine
 10
21.06052728415029
 20
16.16897553438789
 30
0.0
 11
21.06455333600971
 21
16.17300158624732
 31
0.0
1001
ACAD
1010
0.0
1020
0.0
1030
0.0
  0
LINE
  5
34CF9
330
2
100
AcDbEntity
  8
HATCH
 62
     1
100
AcDbLine
 10
21.15294168365803
 20
16.26138993389563
 30
0.0
 11
21.24133003130635
 21
16.34977828154395
 31
0.0
1001
ACAD
1010
0.0
1020
0.0
1030
0.0
  0
LINE
  5
34CFA
330
2
100
AcDbEntity
  8
HATCH
 62
     1
100
AcDbLine
 10
21.32971837895468
 20
16.43816662919227
 30
0.0
 11
21.41810672660299
 21
16.52655497684059
 31
0.0
1001
ACAD
1010
0.0
1020
0.0
1030
0.0
  0
LINE
  5
34CFB
330
2
100
AcDbEntity
  8
HATCH
 62
     1
100
AcDbLine
 10
21.5064950742513
 20
16.61494332448891
 30
0.0
 11
21.59488342189963
 21
16.70333167213723
 31
0.0
1001
ACAD
1010
0.0
1020
0.0
1030
0.0
  0
LINE
  5
34CFC
330
2
100
AcDbEntity
  8
HATCH
 62
     1
100
AcDbLine
 10
21.68327176954794
 20
16.79172001978555
 30
0.0
 11
21.77166011719626
 21
16.88010836743387
 31
0.0
1001
ACAD
1010
0.0
1020
0.0
1030
0.0
  0
LINE
  5
34CFD
330
2
100
AcDbEntity
  8
HATCH
 62
     1
100
AcDbLine
 10
21.86004846484458
 20
16.96849671508219
 30
0.0
 11
21.9484368124929
 21
17.05688506273051
 31
0.0
1001
ACAD
1010
0.0
1020
0.0
1030
0.0
  0
LINE
  5
34CFE
330
2
100
AcDbEntity
  8
HATCH
 62
     1
100
AcDbLine
 10
22.03682516014122
 20
17.14527341037882
 30
0.0
 11
22.12521350778954
 21
17.23366175802715
 31
0.0
1001
ACAD
1010
0.0
1020
0.0
1030
0.0
  0
LINE
  5
34CFF
330
2
100
AcDbEntity
  8
HATCH
 62
     1
100
AcDbLine
 10
22.21360185543786
 20
17.32205010567546
 30
0.0
 11
22.30199020308618
 21
17.41043845332377
 31
0.0
1001
ACAD
1010
0.0
1020
0.0
1030
0.0
  0
LINE
  5
34D00
330
2
100
AcDbEntity
  8
HATCH
 62
     1
100
AcDbLine
 10
22.39037855073449
 20
17.4988268009721
 30
0.0
 11
22.47876689838282
 21
17.58721514862042
 31
0.0
1001
ACAD
1010
0.0
1020
0.0
1030
0.0
  0
LINE
  5
34D01
330
2
100
AcDbEntity
  8
HATCH
 62
     1
100
AcDbLine
 10
21.59488342189962
 20
16.17300158624731
 30
0.0
 11
21.68327176954794
 21
16.26138993389563
 31
0.0
1001
ACAD
1010
0.0
1020
0.0
1030
0.0
  0
LINE
  5
34D02
330
2
100
AcDbEntity
  8
HATCH
 62
     1
100
AcDbLine
 10
21.77166011719626
 20
16.34977828154395
 30
0.0
 11
21.86004846484458
 21
16.43816662919227
 31
0.0
1001
ACAD
1010
0.0
1020
0.0
1030
0.0
  0
LINE
  5
34D03
330
2
100
AcDbEntity
  8
HATCH
 62
     1
100
AcDbLine
 10
21.9484368124929
 20
16.52655497684059
 30
0.0
 11
22.03682516014122
 21
16.61494332448891
 31
0.0
1001
ACAD
1010
0.0
1020
0.0
1030
0.0
  0
LINE
  5
34D04
330
2
100
AcDbEntity
  8
HATCH
 62
     1
100
AcDbLine
 10
22.12521350778954
 20
16.70333167213723
 30
0.0
 11
22.21360185543785
 21
16.79172001978554
 31
0.0
1001
ACAD
1010
0.0
1020
0.0
1030
0.0
  0
LINE
  5
34D05
330
2
100
AcDbEntity
  8
HATCH
 62
     1
100
AcDbLine
 10
22.30199020308617
 20
16.88010836743386
 30
0.0
 11
22.39037855073449
 21
16.96849671508218
 31
0.0
1001
ACAD
1010
0.0
1020
0.0
1030
0.0
  0
LINE
  5
34D06
330
2
100
AcDbEntity
  8
HATCH
 62
     1
100
AcDbLine
 10
22.47876689838281
 20
17.0568850627305
 30
0.0
 11
22.56715524603113
 21
17.14527341037882
 31
0.0
1001
ACAD
1010
0.0
1020
0.0
1030
0.0
  0
LINE
  5
34D07
330
2
100
AcDbEntity
  8
HATCH
 62
     1
100
AcDbLine
 10
22.65554359367945
 20
17.23366175802714
 30
0.0
 11
22.74393194132777
 21
17.32205010567546
 31
0.0
1001
ACAD
1010
0.0
1020
0.0
1030
0.0
  0
LINE
  5
34D08
330
2
100
AcDbEntity
  8
HATCH
 62
     1
100
AcDbLine
 10
22.83232028897609
 20
17.41043845332377
 30
0.0
 11
22.92070863662441
 21
17.4988268009721
 31
0.0
1001
ACAD
1010
0.0
1020
0.0
1030
0.0
  0
LINE
  5
34D09
330
2
100
AcDbEntity
  8
HATCH
 62
     1
100
AcDbLine
 10
23.00909698427274
 20
17.58721514862042
 30
0.0
 11
23.09085737004021
 21
17.66897553438791
 31
0.0
1001
ACAD
1010
0.0
1020
0.0
1030
0.0
  0
LINE
  5
34D0A
330
2
100
AcDbEntity
  8
HATCH
 62
     1
100
AcDbLine
 10
22.12118745593011
 20
16.16897553438789
 30
0.0
 11
22.12521350778953
 21
16.17300158624731
 31
0.0
1001
ACAD
1010
0.0
1020
0.0
1030
0.0
  0
LINE
  5
34D0B
330
2
100
AcDbEntity
  8
HATCH
 62
     1
100
AcDbLine
 10
22.21360185543785
 20
16.26138993389563
 30
0.0
 11
22.30199020308617
 21
16.34977828154395
 31
0.0
1001
ACAD
1010
0.0
1020
0.0
1030
0.0
  0
LINE
  5
34D0C
330
2
100
AcDbEntity
  8
HATCH
 62
     1
100
AcDbLine
 10
22.39037855073449
 20
16.43816662919227
 30
0.0
 11
22.4787668983828
 21
16.52655497684059
 31
0.0
1001
ACAD
1010
0.0
1020
0.0
1030
0.0
  0
LINE
  5
34D0D
330
2
100
AcDbEntity
  8
HATCH
 62
     1
100
AcDbLine
 10
22.56715524603112
 20
16.61494332448891
 30
0.0
 11
22.65554359367945
 21
16.70333167213723
 31
0.0
1001
ACAD
1010
0.0
1020
0.0
1030
0.0
  0
LINE
  5
34D0E
330
2
100
AcDbEntity
  8
HATCH
 62
     1
100
AcDbLine
 10
22.74393194132776
 20
16.79172001978554
 30
0.0
 11
22.83232028897608
 21
16.88010836743386
 31
0.0
1001
ACAD
1010
0.0
1020
0.0
1030
0.0
  0
LINE
  5
34D0F
330
2
100
AcDbEntity
  8
HATCH
 62
     1
100
AcDbLine
 10
22.9207086366244
 20
16.96849671508218
 30
0.0
 11
23.00909698427272
 21
17.0568850627305
 31
0.0
1001
ACAD
1010
0.0
1020
0.0
1030
0.0
  0
LINE
  5
34D10
330
2
100
AcDbEntity
  8
HATCH
 62
     1
100
AcDbLine
 10
23.09748533192104
 20
17.14527341037882
 30
0.0
 11
23.18587367956936
 21
17.23366175802714
 31
0.0
1001
ACAD
1010
0.0
1020
0.0
1030
0.0
  0
LINE
  5
34D11
330
2
100
AcDbEntity
  8
HATCH
 62
     1
100
AcDbLine
 10
23.27426202721768
 20
17.32205010567546
 30
0.0
 11
23.27967796094485
 21
17.32746603940263
 31
0.0
1001
ACAD
1010
0.0
1020
0.0
1030
0.0
  0
LINE
  5
34D12
330
2
100
AcDbEntity
  8
HATCH
 62
     1
100
AcDbLine
 10
22.65554359367945
 20
16.17300158624732
 30
0.0
 11
22.74393194132776
 21
16.26138993389563
 31
0.0
1001
ACAD
1010
0.0
1020
0.0
1030
0.0
  0
LINE
  5
34D13
330
2
100
AcDbEntity
  8
HATCH
 62
     1
100
AcDbLine
 10
22.83232028897608
 20
16.34977828154395
 30
0.0
 11
22.9207086366244
 21
16.43816662919227
 31
0.0
1001
ACAD
1010
0.0
1020
0.0
1030
0.0
  0
LINE
  5
34D14
330
2
100
AcDbEntity
  8
HATCH
 62
     1
100
AcDbLine
 10
23.00909698427272
 20
16.52655497684059
 30
0.0
 11
23.09748533192104
 21
16.61494332448891
 31
0.0
1001
ACAD
1010
0.0
1020
0.0
1030
0.0
  0
LINE
  5
34D15
330
2
100
AcDbEntity
  8
HATCH
 62
     1
100
AcDbLine
 10
23.18587367956936
 20
16.70333167213723
 30
0.0
 11
23.27426202721768
 21
16.79172001978555
 31
0.0
1001
ACAD
1010
0.0
1020
0.0
1030
0.0
  0
LINE
  5
34D16
330
2
100
AcDbEntity
  8
HATCH
 62
     1
100
AcDbLine
 10
23.362650374866
 20
16.88010836743387
 30
0.0
 11
23.45103872251431
 21
16.96849671508219
 31
0.0
1001
ACAD
1010
0.0
1020
0.0
1030
0.0
  0
LINE
  5
34D17
330
2
100
AcDbEntity
  8
HATCH
 62
     1
100
AcDbLine
 10
23.18184762770993
 20
16.16897553438789
 30
0.0
 11
23.18587367956935
 21
16.17300158624731
 31
0.0
1001
ACAD
1010
0.0
1020
0.0
1030
0.0
  0
LINE
  5
34D18
330
2
100
AcDbEntity
  8
HATCH
 62
     1
100
AcDbLine
 10
23.27426202721767
 20
16.26138993389563
 30
0.0
 11
23.36265037486599
 21
16.34977828154395
 31
0.0
1001
ACAD
1010
0.0
1020
0.0
1030
0.0
  0
LINE
  5
34D19
330
2
100
AcDbEntity
  8
HATCH
 62
     1
100
AcDbLine
 10
23.45103872251431
 20
16.43816662919227
 30
0.0
 11
23.49205776049993
 21
16.47918566717789
 31
0.0
1001
ACAD
1010
0.0
1020
0.0
1030
0.0
  0
LINE
  5
34D1A
330
2
100
AcDbEntity
  8
HATCH
 62
     1
100
AcDbLine
 10
12.64268029431057
 20
17.4738467858632
 30
0.0
 11
12.66766030941946
 21
17.49882680097209
 31
0.0
1001
ACAD
1010
0.0
1020
0.0
1030
0.0
  0
LINE
  5
34D1B
330
2
100
AcDbEntity
  8
HATCH
 62
     1
100
AcDbLine
 10
12.75604865706778
 20
17.58721514862041
 30
0.0
 11
12.83780904283475
 21
17.66897553438739
 31
0.0
1001
ACAD
1010
0.0
1020
0.0
1030
0.0
  0
LINE
  5
34D1C
330
2
100
AcDbEntity
  8
HATCH
 62
     1
100
AcDbLine
 10
12.39867731188068
 20
16.69951371754341
 30
0.0
 11
12.4024952664745
 21
16.70333167213723
 31
0.0
1001
ACAD
1010
0.0
1020
0.0
1030
0.0
  0
LINE
  5
34D1D
330
2
100
AcDbEntity
  8
HATCH
 62
     1
100
AcDbLine
 10
12.66766030941945
 20
16.96849671508218
 30
0.0
 11
12.75604865706778
 21
17.0568850627305
 31
0.0
1001
ACAD
1010
0.0
1020
0.0
1030
0.0
  0
LINE
  5
34D1E
330
2
100
AcDbEntity
  8
HATCH
 62
     1
100
AcDbLine
 10
12.84443700471609
 20
17.14527341037882
 30
0.0
 11
12.93282535236441
 21
17.23366175802713
 31
0.0
1001
ACAD
1010
0.0
1020
0.0
1030
0.0
  0
LINE
  5
34D1F
330
2
100
AcDbEntity
  8
HATCH
 62
     1
100
AcDbLine
 10
13.02121370001273
 20
17.32205010567545
 30
0.0
 11
13.10960204766105
 21
17.41043845332377
 31
0.0
1001
ACAD
1010
0.0
1020
0.0
1030
0.0
  0
LINE
  5
34D20
330
2
100
AcDbEntity
  8
HATCH
 62
     1
100
AcDbLine
 10
13.19799039530937
 20
17.49882680097209
 30
0.0
 11
13.28637874295769
 21
17.58721514862041
 31
0.0
1001
ACAD
1010
0.0
1020
0.0
1030
0.0
  0
LINE
  5
34D21
330
2
100
AcDbEntity
  8
HATCH
 62
     1
100
AcDbLine
 10
12.75604865706777
 20
16.52655497684058
 30
0.0
 11
12.84443700471609
 21
16.6149433244889
 31
0.0
1001
ACAD
1010
0.0
1020
0.0
1030
0.0
  0
LINE
  5
34D22
330
2
100
AcDbEntity
  8
HATCH
 62
     1
100
AcDbLine
 10
12.93282535236441
 20
16.70333167213722
 30
0.0
 11
13.02121370001273
 21
16.79172001978554
 31
0.0
1001
ACAD
1010
0.0
1020
0.0
1030
0.0
  0
LINE
  5
34D23
330
2
100
AcDbEntity
  8
HATCH
 62
     1
100
AcDbLine
 10
13.10960204766105
 20
16.88010836743386
 30
0.0
 11
13.19799039530937
 21
16.96849671508218
 31
0.0
1001
ACAD
1010
0.0
1020
0.0
1030
0.0
  0
LINE
  5
34D24
330
2
100
AcDbEntity
  8
HATCH
 62
     1
100
AcDbLine
 10
13.28637874295768
 20
17.0568850627305
 30
0.0
 11
13.37476709060601
 21
17.14527341037882
 31
0.0
1001
ACAD
1010
0.0
1020
0.0
1030
0.0
  0
LINE
  5
34D25
330
2
100
AcDbEntity
  8
HATCH
 62
     1
100
AcDbLine
 10
13.46315543825432
 20
17.23366175802714
 30
0.0
 11
13.55154378590264
 21
17.32205010567546
 31
0.0
1001
ACAD
1010
0.0
1020
0.0
1030
0.0
  0
LINE
  5
34D26
330
2
100
AcDbEntity
  8
HATCH
 62
     1
100
AcDbLine
 10
13.63993213355096
 20
17.41043845332377
 30
0.0
 11
13.72832048119928
 21
17.4988268009721
 31
0.0
1001
ACAD
1010
0.0
1020
0.0
1030
0.0
  0
LINE
  5
34D27
330
2
100
AcDbEntity
  8
HATCH
 62
     1
100
AcDbLine
 10
13.8167088288476
 20
17.58721514862041
 30
0.0
 11
13.89846921461474
 21
17.66897553438755
 31
0.0
1001
ACAD
1010
0.0
1020
0.0
1030
0.0
  0
LINE
  5
34D28
330
2
100
AcDbEntity
  8
HATCH
 62
     1
100
AcDbLine
 10
12.928799300505
 20
16.16897553438789
 30
0.0
 11
12.93282535236441
 21
16.17300158624731
 31
0.0
1001
ACAD
1010
0.0
1020
0.0
1030
0.0
  0
LINE
  5
34D29
330
2
100
AcDbEntity
  8
HATCH
 62
     1
100
AcDbLine
 10
13.02121370001273
 20
16.26138993389563
 30
0.0
 11
13.10960204766105
 21
16.34977828154395
 31
0.0
1001
ACAD
1010
0.0
1020
0.0
1030
0.0
  0
LINE
  5
34D2A
330
2
100
AcDbEntity
  8
HATCH
 62
     1
100
AcDbLine
 10
13.19799039530937
 20
16.43816662919227
 30
0.0
 11
13.28637874295769
 21
16.52655497684059
 31
0.0
1001
ACAD
1010
0.0
1020
0.0
1030
0.0
  0
LINE
  5
34D2B
330
2
100
AcDbEntity
  8
HATCH
 62
     1
100
AcDbLine
 10
13.37476709060601
 20
16.61494332448891
 30
0.0
 11
13.46315543825433
 21
16.70333167213723
 31
0.0
1001
ACAD
1010
0.0
1020
0.0
1030
0.0
  0
LINE
  5
34D2C
330
2
100
AcDbEntity
  8
HATCH
 62
     1
100
AcDbLine
 10
13.55154378590265
 20
16.79172001978554
 30
0.0
 11
13.63993213355097
 21
16.88010836743386
 31
0.0
1001
ACAD
1010
0.0
1020
0.0
1030
0.0
  0
LINE
  5
34D2D
330
2
100
AcDbEntity
  8
HATCH
 62
     1
100
AcDbLine
 10
13.72832048119928
 20
16.96849671508218
 30
0.0
 11
13.8167088288476
 21
17.0568850627305
 31
0.0
1001
ACAD
1010
0.0
1020
0.0
1030
0.0
  0
LINE
  5
34D2E
330
2
100
AcDbEntity
  8
HATCH
 62
     1
100
AcDbLine
 10
13.90509717649592
 20
17.14527341037882
 30
0.0
 11
13.99348552414424
 21
17.23366175802714
 31
0.0
1001
ACAD
1010
0.0
1020
0.0
1030
0.0
  0
LINE
  5
34D2F
330
2
100
AcDbEntity
  8
HATCH
 62
     1
100
AcDbLine
 10
14.08187387179256
 20
17.32205010567546
 30
0.0
 11
14.17026221944088
 21
17.41043845332377
 31
0.0
1001
ACAD
1010
0.0
1020
0.0
1030
0.0
  0
LINE
  5
34D30
330
2
100
AcDbEntity
  8
HATCH
 62
     1
100
AcDbLine
 10
14.2586505670892
 20
17.4988268009721
 30
0.0
 11
14.34703891473752
 21
17.58721514862042
 31
0.0
1001
ACAD
1010
0.0
1020
0.0
1030
0.0
  0
LINE
  5
34D31
330
2
100
AcDbEntity
  8
HATCH
 62
     1
100
AcDbLine
 10
13.46315543825432
 20
16.17300158624731
 30
0.0
 11
13.55154378590264
 21
16.26138993389563
 31
0.0
1001
ACAD
1010
0.0
1020
0.0
1030
0.0
  0
LINE
  5
34D32
330
2
100
AcDbEntity
  8
HATCH
 62
     1
100
AcDbLine
 10
13.63993213355096
 20
16.34977828154395
 30
0.0
 11
13.72832048119928
 21
16.43816662919227
 31
0.0
1001
ACAD
1010
0.0
1020
0.0
1030
0.0
  0
LINE
  5
34D33
330
2
100
AcDbEntity
  8
HATCH
 62
     1
100
AcDbLine
 10
13.8167088288476
 20
16.52655497684059
 30
0.0
 11
13.90509717649592
 21
16.61494332448891
 31
0.0
1001
ACAD
1010
0.0
1020
0.0
1030
0.0
  0
LINE
  5
34D34
330
2
100
AcDbEntity
  8
HATCH
 62
     1
100
AcDbLine
 10
13.99348552414424
 20
16.70333167213723
 30
0.0
 11
14.08187387179256
 21
16.79172001978554
 31
0.0
1001
ACAD
1010
0.0
1020
0.0
1030
0.0
  0
LINE
  5
34D35
330
2
100
AcDbEntity
  8
HATCH
 62
     1
100
AcDbLine
 10
14.17026221944088
 20
16.88010836743386
 30
0.0
 11
14.25865056708919
 21
16.96849671508218
 31
0.0
1001
ACAD
1010
0.0
1020
0.0
1030
0.0
  0
LINE
  5
34D36
330
2
100
AcDbEntity
  8
HATCH
 62
     1
100
AcDbLine
 10
14.34703891473751
 20
17.0568850627305
 30
0.0
 11
14.43542726238583
 21
17.14527341037882
 31
0.0
1001
ACAD
1010
0.0
1020
0.0
1030
0.0
  0
LINE
  5
34D37
330
2
100
AcDbEntity
  8
HATCH
 62
     1
100
AcDbLine
 10
14.52381561003415
 20
17.23366175802714
 30
0.0
 11
14.61220395768247
 21
17.32205010567546
 31
0.0
1001
ACAD
1010
0.0
1020
0.0
1030
0.0
  0
LINE
  5
34D38
330
2
100
AcDbEntity
  8
HATCH
 62
     1
100
AcDbLine
 10
14.70059230533079
 20
17.41043845332377
 30
0.0
 11
14.78898065297911
 21
17.4988268009721
 31
0.0
1001
ACAD
1010
0.0
1020
0.0
1030
0.0
  0
LINE
  5
34D39
330
2
100
AcDbEntity
  8
HATCH
 62
     1
100
AcDbLine
 10
14.87736900062743
 20
17.58721514862042
 30
0.0
 11
14.95912938639473
 21
17.66897553438772
 31
0.0
1001
ACAD
1010
0.0
1020
0.0
1030
0.0
  0
LINE
  5
34D3A
330
2
100
AcDbEntity
  8
HATCH
 62
     1
100
AcDbLine
 10
13.98945947228481
 20
16.16897553438789
 30
0.0
 11
13.99348552414423
 21
16.17300158624731
 31
0.0
1001
ACAD
1010
0.0
1020
0.0
1030
0.0
  0
LINE
  5
34D3B
330
2
100
AcDbEntity
  8
HATCH
 62
     1
100
AcDbLine
 10
14.08187387179255
 20
16.26138993389563
 30
0.0
 11
14.17026221944087
 21
16.34977828154395
 31
0.0
1001
ACAD
1010
0.0
1020
0.0
1030
0.0
  0
LINE
  5
34D3C
330
2
100
AcDbEntity
  8
HATCH
 62
     1
100
AcDbLine
 10
14.25865056708919
 20
16.43816662919227
 30
0.0
 11
14.34703891473751
 21
16.52655497684059
 31
0.0
1001
ACAD
1010
0.0
1020
0.0
1030
0.0
  0
LINE
  5
34D3D
330
2
100
AcDbEntity
  8
HATCH
 62
     1
100
AcDbLine
 10
14.43542726238583
 20
16.61494332448891
 30
0.0
 11
14.52381561003415
 21
16.70333167213723
 31
0.0
1001
ACAD
1010
0.0
1020
0.0
1030
0.0
  0
LINE
  5
34D3E
330
2
100
AcDbEntity
  8
HATCH
 62
     1
100
AcDbLine
 10
14.61220395768246
 20
16.79172001978554
 30
0.0
 11
14.70059230533078
 21
16.88010836743386
 31
0.0
1001
ACAD
1010
0.0
1020
0.0
1030
0.0
  0
LINE
  5
34D3F
330
2
100
AcDbEntity
  8
HATCH
 62
     1
100
AcDbLine
 10
14.7889806529791
 20
16.96849671508218
 30
0.0
 11
14.87736900062742
 21
17.0568850627305
 31
0.0
1001
ACAD
1010
0.0
1020
0.0
1030
0.0
  0
LINE
  5
34D40
330
2
100
AcDbEntity
  8
HATCH
 62
     1
100
AcDbLine
 10
14.96575734827574
 20
17.14527341037882
 30
0.0
 11
15.05414569592406
 21
17.23366175802714
 31
0.0
1001
ACAD
1010
0.0
1020
0.0
1030
0.0
  0
LINE
  5
34D41
330
2
100
AcDbEntity
  8
HATCH
 62
     1
100
AcDbLine
 10
15.14253404357238
 20
17.32205010567546
 30
0.0
 11
15.23092239122069
 21
17.41043845332377
 31
0.0
1001
ACAD
1010
0.0
1020
0.0
1030
0.0
  0
LINE
  5
34D42
330
2
100
AcDbEntity
  8
HATCH
 62
     1
100
AcDbLine
 10
15.31931073886902
 20
17.4988268009721
 30
0.0
 11
15.40769908651734
 21
17.58721514862042
 31
0.0
1001
ACAD
1010
0.0
1020
0.0
1030
0.0
  0
LINE
  5
34D43
330
2
100
AcDbEntity
  8
HATCH
 62
     1
100
AcDbLine
 10
14.52381561003414
 20
16.17300158624731
 30
0.0
 11
14.61220395768246
 21
16.26138993389563
 31
0.0
1001
ACAD
1010
0.0
1020
0.0
1030
0.0
  0
LINE
  5
34D44
330
2
100
AcDbEntity
  8
HATCH
 62
     1
100
AcDbLine
 10
14.70059230533078
 20
16.34977828154395
 30
0.0
 11
14.7889806529791
 21
16.43816662919227
 31
0.0
1001
ACAD
1010
0.0
1020
0.0
1030
0.0
  0
LINE
  5
34D45
330
2
100
AcDbEntity
  8
HATCH
 62
     1
100
AcDbLine
 10
14.87736900062742
 20
16.52655497684059
 30
0.0
 11
14.96575734827574
 21
16.61494332448891
 31
0.0
1001
ACAD
1010
0.0
1020
0.0
1030
0.0
  0
LINE
  5
34D46
330
2
100
AcDbEntity
  8
HATCH
 62
     1
100
AcDbLine
 10
15.05414569592406
 20
16.70333167213723
 30
0.0
 11
15.14253404357238
 21
16.79172001978554
 31
0.0
1001
ACAD
1010
0.0
1020
0.0
1030
0.0
  0
LINE
  5
34D47
330
2
100
AcDbEntity
  8
HATCH
 62
     1
100
AcDbLine
 10
15.23092239122069
 20
16.88010836743386
 30
0.0
 11
15.31931073886902
 21
16.96849671508218
 31
0.0
1001
ACAD
1010
0.0
1020
0.0
1030
0.0
  0
LINE
  5
34D48
330
2
100
AcDbEntity
  8
HATCH
 62
     1
100
AcDbLine
 10
15.40769908651733
 20
17.0568850627305
 30
0.0
 11
15.49608743416565
 21
17.14527341037882
 31
0.0
1001
ACAD
1010
0.0
1020
0.0
1030
0.0
  0
LINE
  5
34D49
330
2
100
AcDbEntity
  8
HATCH
 62
     1
100
AcDbLine
 10
15.58447578181397
 20
17.23366175802714
 30
0.0
 11
15.67286412946229
 21
17.32205010567546
 31
0.0
1001
ACAD
1010
0.0
1020
0.0
1030
0.0
  0
LINE
  5
34D4A
330
2
100
AcDbEntity
  8
HATCH
 62
     1
100
AcDbLine
 10
15.76125247711061
 20
17.41043845332377
 30
0.0
 11
15.84964082475893
 21
17.4988268009721
 31
0.0
1001
ACAD
1010
0.0
1020
0.0
1030
0.0
  0
LINE
  5
34D4B
330
2
100
AcDbEntity
  8
HATCH
 62
     1
100
AcDbLine
 10
15.93802917240725
 20
17.58721514862042
 30
0.0
 11
16.01978955817471
 21
17.66897553438788
 31
0.0
1001
ACAD
1010
0.0
1020
0.0
1030
0.0
  0
LINE
  5
34D4C
330
2
100
AcDbEntity
  8
HATCH
 62
     1
100
AcDbLine
 10
15.05011964406463
 20
16.16897553438789
 30
0.0
 11
15.05414569592405
 21
16.17300158624731
 31
0.0
1001
ACAD
1010
0.0
1020
0.0
1030
0.0
  0
LINE
  5
34D4D
330
2
100
AcDbEntity
  8
HATCH
 62
     1
100
AcDbLine
 10
15.14253404357237
 20
16.26138993389563
 30
0.0
 11
15.23092239122069
 21
16.34977828154395
 31
0.0
1001
ACAD
1010
0.0
1020
0.0
1030
0.0
  0
LINE
  5
34D4E
330
2
100
AcDbEntity
  8
HATCH
 62
     1
100
AcDbLine
 10
15.31931073886901
 20
16.43816662919227
 30
0.0
 11
15.40769908651733
 21
16.52655497684059
 31
0.0
1001
ACAD
1010
0.0
1020
0.0
1030
0.0
  0
LINE
  5
34D4F
330
2
100
AcDbEntity
  8
HATCH
 62
     1
100
AcDbLine
 10
15.49608743416565
 20
16.61494332448891
 30
0.0
 11
15.58447578181397
 21
16.70333167213723
 31
0.0
1001
ACAD
1010
0.0
1020
0.0
1030
0.0
  0
LINE
  5
34D50
330
2
100
AcDbEntity
  8
HATCH
 62
     1
100
AcDbLine
 10
15.67286412946229
 20
16.79172001978554
 30
0.0
 11
15.7612524771106
 21
16.88010836743386
 31
0.0
1001
ACAD
1010
0.0
1020
0.0
1030
0.0
  0
LINE
  5
34D51
330
2
100
AcDbEntity
  8
HATCH
 62
     1
100
AcDbLine
 10
15.84964082475893
 20
16.96849671508218
 30
0.0
 11
15.93802917240724
 21
17.0568850627305
 31
0.0
1001
ACAD
1010
0.0
1020
0.0
1030
0.0
  0
LINE
  5
34D52
330
2
100
AcDbEntity
  8
HATCH
 62
     1
100
AcDbLine
 10
16.02641752005556
 20
17.14527341037882
 30
0.0
 11
16.11480586770388
 21
17.23366175802714
 31
0.0
1001
ACAD
1010
0.0
1020
0.0
1030
0.0
  0
LINE
  5
34D53
330
2
100
AcDbEntity
  8
HATCH
 62
     1
100
AcDbLine
 10
15.58447578181397
 20
16.17300158624731
 30
0.0
 11
15.67286412946228
 21
16.26138993389563
 31
0.0
1001
ACAD
1010
0.0
1020
0.0
1030
0.0
  0
LINE
  5
34D54
330
2
100
AcDbEntity
  8
HATCH
 62
     1
100
AcDbLine
 10
15.7612524771106
 20
16.34977828154395
 30
0.0
 11
15.84964082475892
 21
16.43816662919227
 31
0.0
1001
ACAD
1010
0.0
1020
0.0
1030
0.0
  0
LINE
  5
34D55
330
2
100
AcDbEntity
  8
HATCH
 62
     1
100
AcDbLine
 10
15.93802917240724
 20
16.52655497684059
 30
0.0
 11
16.02641752005556
 21
16.61494332448891
 31
0.0
1001
ACAD
1010
0.0
1020
0.0
1030
0.0
  0
LINE
  5
34D56
330
2
100
AcDbEntity
  8
HATCH
 62
     1
100
AcDbLine
 10
16.11480586770388
 20
16.70333167213723
 30
0.0
 11
16.2031942153522
 21
16.79172001978554
 31
0.0
1001
ACAD
1010
0.0
1020
0.0
1030
0.0
  0
LINE
  5
34D57
330
2
100
AcDbEntity
  8
HATCH
 62
     1
100
AcDbLine
 10
16.29158256300052
 20
16.88010836743386
 30
0.0
 11
16.34110806027585
 21
16.92963386470919
 31
0.0
1001
ACAD
1010
0.0
1020
0.0
1030
0.0
  0
LINE
  5
34D58
330
2
100
AcDbEntity
  8
HATCH
 62
     1
100
AcDbLine
 10
16.11077981584446
 20
16.16897553438789
 30
0.0
 11
16.11480586770387
 21
16.17300158624731
 31
0.0
1001
ACAD
1010
0.0
1020
0.0
1030
0.0
  0
LINE
  5
34D59
330
2
100
AcDbEntity
  8
HATCH
 62
     1
100
AcDbLine
 10
16.20319421535219
 20
16.26138993389563
 30
0.0
 11
16.29158256300051
 21
16.34977828154395
 31
0.0
1001
ACAD
1010
0.0
1020
0.0
1030
0.0
  0
LINE
  5
34D5A
330
2
100
AcDbEntity
  8
HATCH
 62
     1
100
AcDbLine
 10
19.65033977363661
 20
17.0568850627305
 30
0.0
 11
19.73872812128493
 21
17.14527341037882
 31
0.0
1001
ACAD
1010
0.0
1020
0.0
1030
0.0
  0
LINE
  5
34D5B
330
2
100
AcDbEntity
  8
HATCH
 62
     1
100
AcDbLine
 10
19.82711646893325
 20
17.23366175802713
 30
0.0
 11
19.91550481658157
 21
17.32205010567545
 31
0.0
1001
ACAD
1010
0.0
1020
0.0
1030
0.0
  0
LINE
  5
34D5C
330
2
100
AcDbEntity
  8
HATCH
 62
     1
100
AcDbLine
 10
20.00389316422989
 20
17.41043845332377
 30
0.0
 11
20.09228151187821
 21
17.49882680097209
 31
0.0
1001
ACAD
1010
0.0
1020
0.0
1030
0.0
  0
LINE
  5
34D5D
330
2
100
AcDbEntity
  8
HATCH
 62
     1
100
AcDbLine
 10
20.18066985952653
 20
17.58721514862041
 30
0.0
 11
20.26243024529402
 21
17.6689755343879
 31
0.0
1001
ACAD
1010
0.0
1020
0.0
1030
0.0
  0
LINE
  5
34D5E
330
2
100
AcDbEntity
  8
HATCH
 62
     1
100
AcDbLine
 10
19.56195142598829
 20
16.43816662919227
 30
0.0
 11
19.65033977363662
 21
16.52655497684059
 31
0.0
1001
ACAD
1010
0.0
1020
0.0
1030
0.0
  0
LINE
  5
34D5F
330
2
100
AcDbEntity
  8
HATCH
 62
     1
100
AcDbLine
 10
19.73872812128493
 20
16.61494332448891
 30
0.0
 11
19.82711646893325
 21
16.70333167213723
 31
0.0
1001
ACAD
1010
0.0
1020
0.0
1030
0.0
  0
LINE
  5
34D60
330
2
100
AcDbEntity
  8
HATCH
 62
     1
100
AcDbLine
 10
19.91550481658157
 20
16.79172001978554
 30
0.0
 11
20.00389316422989
 21
16.88010836743386
 31
0.0
1001
ACAD
1010
0.0
1020
0.0
1030
0.0
  0
LINE
  5
34D61
330
2
100
AcDbEntity
  8
HATCH
 62
     1
100
AcDbLine
 10
20.09228151187821
 20
16.96849671508218
 30
0.0
 11
20.18066985952653
 21
17.0568850627305
 31
0.0
1001
ACAD
1010
0.0
1020
0.0
1030
0.0
  0
LINE
  5
34D62
330
2
100
AcDbEntity
  8
HATCH
 62
     1
100
AcDbLine
 10
20.26905820717485
 20
17.14527341037882
 30
0.0
 11
20.35744655482317
 21
17.23366175802714
 31
0.0
1001
ACAD
1010
0.0
1020
0.0
1030
0.0
  0
LINE
  5
34D63
330
2
100
AcDbEntity
  8
HATCH
 62
     1
100
AcDbLine
 10
20.44583490247149
 20
17.32205010567546
 30
0.0
 11
20.53422325011981
 21
17.41043845332377
 31
0.0
1001
ACAD
1010
0.0
1020
0.0
1030
0.0
  0
LINE
  5
34D64
330
2
100
AcDbEntity
  8
HATCH
 62
     1
100
AcDbLine
 10
20.62261159776813
 20
17.4988268009721
 30
0.0
 11
20.71099994541645
 21
17.58721514862042
 31
0.0
1001
ACAD
1010
0.0
1020
0.0
1030
0.0
  0
LINE
  5
34D65
330
2
100
AcDbEntity
  8
HATCH
 62
     1
100
AcDbLine
 10
19.82711646893325
 20
16.17300158624731
 30
0.0
 11
19.91550481658157
 21
16.26138993389563
 31
0.0
1001
ACAD
1010
0.0
1020
0.0
1030
0.0
  0
LINE
  5
34D66
330
2
100
AcDbEntity
  8
HATCH
 62
     1
100
AcDbLine
 10
20.00389316422989
 20
16.34977828154395
 30
0.0
 11
20.09228151187821
 21
16.43816662919227
 31
0.0
1001
ACAD
1010
0.0
1020
0.0
1030
0.0
  0
LINE
  5
34D67
330
2
100
AcDbEntity
  8
HATCH
 62
     1
100
AcDbLine
 10
20.18066985952653
 20
16.52655497684059
 30
0.0
 11
20.26905820717485
 21
16.61494332448891
 31
0.0
1001
ACAD
1010
0.0
1020
0.0
1030
0.0
  0
LINE
  5
34D68
330
2
100
AcDbEntity
  8
HATCH
 62
     1
100
AcDbLine
 10
20.35744655482317
 20
16.70333167213723
 30
0.0
 11
20.44583490247148
 21
16.79172001978554
 31
0.0
1001
ACAD
1010
0.0
1020
0.0
1030
0.0
  0
LINE
  5
34D69
330
2
100
AcDbEntity
  8
HATCH
 62
     1
100
AcDbLine
 10
20.53422325011981
 20
16.88010836743386
 30
0.0
 11
20.62261159776813
 21
16.96849671508218
 31
0.0
1001
ACAD
1010
0.0
1020
0.0
1030
0.0
  0
LINE
  5
34D6A
330
2
100
AcDbEntity
  8
HATCH
 62
     1
100
AcDbLine
 10
20.71099994541644
 20
17.0568850627305
 30
0.0
 11
20.79938829306476
 21
17.14527341037882
 31
0.0
1001
ACAD
1010
0.0
1020
0.0
1030
0.0
  0
LINE
  5
34D6B
330
2
100
AcDbEntity
  8
HATCH
 62
     1
100
AcDbLine
 10
20.88777664071308
 20
17.23366175802714
 30
0.0
 11
20.9761649883614
 21
17.32205010567546
 31
0.0
1001
ACAD
1010
0.0
1020
0.0
1030
0.0
  0
LINE
  5
34D6C
330
2
100
AcDbEntity
  8
HATCH
 62
     1
100
AcDbLine
 10
21.06455333600972
 20
17.41043845332377
 30
0.0
 11
21.15294168365804
 21
17.4988268009721
 31
0.0
1001
ACAD
1010
0.0
1020
0.0
1030
0.0
  0
LINE
  5
34D6D
330
2
100
AcDbEntity
  8
HATCH
 62
     1
100
AcDbLine
 10
21.24133003130636
 20
17.58721514862042
 30
0.0
 11
21.32309041707385
 21
17.66897553438791
 31
0.0
1001
ACAD
1010
0.0
1020
0.0
1030
0.0
  0
LINE
  5
34D6E
330
2
100
AcDbEntity
  8
HATCH
 62
     1
100
AcDbLine
 10
20.35342050296375
 20
16.16897553438789
 30
0.0
 11
20.35744655482316
 21
16.17300158624731
 31
0.0
1001
ACAD
1010
0.0
1020
0.0
1030
0.0
  0
LINE
  5
34D6F
330
2
100
AcDbEntity
  8
HATCH
 62
     1
100
AcDbLine
 10
20.44583490247148
 20
16.26138993389563
 30
0.0
 11
20.5342232501198
 21
16.34977828154395
 31
0.0
1001
ACAD
1010
0.0
1020
0.0
1030
0.0
  0
LINE
  5
34D70
330
2
100
AcDbEntity
  8
HATCH
 62
     1
100
AcDbLine
 10
20.62261159776812
 20
16.43816662919227
 30
0.0
 11
20.71099994541643
 21
16.52655497684059
 31
0.0
1001
ACAD
1010
0.0
1020
0.0
1030
0.0
  0
LINE
  5
34D71
330
2
100
AcDbEntity
  8
HATCH
 62
     1
100
AcDbLine
 10
20.79938829306476
 20
16.61494332448891
 30
0.0
 11
20.88777664071308
 21
16.70333167213723
 31
0.0
1001
ACAD
1010
0.0
1020
0.0
1030
0.0
  0
LINE
  5
34D72
330
2
100
AcDbEntity
  8
HATCH
 62
     1
100
AcDbLine
 10
20.97616498836139
 20
16.79172001978554
 30
0.0
 11
21.06455333600971
 21
16.88010836743386
 31
0.0
1001
ACAD
1010
0.0
1020
0.0
1030
0.0
  0
LINE
  5
34D73
330
2
100
AcDbEntity
  8
HATCH
 62
     1
100
AcDbLine
 10
21.15294168365803
 20
16.96849671508218
 30
0.0
 11
21.24133003130635
 21
17.0568850627305
 31
0.0
1001
ACAD
1010
0.0
1020
0.0
1030
0.0
  0
LINE
  5
34D74
330
2
100
AcDbEntity
  8
HATCH
 62
     1
100
AcDbLine
 10
21.32971837895468
 20
17.14527341037882
 30
0.0
 11
21.41810672660299
 21
17.23366175802714
 31
0.0
1001
ACAD
1010
0.0
1020
0.0
1030
0.0
  0
LINE
  5
34D75
330
2
100
AcDbEntity
  8
HATCH
 62
     1
100
AcDbLine
 10
21.50649507425131
 20
17.32205010567546
 30
0.0
 11
21.59488342189963
 21
17.41043845332377
 31
0.0
1001
ACAD
1010
0.0
1020
0.0
1030
0.0
  0
LINE
  5
34D76
330
2
100
AcDbEntity
  8
HATCH
 62
     1
100
AcDbLine
 10
21.68327176954795
 20
17.4988268009721
 30
0.0
 11
21.77166011719627
 21
17.58721514862042
 31
0.0
1001
ACAD
1010
0.0
1020
0.0
1030
0.0
  0
LINE
  5
34D77
330
2
100
AcDbEntity
  8
HATCH
 62
     1
100
AcDbLine
 10
20.88777664071307
 20
16.17300158624731
 30
0.0
 11
20.97616498836139
 21
16.26138993389563
 31
0.0
1001
ACAD
1010
0.0
1020
0.0
1030
0.0
  0
LINE
  5
34D78
330
2
100
AcDbEntity
  8
HATCH
 62
     1
100
AcDbLine
 10
21.06455333600971
 20
16.34977828154395
 30
0.0
 11
21.15294168365803
 21
16.43816662919227
 31
0.0
1001
ACAD
1010
0.0
1020
0.0
1030
0.0
  0
LINE
  5
34D79
330
2
100
AcDbEntity
  8
HATCH
 62
     1
100
AcDbLine
 10
21.24133003130635
 20
16.52655497684059
 30
0.0
 11
21.32971837895468
 21
16.61494332448891
 31
0.0
1001
ACAD
1010
0.0
1020
0.0
1030
0.0
  0
LINE
  5
34D7A
330
2
100
AcDbEntity
  8
HATCH
 62
     1
100
AcDbLine
 10
21.41810672660299
 20
16.70333167213723
 30
0.0
 11
21.5064950742513
 21
16.79172001978554
 31
0.0
1001
ACAD
1010
0.0
1020
0.0
1030
0.0
  0
LINE
  5
34D7B
330
2
100
AcDbEntity
  8
HATCH
 62
     1
100
AcDbLine
 10
21.59488342189963
 20
16.88010836743386
 30
0.0
 11
21.68327176954794
 21
16.96849671508218
 31
0.0
1001
ACAD
1010
0.0
1020
0.0
1030
0.0
  0
LINE
  5
34D7C
330
2
100
AcDbEntity
  8
HATCH
 62
     1
100
AcDbLine
 10
21.77166011719626
 20
17.0568850627305
 30
0.0
 11
21.86004846484458
 21
17.14527341037882
 31
0.0
1001
ACAD
1010
0.0
1020
0.0
1030
0.0
  0
LINE
  5
34D7D
330
2
100
AcDbEntity
  8
HATCH
 62
     1
100
AcDbLine
 10
21.9484368124929
 20
17.23366175802714
 30
0.0
 11
22.03682516014122
 21
17.32205010567546
 31
0.0
1001
ACAD
1010
0.0
1020
0.0
1030
0.0
  0
LINE
  5
34D7E
330
2
100
AcDbEntity
  8
HATCH
 62
     1
100
AcDbLine
 10
22.12521350778954
 20
17.41043845332377
 30
0.0
 11
22.21360185543786
 21
17.4988268009721
 31
0.0
1001
ACAD
1010
0.0
1020
0.0
1030
0.0
  0
LINE
  5
34D7F
330
2
100
AcDbEntity
  8
HATCH
 62
     1
100
AcDbLine
 10
22.30199020308618
 20
17.58721514862042
 30
0.0
 11
22.38375058885367
 21
17.66897553438791
 31
0.0
1001
ACAD
1010
0.0
1020
0.0
1030
0.0
  0
LINE
  5
34D80
330
2
100
AcDbEntity
  8
HATCH
 62
     1
100
AcDbLine
 10
21.41408067474356
 20
16.16897553438789
 30
0.0
 11
21.41810672660298
 21
16.17300158624731
 31
0.0
1001
ACAD
1010
0.0
1020
0.0
1030
0.0
  0
LINE
  5
34D81
330
2
100
AcDbEntity
  8
HATCH
 62
     1
100
AcDbLine
 10
21.5064950742513
 20
16.26138993389563
 30
0.0
 11
21.59488342189962
 21
16.34977828154395
 31
0.0
1001
ACAD
1010
0.0
1020
0.0
1030
0.0
  0
LINE
  5
34D82
330
2
100
AcDbEntity
  8
HATCH
 62
     1
100
AcDbLine
 10
21.68327176954794
 20
16.43816662919227
 30
0.0
 11
21.77166011719626
 21
16.52655497684059
 31
0.0
1001
ACAD
1010
0.0
1020
0.0
1030
0.0
  0
LINE
  5
34D83
330
2
100
AcDbEntity
  8
HATCH
 62
     1
100
AcDbLine
 10
21.86004846484458
 20
16.61494332448891
 30
0.0
 11
21.9484368124929
 21
16.70333167213723
 31
0.0
1001
ACAD
1010
0.0
1020
0.0
1030
0.0
  0
LINE
  5
34D84
330
2
100
AcDbEntity
  8
HATCH
 62
     1
100
AcDbLine
 10
22.03682516014122
 20
16.79172001978554
 30
0.0
 11
22.12521350778954
 21
16.88010836743386
 31
0.0
1001
ACAD
1010
0.0
1020
0.0
1030
0.0
  0
LINE
  5
34D85
330
2
100
AcDbEntity
  8
HATCH
 62
     1
100
AcDbLine
 10
22.21360185543785
 20
16.96849671508218
 30
0.0
 11
22.30199020308617
 21
17.0568850627305
 31
0.0
1001
ACAD
1010
0.0
1020
0.0
1030
0.0
  0
LINE
  5
34D86
330
2
100
AcDbEntity
  8
HATCH
 62
     1
100
AcDbLine
 10
22.39037855073449
 20
17.14527341037882
 30
0.0
 11
22.47876689838281
 21
17.23366175802714
 31
0.0
1001
ACAD
1010
0.0
1020
0.0
1030
0.0
  0
LINE
  5
34D87
330
2
100
AcDbEntity
  8
HATCH
 62
     1
100
AcDbLine
 10
22.56715524603113
 20
17.32205010567546
 30
0.0
 11
22.65554359367945
 21
17.41043845332377
 31
0.0
1001
ACAD
1010
0.0
1020
0.0
1030
0.0
  0
LINE
  5
34D88
330
2
100
AcDbEntity
  8
HATCH
 62
     1
100
AcDbLine
 10
22.74393194132777
 20
17.4988268009721
 30
0.0
 11
22.83232028897609
 21
17.58721514862042
 31
0.0
1001
ACAD
1010
0.0
1020
0.0
1030
0.0
  0
LINE
  5
34D89
330
2
100
AcDbEntity
  8
HATCH
 62
     1
100
AcDbLine
 10
21.94843681249289
 20
16.17300158624731
 30
0.0
 11
22.03682516014121
 21
16.26138993389563
 31
0.0
1001
ACAD
1010
0.0
1020
0.0
1030
0.0
  0
LINE
  5
34D8A
330
2
100
AcDbEntity
  8
HATCH
 62
     1
100
AcDbLine
 10
22.12521350778953
 20
16.34977828154395
 30
0.0
 11
22.21360185543785
 21
16.43816662919227
 31
0.0
1001
ACAD
1010
0.0
1020
0.0
1030
0.0
  0
LINE
  5
34D8B
330
2
100
AcDbEntity
  8
HATCH
 62
     1
100
AcDbLine
 10
22.30199020308617
 20
16.52655497684059
 30
0.0
 11
22.39037855073449
 21
16.61494332448891
 31
0.0
1001
ACAD
1010
0.0
1020
0.0
1030
0.0
  0
LINE
  5
34D8C
330
2
100
AcDbEntity
  8
HATCH
 62
     1
100
AcDbLine
 10
22.47876689838281
 20
16.70333167213723
 30
0.0
 11
22.56715524603113
 21
16.79172001978554
 31
0.0
1001
ACAD
1010
0.0
1020
0.0
1030
0.0
  0
LINE
  5
34D8D
330
2
100
AcDbEntity
  8
HATCH
 62
     1
100
AcDbLine
 10
22.65554359367945
 20
16.88010836743386
 30
0.0
 11
22.74393194132777
 21
16.96849671508218
 31
0.0
1001
ACAD
1010
0.0
1020
0.0
1030
0.0
  0
LINE
  5
34D8E
330
2
100
AcDbEntity
  8
HATCH
 62
     1
100
AcDbLine
 10
22.83232028897609
 20
17.0568850627305
 30
0.0
 11
22.9207086366244
 21
17.14527341037882
 31
0.0
1001
ACAD
1010
0.0
1020
0.0
1030
0.0
  0
LINE
  5
34D8F
330
2
100
AcDbEntity
  8
HATCH
 62
     1
100
AcDbLine
 10
23.00909698427272
 20
17.23366175802714
 30
0.0
 11
23.09748533192104
 21
17.32205010567546
 31
0.0
1001
ACAD
1010
0.0
1020
0.0
1030
0.0
  0
LINE
  5
34D90
330
2
100
AcDbEntity
  8
HATCH
 62
     1
100
AcDbLine
 10
23.18587367956936
 20
17.41043845332377
 30
0.0
 11
23.26658311351064
 21
17.49114788726506
 31
0.0
1001
ACAD
1010
0.0
1020
0.0
1030
0.0
  0
LINE
  5
34D91
330
2
100
AcDbEntity
  8
HATCH
 62
     1
100
AcDbLine
 10
22.47474084652339
 20
16.16897553438789
 30
0.0
 11
22.4787668983828
 21
16.17300158624731
 31
0.0
1001
ACAD
1010
0.0
1020
0.0
1030
0.0
  0
LINE
  5
34D92
330
2
100
AcDbEntity
  8
HATCH
 62
     1
100
AcDbLine
 10
22.56715524603112
 20
16.26138993389563
 30
0.0
 11
22.65554359367945
 21
16.34977828154395
 31
0.0
1001
ACAD
1010
0.0
1020
0.0
1030
0.0
  0
LINE
  5
34D93
330
2
100
AcDbEntity
  8
HATCH
 62
     1
100
AcDbLine
 10
22.74393194132776
 20
16.43816662919227
 30
0.0
 11
22.83232028897608
 21
16.52655497684059
 31
0.0
1001
ACAD
1010
0.0
1020
0.0
1030
0.0
  0
LINE
  5
34D94
330
2
100
AcDbEntity
  8
HATCH
 62
     1
100
AcDbLine
 10
22.9207086366244
 20
16.61494332448891
 30
0.0
 11
23.00909698427272
 21
16.70333167213723
 31
0.0
1001
ACAD
1010
0.0
1020
0.0
1030
0.0
  0
LINE
  5
34D95
330
2
100
AcDbEntity
  8
HATCH
 62
     1
100
AcDbLine
 10
23.09748533192104
 20
16.79172001978554
 30
0.0
 11
23.18587367956936
 21
16.88010836743386
 31
0.0
1001
ACAD
1010
0.0
1020
0.0
1030
0.0
  0
LINE
  5
34D96
330
2
100
AcDbEntity
  8
HATCH
 62
     1
100
AcDbLine
 10
23.27426202721768
 20
16.96849671508218
 30
0.0
 11
23.362650374866
 21
17.0568850627305
 31
0.0
1001
ACAD
1010
0.0
1020
0.0
1030
0.0
  0
LINE
  5
34D97
330
2
100
AcDbEntity
  8
HATCH
 62
     1
100
AcDbLine
 10
23.00909698427272
 20
16.17300158624732
 30
0.0
 11
23.09748533192104
 21
16.26138993389563
 31
0.0
1001
ACAD
1010
0.0
1020
0.0
1030
0.0
  0
LINE
  5
34D98
330
2
100
AcDbEntity
  8
HATCH
 62
     1
100
AcDbLine
 10
23.18587367956935
 20
16.34977828154395
 30
0.0
 11
23.27426202721767
 21
16.43816662919227
 31
0.0
1001
ACAD
1010
0.0
1020
0.0
1030
0.0
  0
LINE
  5
34D99
330
2
100
AcDbEntity
  8
HATCH
 62
     1
100
AcDbLine
 10
23.36265037486599
 20
16.52655497684059
 30
0.0
 11
23.45103872251431
 21
16.61494332448891
 31
0.0
1001
ACAD
1010
0.0
1020
0.0
1030
0.0
  0
TEXT
  5
357B9
330
2
100
AcDbEntity
  8
DIM
100
AcDbText
 10
19.28772523562388
 20
19.53845784190128
 30
0.0
 40
0.25
  1
CROSS
  7
STD
100
AcDbText
  0
TEXT
  5
357BA
330
2
100
AcDbEntity
  8
DIM
100
AcDbText
 10
19.29693396686535
 20
19.11957425845425
 30
0.0
 40
0.25
  1
TEE TYP
  7
STD
100
AcDbText
  0
SOLID
  5
357BB
330
2
100
AcDbEntity
  8
DIM
100
AcDbTrace
 10
18.54099685585791
 20
17.85524639169046
 30
0.0
 11
18.44927884726343
 21
17.61897553438771
 31
0.0
 12
18.45941073951137
 22
17.8722213751642
 32
0.0
 13
18.45941073951137
 23
17.8722213751642
 33
0.0
1001
ACAD
1000
DSTYLE
1002
{
1070
   147
1040
0.09
1070
    77
1070
     0
1002
}
  0
LWPOLYLINE
  5
357BC
330
2
100
AcDbEntity
  8
DIM
100
AcDbPolyline
 90
        3
 70
     0
 43
0.0
 10
18.50020379768464
 20
17.86373388342733
 10
18.87511950574666
 20
19.66567475868163
 10
19.12511950574666
 20
19.66567475868163
1001
ACAD
1000
DSTYLE
1002
{
1070
   147
1040
0.09
1070
    77
1070
     0
1002
}
  0
TEXT
  5
357BD
330
2
100
AcDbEntity
  8
DIM
100
AcDbText
 10
19.62256790338636
 20
18.39389531232682
 30
0.0
 40
0.25
  1
2WAY
  7
STD
100
AcDbText
  0
TEXT
  5
357BE
330
2
100
AcDbEntity
  8
DIM
100
AcDbText
 10
19.61540555686521
 20
17.97458539872973
 30
0.0
 40
0.25
  1
CLIP
  7
STD
100
AcDbText
  0
SOLID
  5
357BF
330
2
100
AcDbEntity
  8
DIM
100
AcDbTrace
 10
18.79378956546833
 20
16.98939641935126
 30
0.0
 11
18.68293749598553
 21
16.76147553438788
 31
0.0
 12
18.71387727469736
 22
17.01302839405037
 32
0.0
 13
18.71387727469736
 23
17.01302839405037
 33
0.0
1001
ACAD
1000
DSTYLE
1002
{
1070
   147
1040
0.09
1070
    77
1070
     0
1002
}
  0
LWPOLYLINE
  5
357C0
330
2
100
AcDbEntity
  8
DIM
100
AcDbPolyline
 90
        3
 70
     0
 43
0.0
 10
18.75383342008285
 20
17.00121240670081
 10
19.202799826988
 20
18.51940690850691
 10
19.452799826988
 20
18.51940690850691
1001
ACAD
1000
DSTYLE
1002
{
1070
   147
1040
0.09
1070
    77
1070
     0
1002
}
  0
TEXT
  5
357C1
330
2
100
AcDbEntity
  8
DIM
100
AcDbText
 10
16.16514963639206
 20
18.43064654421097
 30
0.0
 40
0.25
  1
MAIN
  7
STD
100
AcDbText
  0
TEXT
  5
357C2
330
2
100
AcDbEntity
  8
DIM
100
AcDbText
 10
15.56931061865672
 20
18.0139798775443
 30
0.0
 40
0.25
  1
TEE TYP
  7
STD
100
AcDbText
  0
SOLID
  5
357C3
330
2
100
AcDbEntity
  8
DIM
100
AcDbTrace
 10
17.82035176966281
 20
17.86225095572001
 30
0.0
 11
17.89143749598466
 21
17.61897553438771
 31
0.0
 12
17.74529410470757
 22
17.82604610278685
 32
0.0
 13
17.74529410470757
 23
17.82604610278685
 33
0.0
1001
ACAD
1000
DSTYLE
1002
{
1070
   147
1040
0.09
1070
    77
1070
     0
1002
}
  0
LWPOLYLINE
  5
357C4
330
2
100
AcDbEntity
  8
DIM
100
AcDbPolyline
 90
        3
 70
     0
 43
0.0
 10
17.78282293718518
 20
17.84414852925343
 10
17.43962439764717
 20
18.55564654421097
 10
17.18962439764717
 20
18.55564654421097
1001
ACAD
1000
DSTYLE
1002
{
1070
   147
1040
0.09
1070
    77
1070
     0
1002
}
  0
TEXT
  5
357C5
330
2
100
AcDbEntity
  8
DIM
100
AcDbText
 10
14.3275250782143
 20
20.10006286883279
 30
0.0
 40
0.25
  1
HANGER WIRE
  7
STD
100
AcDbText
  0
TEXT
  5
357C6
330
2
100
AcDbEntity
  8
DIM
100
AcDbText
 10
11.43001484629069
 20
19.67904763463543
 30
0.0
 40
0.25
  1
(BY INSTALLING CONTRACTOR)
  7
STD
100
AcDbText
  0
TEXT
  5
357C7
330
2
100
AcDbEntity
  8
DIM
100
AcDbText
 10
16.14778428694554
 20
19.26016405118841
 30
0.0
 40
0.25
  1
TYP
  7
STD
100
AcDbText
  0
SOLID
  5
357C8
330
2
100
AcDbEntity
  8
DIM
100
AcDbTrace
 10
17.84116826549545
 20
19.24331354380692
 30
0.0
 11
17.92707377894626
 21
19.00486783956828
 31
0.0
 12
17.76847806484783
 22
19.20256333921537
 32
0.0
 13
17.76847806484783
 23
19.20256333921537
 33
0.0
1001
ACAD
1000
DSTYLE
1002
{
1070
   147
1040
0.09
1070
    77
1070
     0
1002
}
  0
LWPOLYLINE
  5
357C9
330
2
100
AcDbEntity
  8
DIM
100
AcDbPolyline
 90
        3
 70
     0
 43
0.0
 10
17.80482316517164
 20
19.22293844151115
 10
17.24183612869177
 20
20.22719451958314
 10
16.99183612869179
 20
20.22719451958314
1001
ACAD
1000
DSTYLE
1002
{
1070
   147
1040
0.09
1070
    77
1070
     0
1002
}
  0
TEXT
  5
357CA
330
2
100
AcDbEntity
  8
DIM
100
AcDbText
 10
12.13998336545162
 20
18.442761274413
 30
0.0
 40
0.25
  1
INSULATION
  7
STD
100
AcDbText
  0
TEXT
  5
357CB
330
2
100
AcDbEntity
  8
DIM
100
AcDbText
 10
13.54312115535612
 20
18.02387769096598
 30
0.0
 40
0.25
  1
TYP
  7
STD
100
AcDbText
  0
SOLID
  5
357CC
330
2
100
AcDbEntity
  8
DIM
100
AcDbTrace
 10
14.78371892033852
 20
17.92242029075262
 30
0.0
 11
14.78235269109827
 21
17.6689755343879
 31
0.0
 12
14.70144677074778
 22
17.90916367556758
 32
0.0
 13
14.70144677074778
 23
17.90916367556758
 33
0.0
1001
ACAD
1000
DSTYLE
1002
{
1070
   147
1040
0.09
1070
    77
1070
     0
1002
}
  0
LWPOLYLINE
  5
357CD
330
2
100
AcDbEntity
  8
DIM
100
AcDbPolyline
 90
        3
 70
     0
 43
0.0
 10
14.74258284554315
 20
17.9157919831601
 10
14.63717299710237
 20
18.56997819119335
 10
14.38717299710237
 20
18.56997819119335
1001
ACAD
1000
DSTYLE
1002
{
1070
   147
1040
0.09
1070
    77
1070
     0
1002
}
  0
TEXT
  5
357CE
330
2
100
AcDbEntity
  8
DIM
100
AcDbText
 10
26.30498539650228
 20
14.5473339342989
 30
0.0
 40
0.25
  1
FACTORY PAINTED
  7
STD
100
AcDbText
  0
TEXT
  5
357CF
330
2
100
AcDbEntity
  8
DIM
100
AcDbText
 10
26.30669071710255
 20
14.12631870010154
 30
0.0
 40
0.25
  1
PANEL SCREW
  7
STD
100
AcDbText
  0
SOLID
  5
357D0
330
2
100
AcDbEntity
  8
DIM
100
AcDbTrace
 10
25.67631320230402
 20
15.76120538153938
 30
0.0
 11
25.67541826653138
 21
16.0146522402713
 31
0.0
 12
25.75846380860774
 22
15.77519546118089
 32
0.0
 13
25.75846380860774
 23
15.77519546118089
 33
0.0
1001
ACAD
1000
DSTYLE
1002
{
1070
   147
1040
0.09
1070
    77
1070
     0
1002
}
  0
LWPOLYLINE
  5
357D1
330
2
100
AcDbEntity
  8
DIM
100
AcDbPolyline
 90
        3
 70
     0
 43
0.0
 10
25.71738850545588
 20
15.76820042136013
 10
25.90363478258686
 20
14.67455085107926
 10
26.15363478258686
 20
14.67455085107926
1001
ACAD
1000
DSTYLE
1002
{
1070
   147
1040
0.09
1070
    77
1070
     0
1002
}
  0
TEXT
  5
357D2
330
2
100
AcDbEntity
  8
DIM
100
AcDbText
 10
14.34770711734716
 20
14.42553331154335
 30
0.0
 40
0.25
  1
PANEL END LAP
  7
STD
100
AcDbText
  0
TEXT
  5
357D3
330
2
100
AcDbEntity
  8
DIM
100
AcDbText
 10
13.14886673535535
 20
14.00664972809632
 30
0.0
 40
0.25
  1
LOCATED AT MAIN TEE
  7
STD
100
AcDbText
  0
TEXT
  5
357D4
330
2
100
AcDbEntity
  8
DIM
100
AcDbText
 10
15.05370984586012
 20
13.58554922786895
 30
0.0
 40
0.25
  1
NOMINALLY
  7
STD
100
AcDbText
  0
SOLID
  5
357D5
330
2
100
AcDbEntity
  8
DIM
100
AcDbTrace
 10
17.65259075413102
 20
15.21830041852542
 30
0.0
 11
17.76317671963468
 21
15.44635053438756
 31
0.0
 12
17.73253057362705
 22
15.19476173327354
 32
0.0
 13
17.73253057362705
 23
15.19476173327354
 33
0.0
1001
ACAD
1000
DSTYLE
1002
{
1070
   147
1040
0.09
1070
    77
1070
     0
1002
}
  0
LWPOLYLINE
  5
357D6
330
2
100
AcDbEntity
  8
DIM
100
AcDbPolyline
 90
        3
 70
     0
 43
0.0
 10
17.69256066387904
 20
15.20653107589948
 10
17.49939879538263
 20
14.55053331154334
 10
17.24939879538263
 20
14.55053331154334
1001
ACAD
1000
DSTYLE
1002
{
1070
   147
1040
0.09
1070
    77
1070
     0
1002
}
  0
TEXT
  5
357D7
330
2
100
AcDbEntity
  8
DIM
100
AcDbText
 10
21.83223193179177
 20
14.4334412076369
 30
0.0
 40
0.25
  1
ALPRO
  7
STD
100
AcDbText
  0
TEXT
  5
357D8
330
2
100
AcDbEntity
  8
DIM
100
AcDbText
 10
21.81483766166899
 20
14.01242597343954
 30
0.0
 40
0.25
  1
C-PANEL TYP
  7
STD
100
AcDbText
  0
SOLID
  5
357D9
330
2
100
AcDbEntity
  8
DIM
100
AcDbTrace
 10
21.13993964740734
 20
15.19636705184732
 30
0.0
 11
21.09817399682981
 21
15.44635053438756
 31
0.0
 12
21.21875776874053
 22
15.22342528892869
 32
0.0
 13
21.21875776874053
 23
15.22342528892869
 33
0.0
1001
ACAD
1000
DSTYLE
1002
{
1070
   147
1040
0.09
1070
    77
1070
     0
1002
}
  0
LWPOLYLINE
  5
357DA
330
2
100
AcDbEntity
  8
DIM
100
AcDbPolyline
 90
        3
 70
     0
 43
0.0
 10
21.17934870807394
 20
15.20989617038801
 10
21.40223193179178
 20
14.56065812441726
 10
21.65223193179178
 20
14.56065812441726
1001
ACAD
1000
DSTYLE
1002
{
1070
   147
1040
0.09
1070
    77
1070
     0
1002
}
  0
TEXT
  5
357DB
330
2
100
AcDbEntity
  8
DIM
100
AcDbText
 10
22.65713652254325
 20
18.63456592379356
 30
0.0
 40
0.25
  1
1WAY
  7
STD
100
AcDbText
  0
TEXT
  5
357DC
330
2
100
AcDbEntity
  8
DIM
100
AcDbText
 10
22.88292097001937
 20
18.21525601019647
 30
0.0
 40
0.25
  1
CLIP
  7
STD
100
AcDbText
  0
SOLID
  5
357DD
330
2
100
AcDbEntity
  8
DIM
100
AcDbTrace
 10
24.5930786704567
 20
17.01363766520017
 30
0.0
 11
24.61858104084112
 21
16.7614755343877
 31
0.0
 12
24.51267486426802
 22
16.99173624070725
 32
0.0
 13
24.51267486426802
 23
16.99173624070725
 33
0.0
1001
ACAD
1000
DSTYLE
1002
{
1070
   147
1040
0.09
1070
    77
1070
     0
1002
}
  0
LWPOLYLINE
  5
357DE
330
2
100
AcDbEntity
  8
DIM
100
AcDbPolyline
 90
        3
 70
     0
 43
0.0
 10
24.55287676736236
 20
17.00268695295372
 10
24.07417608598117
 20
18.76007751997364
 10
23.82417608598117
 20
18.76007751997364
1001
ACAD
1000
DSTYLE
1002
{
1070
   147
1040
0.09
1070
    77
1070
     0
1002
}
  0
VIEWPORT
  5
5D
102
{ACAD_XDICTIONARY
360
35850
102
}
330
D
100
AcDbEntity
 67
     1
  8
0
100
AcDbViewport
 10
5.102836672053318
 20
3.882552595148703
 30
0.0
 40
20.12054589974455
 41
7.827575297811849
 68
     1
 69
     1
 12
5.102836672053318
 22
3.882552595148703
 13
0.0
 23
0.0
 14
0.5
 24
0.5
 15
0.5
 25
0.5
 16
0.0
 26
0.0
 36
1.0
 17
0.0
 27
0.0
 37
0.0
 42
50.0
 43
0.0
 44
0.0
 45
7.827575297811849
 50
0.0
 51
0.0
 72
   100
 90
    32800
  1

281
     0
 71
     1
 74
     0
110
0.0
120
0.0
130
0.0
111
1.0
121
0.0
131
0.0
112
0.0
122
1.0
132
0.0
 79
     0
146
0.0
  0
ENDSEC
  0
SECTION
  2
OBJECTS
  0
DICTIONARY
  5
7
330
0
100
AcDbDictionary
281
     1
  3
ACAD_2007HEADERVARS_RT
350
3584C
  3
ACAD_CIP_PREVIOUS_PRODUCT_INFO
350
34C01
  3
ACAD_COLOR
350
885
  3
ACAD_FIELDLIST
350
1393
  3
ACAD_GROUP
350
24
  3
ACAD_LAYOUT
350
C
  3
ACAD_MATERIAL
350
884
  3
ACAD_MLEADERSTYLE
350
3370D
  3
ACAD_MLINESTYLE
350
25
  3
ACAD_PLOTSETTINGS
350
26
  3
ACAD_PLOTSTYLENAME
350
6
  3
ACAD_SCALELIST
350
336FB
  3
ACAD_TABLESTYLE
350
886
  3
ACAD_VISUALSTYLE
350
10B2
  3
AcadDim
350
33143
  3
ACDB_RECOMPOSE_DATA
350
3584A
  3
AcDbVariableDictionary
350
3AC
  3
AEC_CLASSIFICATION_SYSTEM_DEFS
350
A2E
  3
ASE_INDEX_DICTIONARY
350
1053
  3
DWGPROPS
350
3584B
  0
DICTIONARY
  5
139C
330
1A
100
AcDbDictionary
280
     1
281
     1
  0
DICTIONARY
  5
899
330
11
100
AcDbDictionary
280
     1
281
     1
  3
ACAD_LAYERFILTERS
360
1092
  3
ACAD_LAYERSTATES
360
89A
  3
ACLYDICTIONARY
360
1091
  0
DICTIONARY
  5
34BB8
330
4
100
AcDbDictionary
280
     1
281
     1
  3
ADSK_XREC_LAYER_RECONCILED
360
34BB9
  0
DICTIONARY
  5
1A62
330
1A61
100
AcDbDictionary
280
     1
281
     1
  3
ADSK_XREC_LAYER_RECONCILED
360
1A63
  0
DICTIONARY
  5
1A68
330
1A67
100
AcDbDictionary
280
     1
281
     1
  3
ADSK_XREC_LAYER_RECONCILED
360
1A69
  0
DICTIONARY
  5
1A7A
330
1A79
100
AcDbDictionary
280
     1
281
     1
  3
ADSK_XREC_LAYER_RECONCILED
360
1A7B
  0
DICTIONARY
  5
1A7D
330
1A7C
100
AcDbDictionary
280
     1
281
     1
  3
ADSK_XREC_LAYER_RECONCILED
360
1A7E
  0
DICTIONARY
  5
1A80
330
1A7F
100
AcDbDictionary
280
     1
281
     1
  3
ADSK_XREC_LAYER_RECONCILED
360
1A81
  0
DICTIONARY
  5
1A92
330
1A91
100
AcDbDictionary
280
     1
281
     1
  3
ADSK_XREC_LAYER_RECONCILED
360
1A93
  0
DICTIONARY
  5
31E97
330
2
100
AcDbDictionary
280
     1
281
     1
  3
ACAD_SORTENTS
360
31E98
  0
DICTIONARY
  5
1D72
330
D
100
AcDbDictionary
280
     1
281
     1
  3
ACAD_SORTENTS
360
1D73
  0
DICTIONARY
  5
35850
330
5D
100
AcDbDictionary
280
     1
281
     1
  3
ACAD_XREC_ROUNDTRIP
360
35851
  0
DICTIONARY
  5
3584C
102
{ACAD_REACTORS
330
7
102
}
330
7
100
AcDbDictionary
281
     1
  3
INTERFEREVPVS
350
3584D
  0
XRECORD
  5
34C01
102
{ACAD_REACTORS
330
7
102
}
330
7
100
AcDbXrecord
280
     1
300
ACD
300
2012
300
ACD_F_S
  0
DICTIONARY
  5
885
102
{ACAD_REACTORS
330
7
102
}
330
7
100
AcDbDictionary
281
     1
  0
FIELDLIST
  5
1393
102
{ACAD_REACTORS
330
7
102
}
330
7
100
AcDbIdSet
 90
        0
100
AcDbFieldList
  0
DICTIONARY
  5
24
102
{ACAD_REACTORS
330
7
102
}
330
7
100
AcDbDictionary
281
     1
  0
DICTIONARY
  5
C
102
{ACAD_REACTORS
330
7
102
}
330
7
100
AcDbDictionary
281
     1
  3
Layout1
350
10
  3
Model
350
B
  0
DICTIONARY
  5
884
102
{ACAD_REACTORS
330
7
102
}
330
7
100
AcDbDictionary
281
     1
  3
ByBlock
350
10B0
  3
ByLayer
350
10AF
  3
Global
350
10B1
  0
DICTIONARY
  5
3370D
102
{ACAD_REACTORS
330
7
102
}
330
7
100
AcDbDictionary
281
     1
  3
Standard
350
3370E
  0
DICTIONARY
  5
25
102
{ACAD_REACTORS
330
7
102
}
330
7
100
AcDbDictionary
281
     1
  3
STANDARD
350
28
  0
DICTIONARY
  5
26
102
{ACAD_REACTORS
330
7
102
}
330
7
100
AcDbDictionary
281
     1
  3
3010
350
1A21
  3
5000N
350
1A1F
  3
Minolta
350
1A22
  3
PDF
350
1A20
  0
ACDBDICTIONARYWDFLT
  5
6
102
{ACAD_REACTORS
330
7
102
}
330
7
100
AcDbDictionary
281
     1
  3
Normal
350
5
100
AcDbDictionaryWithDefault
340
5
  0
DICTIONARY
  5
336FB
102
{ACAD_REACTORS
330
7
102
}
330
7
100
AcDbDictionary
281
     1
  3
A0
350
336FC
  3
A1
350
336FD
  3
A2
350
336FE
  3
A3
350
336FF
  3
A4
350
33700
  3
A5
350
33701
  3
A6
350
33702
  3
A7
350
33703
  3
A8
350
33704
  3
A9
350
33705
  3
B0
350
33706
  3
B1
350
33707
  3
B2
350
33708
  3
B3
350
33709
  3
B4
350
3370A
  3
B5
350
3370B
  3
B6
350
3370C
  0
DICTIONARY
  5
886
102
{ACAD_REACTORS
330
7
102
}
330
7
100
AcDbDictionary
281
     1
  3
Standard
350
887
  0
DICTIONARY
  5
10B2
102
{ACAD_REACTORS
330
7
102
}
330
7
100
AcDbDictionary
281
     1
  3
2dWireframe
350
10B8
  3
3D Hidden
350
1D4F
  3
3dWireframe
350
1D50
  3
Basic
350
10B7
  3
Brighten
350
10BE
  3
ColorChange
350
10C2
  3
Conceptual
350
1D51
  3
Dim
350
10BD
  3
EdgeColorOff
350
336FA
  3
Facepattern
350
10C1
  3
Flat
350
10B3
  3
FlatWithEdges
350
10B4
  3
Gouraud
350
10B5
  3
GouraudWithEdges
350
10B6
  3
Hidden
350
336F2
  3
JitterOff
350
336F8
  3
Linepattern
350
10C0
  3
OverhangOff
350
336F9
  3
Realistic
350
1D52
  3
Shaded
350
336F7
  3
Shaded with edges
350
336F6
  3
Shades of Gray
350
336F3
  3
Sketchy
350
336F4
  3
Thicken
350
10BF
  3
Wireframe
350
336F1
  3
X-Ray
350
336F5
  0
XRECORD
  5
33143
102
{ACAD_REACTORS
330
7
102
}
330
7
100
AcDbXrecord
280
     1
 90
   990106
  3

 60
     0
 61
     0
 62
     1
 63
     1
 64
     0
 65
     0
 66
     1
 67
     3
 68
     0
 69
     0
 70
     0
 71
     0
 72
     0
 40
0.0
170
     2
340
0
  0
XRECORD
  5
3584A
102
{ACAD_REACTORS
330
7
102
}
330
7
100
AcDbXrecord
280
     1
 90
        1
330
887
  0
DICTIONARY
  5
3AC
102
{ACAD_REACTORS
330
7
102
}
330
7
100
AcDbDictionary
281
     1
  3
CANNOSCALE
350
34BC7
  3
CMLEADERSTYLE
350
34BC5
  3
CTABLESTYLE
350
89F
  3
DIMASSOC
350
3AD
  3
DRAWORDERCTL
350
35847
  3
INDEXCTL
350
357F0
  3
LAYEREVAL
350
34BC9
  3
LAYERNOTIFY
350
34BCA
  3
LIGHTINGUNITS
350
34BC8
  3
MSLTSCALE
350
34BC6
  3
SOLIDHIST
350
357F2
  3
SORTENTS
350
357EF
  3
XCLIPFRAME
350
35848
  0
DICTIONARY
  5
A2E
102
{ACAD_REACTORS
330
7
102
}
330
7
100
AcDbDictionary
281
     1
  0
DICTIONARY
  5
1053
102
{ACAD_REACTORS
330
7
102
}
330
7
100
AcDbDictionary
281
     1
  3
ASEBlockHierarchyIndexRecord
350
1054
1001
DCO15
1040
1542711923.111
  0
XRECORD
  5
3584B
102
{ACAD_REACTORS
330
7
102
}
330
7
100
AcDbXrecord
280
     1
  1
DWGPROPS COOKIE
  2

  3

  4

  6

  7

  8
jlee
  9

300
=
301
=
302
=
303
=
304
=
305
=
306
=
307
=
308
=
309
=
 40
0.5848479513888889
 41
2451225.386950695
 42
2456114.651384896
  1

 90
        0
  0
DICTIONARY
  5
1092
102
{ACAD_REACTORS
330
899
102
}
330
899
100
AcDbDictionary
281
     1
  0
DICTIONARY
  5
89A
102
{ACAD_REACTORS
330
899
102
}
330
899
100
AcDbDictionary
281
     1
  3
_LAYISO_STATE
350
335FC
1001
AcLayerTools
1000
B
1000
0
  0
DICTIONARY
  5
1091
102
{ACAD_REACTORS
330
899
102
}
330
899
100
AcDbDictionary
281
     1
1001
ACAD
1000
<All
  0
XRECORD
  5
34BB9
102
{ACAD_REACTORS
330
34BB8
102
}
330
34BB8
100
AcDbXrecord
280
     1
290
     1
  0
XRECORD
  5
1A63
102
{ACAD_REACTORS
330
1A62
102
}
330
1A62
100
AcDbXrecord
280
     1
290
     1
  0
XRECORD
  5
1A69
102
{ACAD_REACTORS
330
1A68
102
}
330
1A68
100
AcDbXrecord
280
     1
290
     1
  0
XRECORD
  5
1A7B
102
{ACAD_REACTORS
330
1A7A
102
}
330
1A7A
100
AcDbXrecord
280
     1
290
     1
  0
XRECORD
  5
1A7E
102
{ACAD_REACTORS
330
1A7D
102
}
330
1A7D
100
AcDbXrecord
280
     1
290
     1
  0
XRECORD
  5
1A81
102
{ACAD_REACTORS
330
1A80
102
}
330
1A80
100
AcDbXrecord
280
     1
290
     1
  0
XRECORD
  5
1A93
102
{ACAD_REACTORS
330
1A92
102
}
330
1A92
100
AcDbXrecord
280
     1
290
     1
  0
SORTENTSTABLE
  5
31E98
102
{ACAD_REACTORS
330
31E97
102
}
330
31E97
100
AcDbSortentsTable
330
2
331
34C9C
  5
355C9
331
34CD7
  5
35604
331
34C98
  5
355C5
331
34C94
  5
355C1
331
34CD3
  5
35600
331
33545
  5
356F2
331
34C90
  5
355BD
331
335E7
  5
35738
331
33626
  5
35769
331
34D8F
  5
356BC
331
33541
  5
356ED
331
335C4
  5
35717
331
335E3
  5
35734
331
33622
  5
35765
331
33667
  5
357AA
331
34D8B
  5
356B8
331
3353D
  5
356E9
331
357DE
  5
334B9
331
33539
  5
356E5
331
335C0
  5
35713
331
34D15
  5
35642
331
33663
  5
357A6
331
34D87
  5
356B4
331
34D83
  5
356B0
331
357DA
  5
334CA
331
34D11
  5
3563E
331
3365F
  5
357A2
331
3365B
  5
3579E
331
3369A
  5
357DD
331
34D0D
  5
3563A
331
34D4C
  5
35679
331
34D48
  5
35675
331
34D09
  5
35636
331
34CCF
  5
355FC
331
34C8C
  5
355B9
331
34CCB
  5
355F8
331
34CC7
  5
355F4
331
3361E
  5
35761
331
34C88
  5
355B5
331
335DF
  5
35730
331
34CC3
  5
355F0
331
335DB
  5
3572C
331
3361A
  5
3575D
331
33535
  5
356E1
331
335BC
  5
3570F
331
34C84
  5
355B1
331
34C80
  5
35741
331
335D7
  5
35728
331
33616
  5
35759
331
34D7F
  5
356AC
331
357D6
  5
334CE
331
335D3
  5
35724
331
33612
  5
35755
331
34D7B
  5
356A8
331
33657
  5
3579A
331
33696
  5
357D9
331
357D2
  5
334D0
331
357CE
  5
334D5
331
334D9
  5
356D0
331
335A8
  5
35709
331
34D77
  5
356A4
331
34D05
  5
35632
331
34D44
  5
35671
331
33653
  5
35796
331
33692
  5
357D5
331
34D73
  5
356A0
331
3368E
  5
357D1
331
357CA
  5
334DB
331
34D01
  5
3562E
331
34D40
  5
3566D
331
3364F
  5
35792
331
3364B
  5
3578E
331
3368A
  5
357CD
331
34CFD
  5
3562A
331
34D3C
  5
35669
331
34D38
  5
35665
331
34CF9
  5
35626
331
34CBF
  5
355EC
331
34C7C
  5
335A2
331
34CBB
  5
355E8
331
3360E
  5
35751
331
34C78
  5
33554
331
335CF
  5
35722
331
34CB7
  5
355E4
331
34CB3
  5
355E0
331
3360A
  5
3574D
331
34C74
  5
3354E
331
334D5
  5
356CC
331
335A4
  5
35705
331
335CB
  5
3571E
331
34C70
  5
356DF
331
34C67
  5
356D6
331
33606
  5
35749
331
34D6F
  5
3569C
331
357C6
  5
33539
331
334D1
  5
356C8
331
335A0
  5
35701
331
3359C
  5
356FD
331
33602
  5
35745
331
34D6B
  5
35698
331
33647
  5
3578A
331
33686
  5
357C9
331
357C2
  5
3353E
331
357BE
  5
33542
331
34D67
  5
35694
331
34D34
  5
35661
331
33643
  5
35786
331
33682
  5
357C5
331
34CF5
  5
35622
331
357BA
  5
33546
331
3367E
  5
357C1
331
34CF1
  5
3561E
331
34D30
  5
3565D
331
3363F
  5
35782
331
34D63
  5
35690
331
3363B
  5
3577E
331
3367A
  5
357BD
331
34CED
  5
3561A
331
34D2C
  5
35659
331
34CE9
  5
35616
331
34D28
  5
35655
331
34CAF
  5
355DC
331
34C6C
  5
356DB
331
34CAB
  5
355D8
331
34C68
  5
356D7
331
34CA7
  5
355D4
331
335FE
  5
356CE
331
34CA3
  5
355D0
331
34D5F
  5
3568C
331
334B9
  5
33548
331
33550
  5
356FB
331
3354C
  5
356F9
331
34D5B
  5
35688
331
33637
  5
3577A
331
33676
  5
357B9
331
335F2
  5
3573B
331
33548
  5
356F5
331
34D57
  5
35684
331
34D24
  5
35651
331
33633
  5
35776
331
33672
  5
357B5
331
34CE5
  5
35612
331
34D96
  5
356C3
331
34D92
  5
356BF
331
3366E
  5
357B1
331
34CE1
  5
3560E
331
34D20
  5
3564D
331
3362F
  5
35772
331
34D53
  5
35680
331
3366A
  5
357AD
331
34CDD
  5
3560A
331
34D1C
  5
35649
331
3362B
  5
3576E
331
34CD9
  5
35606
331
34D18
  5
35645
331
34C9F
  5
355CC
331
34C9B
  5
355C8
331
34CD6
  5
35603
331
34C97
  5
355C4
331
34C93
  5
355C0
331
34CD2
  5
355FF
331
33544
  5
356F0
331
335C7
  5
3571A
331
335E6
  5
35737
331
33625
  5
35768
331
34D8E
  5
356BB
331
33540
  5
356EC
331
3353C
  5
356E8
331
335C3
  5
35716
331
335E2
  5
35733
331
33666
  5
357A9
331
34D8A
  5
356B7
331
33621
  5
35764
331
357DD
  5
334B8
331
33538
  5
356E4
331
34D14
  5
35641
331
33662
  5
357A5
331
34D86
  5
356B3
331
34D82
  5
356AF
331
357D9
  5
334C9
331
34D10
  5
3563D
331
34D4F
  5
3567C
331
3365E
  5
357A1
331
3365A
  5
3579D
331
33699
  5
357DC
331
34D0C
  5
35639
331
34D4B
  5
35678
331
34D08
  5
35635
331
34C8F
  5
355BC
331
34CCE
  5
355FB
331
34C8B
  5
355B8
331
34CCA
  5
355F7
331
34CC6
  5
355F3
331
3361D
  5
35760
331
34C87
  5
355B4
331
335BF
  5
35712
331
335DE
  5
3572F
331
34C83
  5
355B0
331
34CC2
  5
355EF
331
335DA
  5
3572B
331
33619
  5
3575C
331
33534
  5
356E0
331
335BB
  5
3570E
331
335D6
  5
35727
331
33615
  5
35758
331
34D7E
  5
356AB
331
357D5
  5
334CD
331
335D2
  5
35723
331
33611
  5
35754
331
34D7A
  5
356A7
331
34D47
  5
35674
331
33656
  5
35799
331
33695
  5
357D8
331
357D1
  5
334D4
331
334DC
  5
356D3
331
357CD
  5
334DA
331
334D8
  5
356CF
331
34D76
  5
356A3
331
34D04
  5
35631
331
34D43
  5
35670
331
33652
  5
35795
331
33691
  5
357D4
331
34D72
  5
3569F
331
3368D
  5
357D0
331
357C9
  5
33537
331
34D00
  5
3562D
331
34D3F
  5
3566C
331
3364A
  5
3578D
331
33689
  5
357CC
331
34CFC
  5
35629
331
34D3B
  5
35668
331
34CF8
  5
35625
331
34C7F
  5
35740
331
34CBE
  5
355EB
331
34C7B
  5
335A1
331
34CBA
  5
355E7
331
34CB6
  5
355E3
331
3360D
  5
35750
331
34C77
  5
33552
331
335A7
  5
35708
331
335CE
  5
35721
331
34CB2
  5
355DF
331
335CA
  5
3571D
331
33609
  5
3574C
331
334D4
  5
356CB
331
335A3
  5
35704
331
34C73
  5
3354D
331
34C66
  5
356D5
331
33605
  5
35748
331
34D6E
  5
3569B
331
357C5
  5
33538
331
334D0
  5
356C7
331
3359F
  5
35700
331
3359B
  5
356FC
331
34D6A
  5
35697
331
34D37
  5
35664
331
33646
  5
35789
331
33685
  5
357C8
331
357C1
  5
3353D
331
357BD
  5
33541
331
34D66
  5
35693
331
34CF4
  5
35621
331
34D33
  5
35660
331
33642
  5
35785
331
33681
  5
357C4
331
34D62
  5
3568F
331
3367D
  5
357C0
331
357B9
  5
33545
331
34CF0
  5
3561D
331
34D2F
  5
3565C
331
3363E
  5
35781
331
3363A
  5
3577D
331
33679
  5
357BC
331
34CEC
  5
35619
331
34D2B
  5
35658
331
34CE8
  5
35615
331
34C6F
  5
356DE
331
34CAE
  5
355DB
331
34C6B
  5
356DA
331
34CAA
  5
355D7
331
34CA6
  5
355D3
331
34CA2
  5
355CF
331
335F9
  5
3573E
331
34D5E
  5
3568B
331
334B8
  5
33547
331
3354B
  5
356F8
331
335F1
  5
3573A
331
34D5A
  5
35687
331
34D27
  5
35654
331
33636
  5
35779
331
33675
  5
357B8
331
34D99
  5
356C6
331
34D95
  5
356C2
331
34D56
  5
35683
331
34D23
  5
35650
331
33632
  5
35775
331
33671
  5
357B4
331
34CE4
  5
35611
331
34D91
  5
356BE
331
3366D
  5
357B0
331
34CE0
  5
3560D
331
34D1F
  5
3564C
331
3362E
  5
35771
331
34D52
  5
3567F
331
3362A
  5
3576D
331
33669
  5
357AC
331
34CDC
  5
35609
331
34D1B
  5
35648
331
34CD8
  5
35605
331
34C9E
  5
355CB
331
34C9A
  5
355C7
331
34CD5
  5
35602
331
33547
  5
356F4
331
34C96
  5
355C3
331
34C92
  5
355BF
331
34CD1
  5
355FE
331
33543
  5
356EF
331
335C6
  5
35719
331
335E5
  5
35736
331
33624
  5
35767
331
34D8D
  5
356BA
331
3353F
  5
356EB
331
3353B
  5
356E7
331
335C2
  5
35715
331
335E1
  5
35732
331
33665
  5
357A8
331
34D89
  5
356B6
331
34D17
  5
35644
331
33620
  5
35763
331
357DC
  5
334BB
331
34D13
  5
35640
331
33661
  5
357A4
331
34D85
  5
356B2
331
3365D
  5
357A0
331
34D81
  5
356AE
331
357D8
  5
334CC
331
34D0F
  5
3563C
331
34D4E
  5
3567B
331
33659
  5
3579C
331
33698
  5
357DB
331
34D0B
  5
35638
331
34D4A
  5
35677
331
34C8E
  5
355BB
331
34CCD
  5
355FA
331
34C8A
  5
355B7
331
34CC9
  5
355F6
331
34CC5
  5
355F2
331
3361C
  5
3575F
331
34C86
  5
355B3
331
33537
  5
356E3
331
335BE
  5
35711
331
335DD
  5
3572E
331
34C82
  5
35743
331
34CC1
  5
355EE
331
335D9
  5
3572A
331
33618
  5
3575B
331
335BA
  5
3570D
331
335D5
  5
35726
331
33614
  5
35757
331
34D7D
  5
356AA
331
357D4
  5
334D2
331
334DB
  5
356D2
331
335AA
  5
3570B
331
33610
  5
35753
331
34D79
  5
356A6
331
34D46
  5
35673
331
33655
  5
35798
331
33694
  5
357D7
331
34D07
  5
35634
331
357D0
  5
334D3
331
357CC
  5
334D9
331
33690
  5
357D3
331
34D03
  5
35630
331
34D42
  5
3566F
331
33651
  5
35794
331
34D75
  5
356A2
331
34D71
  5
3569E
331
3368C
  5
357CF
331
357C8
  5
334DD
331
34CFF
  5
3562C
331
34D3E
  5
3566B
331
3364D
  5
35790
331
33649
  5
3578C
331
33688
  5
357CB
331
34CFB
  5
35628
331
34D3A
  5
35667
331
34C7E
  5
3573F
331
34CBD
  5
355EA
331
34C7A
  5
335A0
331
34CB9
  5
355E6
331
34CB5
  5
355E2
331
3360C
  5
3574F
331
34C76
  5
33551
331
334D7
  5
356CD
331
335A6
  5
35707
331
335CD
  5
35720
331
34C72
  5
3354C
331
34CB1
  5
355DE
331
335C9
  5
3571C
331
33608
  5
3574B
331
334D3
  5
356CA
331
335A2
  5
35703
331
3359E
  5
356FF
331
34C65
  5
356D4
331
33604
  5
35747
331
34D6D
  5
3569A
331
357C4
  5
3353C
331
33600
  5
356F1
331
34D69
  5
35696
331
34D36
  5
35663
331
33645
  5
35788
331
33684
  5
357C7
331
34CF7
  5
35624
331
357C0
  5
33540
331
334CB
  5
355AD
331
357BC
  5
33544
331
34D65
  5
35692
331
34CF3
  5
35620
331
34D32
  5
3565F
331
33641
  5
35784
331
33680
  5
357C3
331
34D61
  5
3568E
331
3367C
  5
357BF
331
34CEF
  5
3561C
331
34D2E
  5
3565B
331
3363D
  5
35780
331
33639
  5
3577C
331
33678
  5
357BB
331
34CEB
  5
35618
331
34D2A
  5
35657
331
34C6E
  5
356DD
331
34CAD
  5
355DA
331
34C6A
  5
356D9
331
34CA9
  5
355D6
331
34CA5
  5
355D2
331
34CA1
  5
355CE
331
335F8
  5
3573D
331
334BB
  5
3354A
331
34D5D
  5
3568A
331
3354A
  5
356F7
331
34D59
  5
35686
331
34D26
  5
35653
331
33635
  5
35778
331
33674
  5
357B7
331
34CE7
  5
35614
331
34D98
  5
356C5
331
34D94
  5
356C1
331
34D55
  5
35682
331
34CE3
  5
35610
331
34D22
  5
3564F
331
33631
  5
35774
331
33670
  5
357B3
331
34D51
  5
3567E
331
3366C
  5
357AF
331
34D90
  5
356BD
331
34CDF
  5
3560C
331
34D1E
  5
3564B
331
3362D
  5
35770
331
33629
  5
3576C
331
33668
  5
357AB
331
34CDB
  5
35608
331
34D1A
  5
35647
331
34C9D
  5
355CA
331
34C99
  5
355C6
331
34CD4
  5
35601
331
33546
  5
356F3
331
34C95
  5
355C2
331
34C91
  5
355BE
331
34CD0
  5
355FD
331
335E8
  5
35739
331
33627
  5
3576A
331
33542
  5
356EE
331
335C5
  5
35718
331
335E4
  5
35735
331
33623
  5
35766
331
34D8C
  5
356B9
331
3353E
  5
356EA
331
3353A
  5
356E6
331
335C1
  5
35714
331
335E0
  5
35731
331
34D16
  5
35643
331
33664
  5
357A7
331
34D88
  5
356B5
331
34D84
  5
356B1
331
357DB
  5
334BA
331
34D12
  5
3563F
331
33660
  5
357A3
331
34D80
  5
356AD
331
3365C
  5
3579F
331
34D0E
  5
3563B
331
34D4D
  5
3567A
331
34D49
  5
35676
331
33658
  5
3579B
331
34D0A
  5
35637
331
34C8D
  5
355BA
331
34CCC
  5
355F9
331
3361F
  5
35762
331
34C89
  5
355B6
331
34CC8
  5
355F5
331
34CC4
  5
355F1
331
3361B
  5
3575E
331
34C85
  5
355B2
331
33536
  5
356E2
331
335BD
  5
35710
331
335DC
  5
3572D
331
34C81
  5
35742
331
34CC0
  5
355ED
331
335D8
  5
35729
331
33617
  5
3575A
331
357D7
  5
334CB
331
335B9
  5
3570C
331
335D4
  5
35725
331
33613
  5
35756
331
34D7C
  5
356A9
331
33697
  5
357DA
331
357D3
  5
334D1
331
357CF
  5
334D7
331
334DA
  5
356D1
331
335A9
  5
3570A
331
34D78
  5
356A5
331
34D45
  5
35672
331
33654
  5
35797
331
33693
  5
357D6
331
34D06
  5
35633
331
357CB
  5
334DC
331
3368F
  5
357D2
331
34D02
  5
3562F
331
34D41
  5
3566E
331
33650
  5
35793
331
34D74
  5
356A1
331
34D70
  5
3569D
331
3364C
  5
3578F
331
3368B
  5
357CE
331
34CFE
  5
3562B
331
34D3D
  5
3566A
331
33648
  5
3578B
331
34CFA
  5
35627
331
34D39
  5
35666
331
34C7D
  5
335A3
331
34CBC
  5
355E9
331
34C79
  5
3359F
331
34CB8
  5
355E5
331
3360F
  5
35752
331
34CB4
  5
355E1
331
3360B
  5
3574E
331
34C75
  5
3354F
331
335A5
  5
35706
331
335CC
  5
3571F
331
34CB0
  5
355DD
331
335C8
  5
3571B
331
33607
  5
3574A
331
357C7
  5
3353A
331
334D2
  5
356C9
331
335A1
  5
35702
331
3359D
  5
356FE
331
33603
  5
35746
331
34D6C
  5
35699
331
33687
  5
357CA
331
357C3
  5
3353B
331
34D68
  5
35695
331
34D35
  5
35662
331
33644
  5
35787
331
33683
  5
357C6
331
34CF6
  5
35623
331
357BF
  5
3353F
331
357BB
  5
33543
331
3367F
  5
357C2
331
34CF2
  5
3561F
331
34D31
  5
3565E
331
33640
  5
35783
331
34D64
  5
35691
331
34D60
  5
3568D
331
3367B
  5
357BE
331
34CEE
  5
3561B
331
34D2D
  5
3565A
331
3363C
  5
3577F
331
33638
  5
3577B
331
34CEA
  5
35617
331
34D29
  5
35656
331
34C6D
  5
356DC
331
34CAC
  5
355D9
331
34C69
  5
356D8
331
34CA8
  5
355D5
331
34CA4
  5
355D1
331
335FB
  5
35744
331
34CA0
  5
355CD
331
334BA
  5
33549
331
3354D
  5
356FA
331
34D5C
  5
35689
331
33677
  5
357BA
331
335F3
  5
3573C
331
33549
  5
356F6
331
34D58
  5
35685
331
34D25
  5
35652
331
33634
  5
35777
331
33673
  5
357B6
331
34CE6
  5
35613
331
34D97
  5
356C4
331
34D93
  5
356C0
331
34D54
  5
35681
331
34CE2
  5
3560F
331
34D21
  5
3564E
331
33630
  5
35773
331
3366F
  5
357B2
331
34D50
  5
3567D
331
3366B
  5
357AE
331
34CDE
  5
3560B
331
34D1D
  5
3564A
331
3362C
  5
3576F
331
33628
  5
3576B
331
34CDA
  5
35607
331
34D19
  5
35646
  0
SORTENTSTABLE
  5
1D73
102
{ACAD_REACTORS
330
1D72
102
}
330
1D72
100
AcDbSortentsTable
330
D
331
5D
  5
5D
  0
XRECORD
  5
35851
102
{ACAD_REACTORS
330
35850
102
}
330
35850
100
AcDbXrecord
280
     1
102
SHADEPLOT
 70
     0
  0
XRECORD
  5
3584D
102
{ACAD_REACTORS
330
3584C
102
}
330
3584C
100
AcDbXrecord
280
     1
340
1D50
  0
LAYOUT
  5
10
102
{ACAD_XDICTIONARY
360
89C
102
}
102
{ACAD_REACTORS
330
C
102
}
330
C
100
AcDbPlotSettings
  1

  2
HP 5000 N
  4
Letter
  6

 40
5.027082920074462
 41
5.408084392547606
 42
5.365737915039061
 43
5.365753173828125
 44
215.8999938964844
 45
279.3999938964844
 46
4.140880409212495
 47
4.709578165054337
 48
0.0
 49
0.0
140
10.205
141
7.764780009564798
142
1.0
143
1.0
 70
   692
 72
     0
 73
     1
 74
     4
  7
GORDON-BLK.ctb
 75
    16
147
1.0
148
0.0
149
0.0
100
AcDbLayout
  1
Layout1
 70
     1
 71
     1
 10
-0.2079161059762549
 20
-0.2079166691697489
 11
10.79208365372785
 21
8.29208309053436
 12
0.0
 22
0.0
 32
0.0
 14
0.0
 24
0.0
 34
0.0
 15
10.205
 25
7.764780009564798
 35
0.0
146
0.0
 13
0.0
 23
0.0
 33
0.0
 16
1.0
 26
0.0
 36
0.0
 17
0.0
 27
1.0
 37
0.0
 76
     0
330
D
331
5D
1001
ACAD_PSEXT
1000
HP 5000 N
1000
HP LaserJet 5100 PS
1000
IP_192.168.100.208
1000

1070
     0
  0
LAYOUT
  5
B
102
{ACAD_XDICTIONARY
360
357E6
102
}
102
{ACAD_REACTORS
330
C
102
}
330
C
100
AcDbPlotSettings
  1

  2
HP 1055CM+ Roll.pc3
  4
User257
  6

 40
4.995333194732666
 41
13.2922945022583
 42
4.99530029296875
 43
13.29296875
 44
899.1599731445312
 45
15239.9150390625
 46
0.0
 47
0.0
 48
1.592118068029931
 49
1.083964621542295
140
10.45538313863936
141
6.686027752030966
142
1.0
143
1.0
 70
 11952
 72
     0
 73
     1
 74
     4
  7
5000N-BLACK.ctb
 75
    16
147
1.0
148
-40.4397989279603
149
-27.53270138717434
100
AcDbLayout
  1
Model
 70
     1
 71
     0
 10
0.0
 20
0.0
 11
12.0
 21
9.0
 12
0.0
 22
0.0
 32
0.0
 14
0.0
 24
0.0
 34
0.0
 15
0.0
 25
0.0
 35
0.0
146
0.0
 13
0.0
 23
0.0
 33
0.0
 16
1.0
 26
0.0
 36
0.0
 17
0.0
 27
1.0
 37
0.0
 76
     0
330
2
331
882
  0
MATERIAL
  5
10B0
102
{ACAD_XDICTIONARY
360
35800
102
}
102
{ACAD_REACTORS
330
884
102
}
330
884
100
AcDbMaterial
  1
ByBlock
 73
     1
 78
     1
172
     1
176
     1
270
     1
274
     1
  0
MATERIAL
  5
10AF
102
{ACAD_XDICTIONARY
360
357FE
102
}
102
{ACAD_REACTORS
330
884
102
}
330
884
100
AcDbMaterial
  1
ByLayer
 73
     1
 78
     1
172
     1
176
     1
270
     1
274
     1
  0
MATERIAL
  5
10B1
102
{ACAD_XDICTIONARY
360
35802
102
}
102
{ACAD_REACTORS
330
884
102
}
330
884
100
AcDbMaterial
  1
Global
 73
     1
 78
     1
172
     1
176
     1
270
     1
274
     1
  0
MLEADERSTYLE
  5
3370E
102
{ACAD_REACTORS
330
3370D
102
}
330
3370D
100
AcDbMLeaderStyle
170
     2
171
     1
172
     0
 90
        2
 40
0.0
 41
0.0
173
     1
 91
-1056964608
340
16
 92
       -2
290
     1
 42
0.09
291
     1
 43
0.36
  3
Standard
 44
0.18
300

342
13
174
     1
178
     6
175
     1
176
     0
 93
-1056964608
 45
0.18
292
     0
297
     0
 46
0.18
 94
-1056964608
 47
1.0
 49
1.0
140
1.0
293
     1
141
0.0
294
     1
177
     0
142
1.0
295
     0
296
     0
143
0.125
1001
ACAD_MLEADERVER
1070
     2
  0
MLINESTYLE
  5
28
102
{ACAD_REACTORS
330
25
102
}
330
25
100
AcDbMlineStyle
  2
STANDARD
 70
     0
  3

 62
   256
 51
90.0
 52
90.0
 71
     2
 49
0.5
 62
   256
  6
BYLAYER
 49
-0.5
 62
   256
  6
BYLAYER
  0
PLOTSETTINGS
  5
1A21
102
{ACAD_XDICTIONARY
360
3586F
102
}
102
{ACAD_REACTORS
330
26
102
}
330
26
100
AcDbPlotSettings
  1
3010
  2
\\User-server\3010
  4
Letter
  6

 40
6.000749588012695
 41
6.000745773315428
 42
6.000747680664062
 43
6.000762939453125
 44
215.8999938964844
 45
279.3999938964844
 46
3.336542192430866
 47
4.095742591857943
 48
0.0
 49
0.0
140
10.205
141
7.764780009564798
142
1.0
143
1.0
 70
  2740
 72
     0
 73
     1
 74
     4
  7
GORDON-BLK.ctb
 75
    16
147
1.0
148
0.0
149
0.0
1001
ACAD_PSEXT
1000
\\User-server\3010
1000
KONICA MINOLTA Di3010 PCL6
1000
\\User-server
1000

1070
     0
  0
PLOTSETTINGS
  5
1A1F
102
{ACAD_XDICTIONARY
360
3586B
102
}
102
{ACAD_REACTORS
330
26
102
}
330
26
100
AcDbPlotSettings
  1
5000N
  2
HP 5000 N
  4
Letter
  6

 40
4.233333110809326
 41
4.233341693878172
 42
4.233322143554686
 43
4.23333740234375
 44
215.8999938964844
 45
279.3999938964844
 46
5.103963199587251
 47
5.863157400131249
 48
0.0
 49
0.0
140
10.205
141
7.764780009564798
142
1.0
143
1.0
 70
  2740
 72
     0
 73
     1
 74
     4
  7
GORDON-BLK.ctb
 75
    16
147
1.0
148
0.0
149
0.0
1001
ACAD_PSEXT
1000
HP 5000 N
1000
HP LaserJet 5100 PCL 6
1000
IP_192.168.100.208
1000

1070
     0
  0
PLOTSETTINGS
  5
1A22
102
{ACAD_XDICTIONARY
360
35871
102
}
102
{ACAD_REACTORS
330
26
102
}
330
26
100
AcDbPlotSettings
  1
Minolta
  2
\\User-server\Minolta
  4
Letter
  6

 40
6.085416316986081
 41
6.085421085357666
 42
6.085403442382812
 43
6.085418701171875
 44
215.8999938964844
 45
279.3999938964844
 46
3.251880947084776
 47
4.011077054977445
 48
0.0
 49
0.0
140
10.205
141
7.764780009564798
142
1.0
143
1.0
 70
  2740
 72
     0
 73
     1
 74
     4
  7
GORDON-BLK.ctb
 75
    16
147
1.0
148
0.0
149
0.0
1001
ACAD_PSEXT
1000
\\User-server\Minolta
1000
CopierBW Ver 1.1
1000
\\User-server
1000

1070
     0
  0
PLOTSETTINGS
  5
1A20
102
{ACAD_XDICTIONARY
360
3586D
102
}
102
{ACAD_REACTORS
330
26
102
}
330
26
100
AcDbPlotSettings
  1
PDF
  2
Acrobat PDFWriter
  4
Letter
  6

 40
3.174999952316283
 41
3.174999952316283
 42
3.175003051757812
 43
3.17498779296875
 44
215.8999938964844
 45
279.3999938964844
 46
6.162289324732188
 47
6.921503075599713
 48
0.0
 49
0.0
140
10.205
141
7.764780009564798
142
1.0
143
1.0
 70
  2740
 72
     0
 73
     1
 74
     4
  7
GORDON-BLK.ctb
 75
    16
147
1.0
148
0.0
149
0.0
1001
ACAD_PSEXT
1000
Acrobat PDFWriter
1000
Adobe PDF Converter
1000
My Documents
1000
Creates Adobe PDF
1070
     0
  0
ACDBPLACEHOLDER
  5
5
102
{ACAD_REACTORS
330
6
102
}
330
6
  0
SCALE
  5
336FC
102
{ACAD_REACTORS
330
336FB
102
}
330
336FB
100
AcDbScale
 70
     0
300
1:1
140
1.0
141
1.0
290
     1
  0
SCALE
  5
336FD
102
{ACAD_REACTORS
330
336FB
102
}
330
336FB
100
AcDbScale
 70
     0
300
1/128" = 1'-0"
140
0.0078125
141
12.0
290
     0
  0
SCALE
  5
336FE
102
{ACAD_REACTORS
330
336FB
102
}
330
336FB
100
AcDbScale
 70
     0
300
1/64" = 1'-0"
140
0.015625
141
12.0
290
     0
  0
SCALE
  5
336FF
102
{ACAD_REACTORS
330
336FB
102
}
330
336FB
100
AcDbScale
 70
     0
300
1/32" = 1'-0"
140
0.03125
141
12.0
290
     0
  0
SCALE
  5
33700
102
{ACAD_REACTORS
330
336FB
102
}
330
336FB
100
AcDbScale
 70
     0
300
1/16" = 1'-0"
140
0.0625
141
12.0
290
     0
  0
SCALE
  5
33701
102
{ACAD_REACTORS
330
336FB
102
}
330
336FB
100
AcDbScale
 70
     0
300
3/32" = 1'-0"
140
0.09375
141
12.0
290
     0
  0
SCALE
  5
33702
102
{ACAD_REACTORS
330
336FB
102
}
330
336FB
100
AcDbScale
 70
     0
300
1/8" = 1'-0"
140
0.125
141
12.0
290
     0
  0
SCALE
  5
33703
102
{ACAD_REACTORS
330
336FB
102
}
330
336FB
100
AcDbScale
 70
     0
300
3/16" = 1'-0"
140
0.1875
141
12.0
290
     0
  0
SCALE
  5
33704
102
{ACAD_REACTORS
330
336FB
102
}
330
336FB
100
AcDbScale
 70
     0
300
1/4" = 1'-0"
140
0.25
141
12.0
290
     0
  0
SCALE
  5
33705
102
{ACAD_REACTORS
330
336FB
102
}
330
336FB
100
AcDbScale
 70
     0
300
3/8" = 1'-0"
140
0.375
141
12.0
290
     0
  0
SCALE
  5
33706
102
{ACAD_REACTORS
330
336FB
102
}
330
336FB
100
AcDbScale
 70
     0
300
1/2" = 1'-0"
140
0.5
141
12.0
290
     0
  0
SCALE
  5
33707
102
{ACAD_REACTORS
330
336FB
102
}
330
336FB
100
AcDbScale
 70
     0
300
3/4" = 1'-0"
140
0.75
141
12.0
290
     0
  0
SCALE
  5
33708
102
{ACAD_REACTORS
330
336FB
102
}
330
336FB
100
AcDbScale
 70
     0
300
1" = 1'-0"
140
1.0
141
12.0
290
     0
  0
SCALE
  5
33709
102
{ACAD_REACTORS
330
336FB
102
}
330
336FB
100
AcDbScale
 70
     0
300
1-1/2" = 1'-0"
140
1.5
141
12.0
290
     0
  0
SCALE
  5
3370A
102
{ACAD_REACTORS
330
336FB
102
}
330
336FB
100
AcDbScale
 70
     0
300
3" = 1'-0"
140
3.0
141
12.0
290
     0
  0
SCALE
  5
3370B
102
{ACAD_REACTORS
330
336FB
102
}
330
336FB
100
AcDbScale
 70
     0
300
6" = 1'-0"
140
6.0
141
12.0
290
     0
  0
SCALE
  5
3370C
102
{ACAD_REACTORS
330
336FB
102
}
330
336FB
100
AcDbScale
 70
     0
300
1'-0" = 1'-0"
140
12.0
141
12.0
290
     0
  0
TABLESTYLE
  5
887
102
{ACAD_XDICTIONARY
360
357F3
102
}
102
{ACAD_REACTORS
330
886
102
}
330
886
100
AcDbTableStyle
  3
Standard
 70
     0
 71
     0
 40
0.06
 41
0.06
280
     0
281
     0
  7
STANDARD
140
0.18
170
     2
 62
     0
 63
     7
283
     0
274
    -2
284
     1
 64
     0
275
    -2
285
     1
 65
     0
276
    -2
286
     1
 66
     0
277
    -2
287
     1
 67
     0
278
    -2
288
     1
 68
     0
279
    -2
289
     1
 69
     0
  7
STANDARD
140
0.25
170
     5
 62
     0
 63
     7
283
     0
274
    -2
284
     1
 64
     0
275
    -2
285
     1
 65
     0
276
    -2
286
     1
 66
     0
277
    -2
287
     1
 67
     0
278
    -2
288
     1
 68
     0
279
    -2
289
     1
 69
     0
  7
STANDARD
140
0.18
170
     5
 62
     0
 63
     7
283
     0
274
    -2
284
     1
 64
     0
275
    -2
285
     1
 65
     0
276
    -2
286
     1
 66
     0
277
    -2
287
     1
 67
     0
278
    -2
288
     1
 68
     0
279
    -2
289
     1
 69
     0
  0
VISUALSTYLE
  5
10B8
102
{ACAD_XDICTIONARY
360
3585D
102
}
102
{ACAD_REACTORS
330
10B2
102
}
330
10B2
100
AcDbVisualStyle
  2

 70
     4
 71
     0
 72
     2
 73
     0
 90
        0
 40
-0.6
 41
-30.0
 62
     5
 63
     7
 74
     1
 91
        4
 64
     7
 65
   257
 75
     1
175
     1
 42
1.0
 92
        0
 66
   257
 43
1.0
 76
     1
 77
     6
 78
     2
 67
     7
 79
     5
170
     0
171
     0
290
     0
174
     0
 93
        1
 44
0.0
173
     0
291
     0
 45
0.0
1001
ACAD
1000
AcDbSavedByObjectVersion
1070
     0
  0
VISUALSTYLE
  5
1D4F
102
{ACAD_XDICTIONARY
360
35873
102
}
102
{ACAD_REACTORS
330
10B2
102
}
330
10B2
100
AcDbVisualStyle
  2

 70
     6
 71
     1
 72
     2
 73
     2
 90
        0
 40
-0.6
 41
-30.0
 62
     5
 63
     7
 74
     2
 91
        2
 64
     7
 65
   257
 75
     2
175
     1
 42
40.0
 92
        0
 66
   257
 43
1.0
 76
     1
 77
     6
 78
     2
 67
     7
 79
     3
170
     0
171
     0
290
     0
174
     0
 93
        1
 44
0.0
173
     0
291
     0
 45
0.0
1001
ACAD
1000
AcDbSavedByObjectVersion
1070
     0
  0
VISUALSTYLE
  5
1D50
102
{ACAD_XDICTIONARY
360
35875
102
}
102
{ACAD_REACTORS
330
10B2
102
}
330
10B2
100
AcDbVisualStyle
  2

 70
     5
 71
     0
 72
     2
 73
     0
 90
        0
 40
-0.6
 41
-30.0
 62
     5
 63
     7
 74
     1
 91
        4
 64
     7
 65
   257
 75
     1
175
     1
 42
1.0
 92
        0
 66
   257
 43
1.0
 76
     1
 77
     6
 78
     2
 67
     7
 79
     5
170
     0
171
     0
290
     0
174
     0
 93
        1
 44
0.0
173
     0
291
     0
 45
0.0
1001
ACAD
1000
AcDbSavedByObjectVersion
1070
     0
  0
VISUALSTYLE
  5
10B7
102
{ACAD_XDICTIONARY
360
3585B
102
}
102
{ACAD_REACTORS
330
10B2
102
}
330
10B2
100
AcDbVisualStyle
  2

 70
     7
 71
     1
 72
     0
 73
     1
 90
        0
 40
-0.6
 41
-30.0
 62
     5
 63
     7
 74
     0
 91
        4
 64
     7
 65
   257
 75
     1
175
     1
 42
1.0
 92
        8
 66
     7
 43
1.0
 76
     1
 77
     6
 78
     2
 67
     7
 79
     5
170
     0
171
     0
290
     0
174
     0
 93
        1
 44
0.0
173
     0
291
     1
 45
0.0
1001
ACAD
1000
AcDbSavedByObjectVersion
1070
     0
  0
VISUALSTYLE
  5
10BE
102
{ACAD_XDICTIONARY
360
35861
102
}
102
{ACAD_REACTORS
330
10B2
102
}
330
10B2
100
AcDbVisualStyle
  2

 70
    12
 71
     2
 72
     2
 73
     0
 90
        0
 40
-0.6
 41
-30.0
 62
     5
 63
     7
 74
     1
 91
        4
 64
     7
 65
   257
 75
     1
175
     1
 42
1.0
 92
        8
 66
     7
 43
1.0
 76
     1
 77
     6
 78
     2
 67
     7
 79
     5
170
     0
171
     0
290
     0
174
     0
 93
        1
 44
50.0
173
     0
291
     1
 45
0.0
1001
ACAD
1000
AcDbSavedByObjectVersion
1070
     0
  0
VISUALSTYLE
  5
10C2
102
{ACAD_XDICTIONARY
360
35869
102
}
102
{ACAD_REACTORS
330
10B2
102
}
330
10B2
100
AcDbVisualStyle
  2

 70
    16
 71
     2
 72
     2
 73
     3
 90
        0
 40
-0.6
 41
-30.0
 62
     5
 63
     8
 74
     1
 91
        4
 64
     7
 65
   257
 75
     1
175
     1
 42
1.0
 92
        8
 66
     8
 43
1.0
 76
     1
 77
     6
 78
     2
 67
     7
 79
     5
170
     0
171
     0
290
     0
174
     0
 93
        1
 44
0.0
173
     0
291
     1
 45
0.0
1001
ACAD
1000
AcDbSavedByObjectVersion
1070
     0
  0
VISUALSTYLE
  5
1D51
102
{ACAD_XDICTIONARY
360
35877
102
}
102
{ACAD_REACTORS
330
10B2
102
}
330
10B2
100
AcDbVisualStyle
  2

 70
     9
 71
     3
 72
     2
 73
     0
 90
        0
 40
-0.6
 41
-30.0
 62
     5
 63
     7
 74
     2
 91
        2
 64
     7
 65
   257
 75
     1
175
     1
 42
40.0
 92
        8
 66
     7
 43
1.0
 76
     1
 77
     6
 78
     2
 67
     7
 79
     3
170
     0
171
     0
290
     0
174
     0
 93
        1
 44
0.0
173
     0
291
     0
 45
0.0
1001
ACAD
1000
AcDbSavedByObjectVersion
1070
     0
  0
VISUALSTYLE
  5
10BD
102
{ACAD_XDICTIONARY
360
3585F
102
}
102
{ACAD_REACTORS
330
10B2
102
}
330
10B2
100
AcDbVisualStyle
  2

 70
    11
 71
     2
 72
     2
 73
     0
 90
        0
 40
-0.6
 41
-30.0
 62
     5
 63
     7
 74
     1
 91
        4
 64
     7
 65
   257
 75
     1
175
     1
 42
1.0
 92
        8
 66
     7
 43
1.0
 76
     1
 77
     6
 78
     2
 67
     7
 79
     5
170
     0
171
     0
290
     0
174
     0
 93
        1
 44
-50.0
173
     0
291
     1
 45
0.0
1001
ACAD
1000
AcDbSavedByObjectVersion
1070
     0
  0
VISUALSTYLE
  5
336FA
102
{ACAD_XDICTIONARY
360
3588D
102
}
102
{ACAD_REACTORS
330
10B2
102
}
330
10B2
100
AcDbVisualStyle
  2

 70
    22
 71
     2
 72
     2
 73
     0
 90
        0
 40
-0.6
 41
-30.0
 62
     5
 63
     7
 74
     1
 91
        4
 64
     7
 65
   257
 75
     1
175
     1
 42
1.0
 92
        8
 66
     7
 43
1.0
 76
     1
 77
     6
 78
     2
 67
     7
 79
     5
170
     0
171
     0
290
     0
174
     0
 93
        1
 44
0.0
173
     0
291
     1
 45
0.0
1001
ACAD
1000
AcDbSavedByObjectVersion
1070
     0
  0
VISUALSTYLE
  5
10C1
102
{ACAD_XDICTIONARY
360
35867
102
}
102
{ACAD_REACTORS
330
10B2
102
}
330
10B2
100
AcDbVisualStyle
  2

 70
    15
 71
     2
 72
     2
 73
     0
 90
        0
 40
-0.6
 41
-30.0
 62
     5
 63
     7
 74
     1
 91
        4
 64
     7
 65
   257
 75
     1
175
     1
 42
1.0
 92
        8
 66
     7
 43
1.0
 76
     1
 77
     6
 78
     2
 67
     7
 79
     5
170
     0
171
     0
290
     0
174
     0
 93
        1
 44
0.0
173
     0
291
     1
 45
0.0
1001
ACAD
1000
AcDbSavedByObjectVersion
1070
     0
  0
VISUALSTYLE
  5
10B3
102
{ACAD_XDICTIONARY
360
35853
102
}
102
{ACAD_REACTORS
330
10B2
102
}
330
10B2
100
AcDbVisualStyle
  2

 70
     0
 71
     2
 72
     1
 73
     1
 90
        2
 40
-0.6
 41
30.0
 62
     5
 63
     7
 74
     0
 91
        4
 64
     7
 65
   257
 75
     1
175
     1
 42
1.0
 92
        8
 66
     7
 43
1.0
 76
     1
 77
     6
 78
     2
 67
     7
 79
     5
170
     0
171
     0
290
     0
174
     0
 93
       13
 44
0.0
173
     0
291
     1
 45
0.0
1001
ACAD
1000
AcDbSavedByObjectVersion
1070
     0
  0
VISUALSTYLE
  5
10B4
102
{ACAD_XDICTIONARY
360
35855
102
}
102
{ACAD_REACTORS
330
10B2
102
}
330
10B2
100
AcDbVisualStyle
  2

 70
     1
 71
     2
 72
     1
 73
     1
 90
        2
 40
-0.6
 41
30.0
 62
     5
 63
     7
 74
     1
 91
        4
 64
     7
 65
   257
 75
     1
175
     1
 42
1.0
 92
        0
 66
   257
 43
1.0
 76
     1
 77
     6
 78
     2
 67
     7
 79
     5
170
     0
171
     0
290
     0
174
     0
 93
       13
 44
0.0
173
     0
291
     1
 45
0.0
1001
ACAD
1000
AcDbSavedByObjectVersion
1070
     0
  0
VISUALSTYLE
  5
10B5
102
{ACAD_XDICTIONARY
360
35857
102
}
102
{ACAD_REACTORS
330
10B2
102
}
330
10B2
100
AcDbVisualStyle
  2

 70
     2
 71
     2
 72
     2
 73
     1
 90
        2
 40
-0.6
 41
30.0
 62
     5
 63
     7
 74
     0
 91
        4
 64
     7
 65
   257
 75
     1
175
     1
 42
1.0
 92
        0
 66
     7
 43
1.0
 76
     1
 77
     6
 78
     2
 67
     7
 79
     5
170
     0
171
     0
290
     0
174
     0
 93
       13
 44
0.0
173
     0
291
     1
 45
0.0
1001
ACAD
1000
AcDbSavedByObjectVersion
1070
     0
  0
VISUALSTYLE
  5
10B6
102
{ACAD_XDICTIONARY
360
35859
102
}
102
{ACAD_REACTORS
330
10B2
102
}
330
10B2
100
AcDbVisualStyle
  2

 70
     3
 71
     2
 72
     2
 73
     1
 90
        2
 40
-0.6
 41
30.0
 62
     5
 63
     7
 74
     1
 91
        4
 64
     7
 65
   257
 75
     1
175
     1
 42
1.0
 92
        0
 66
   257
 43
1.0
 76
     1
 77
     6
 78
     2
 67
     7
 79
     5
170
     0
171
     0
290
     0
174
     0
 93
       13
 44
0.0
173
     0
291
     1
 45
0.0
1001
ACAD
1000
AcDbSavedByObjectVersion
1070
     0
  0
VISUALSTYLE
  5
336F2
102
{ACAD_XDICTIONARY
360
3587D
102
}
102
{ACAD_REACTORS
330
10B2
102
}
330
10B2
100
AcDbVisualStyle
  2

 70
     6
 71
     1
 72
     2
 73
     2
 90
        0
 40
-0.6
 41
-30.0
 62
     5
 63
     7
 74
     2
 91
        2
 64
     7
 65
   257
 75
     2
175
     1
 42
40.0
 92
        0
 66
   257
 43
1.0
 76
     1
 77
     6
 78
     2
 67
     7
 79
     3
170
     0
171
     0
290
     0
174
     0
 93
        1
 44
0.0
173
     0
291
     0
 45
0.0
1001
ACAD
1000
AcDbSavedByObjectVersion
1070
     0
  0
VISUALSTYLE
  5
336F8
102
{ACAD_XDICTIONARY
360
35889
102
}
102
{ACAD_REACTORS
330
10B2
102
}
330
10B2
100
AcDbVisualStyle
  2

 70
    20
 71
     2
 72
     2
 73
     0
 90
        0
 40
-0.6
 41
-30.0
 62
     5
 63
     7
 74
     1
 91
        4
 64
     7
 65
   257
 75
     1
175
     1
 42
1.0
 92
       10
 66
     7
 43
1.0
 76
     1
 77
     6
 78
     2
 67
     7
 79
     5
170
     0
171
     0
290
     0
174
     0
 93
        1
 44
0.0
173
     0
291
     1
 45
0.0
1001
ACAD
1000
AcDbSavedByObjectVersion
1070
     0
  0
VISUALSTYLE
  5
10C0
102
{ACAD_XDICTIONARY
360
35865
102
}
102
{ACAD_REACTORS
330
10B2
102
}
330
10B2
100
AcDbVisualStyle
  2

 70
    14
 71
     2
 72
     2
 73
     0
 90
        0
 40
-0.6
 41
-30.0
 62
     5
 63
     7
 74
     1
 91
        4
 64
     7
 65
   257
 75
     7
175
     7
 42
1.0
 92
        8
 66
     7
 43
1.0
 76
     1
 77
     6
 78
     2
 67
     7
 79
     5
170
     0
171
     0
290
     0
174
     0
 93
        1
 44
0.0
173
     0
291
     1
 45
0.0
1001
ACAD
1000
AcDbSavedByObjectVersion
1070
     0
  0
VISUALSTYLE
  5
336F9
102
{ACAD_XDICTIONARY
360
3588B
102
}
102
{ACAD_REACTORS
330
10B2
102
}
330
10B2
100
AcDbVisualStyle
  2

 70
    21
 71
     2
 72
     2
 73
     0
 90
        0
 40
-0.6
 41
-30.0
 62
     5
 63
     7
 74
     1
 91
        4
 64
     7
 65
   257
 75
     1
175
     1
 42
1.0
 92
        9
 66
     7
 43
1.0
 76
     1
 77
     6
 78
     2
 67
     7
 79
     5
170
     0
171
     0
290
     0
174
     0
 93
        1
 44
0.0
173
     0
291
     1
 45
0.0
1001
ACAD
1000
AcDbSavedByObjectVersion
1070
     0
  0
VISUALSTYLE
  5
1D52
102
{ACAD_XDICTIONARY
360
35879
102
}
102
{ACAD_REACTORS
330
10B2
102
}
330
10B2
100
AcDbVisualStyle
  2

 70
     8
 71
     2
 72
     2
 73
     0
 90
        0
 40
-0.6
 41
-30.0
 62
     5
 63
     7
 74
     1
 91
        0
 64
     7
 65
   257
 75
     1
175
     1
 42
1.0
 92
        8
 66
     8
 43
1.0
 76
     1
 77
     6
 78
     2
 67
     7
 79
     5
170
     0
171
     0
290
     0
174
     0
 93
       13
 44
0.0
173
     0
291
     0
 45
0.0
1001
ACAD
1000
AcDbSavedByObjectVersion
1070
     0
  0
VISUALSTYLE
  5
336F7
102
{ACAD_XDICTIONARY
360
35887
102
}
102
{ACAD_REACTORS
330
10B2
102
}
330
10B2
100
AcDbVisualStyle
  2

 70
    27
 71
     2
 72
     2
 73
     1
 90
        2
 40
-0.6
 41
30.0
 62
     5
 63
     7
 74
     0
 91
        4
 64
     7
 65
   257
 75
     1
175
     1
 42
1.0
 92
        8
 66
   257
 43
1.0
 76
     1
 77
     6
 78
     2
 67
     8
 79
     3
170
     0
171
     0
290
     0
174
     0
 93
        5
 44
0.0
173
     0
291
     0
 45
0.0
1001
ACAD
1000
AcDbSavedByObjectVersion
1070
     0
  0
VISUALSTYLE
  5
336F6
102
{ACAD_XDICTIONARY
360
35885
102
}
102
{ACAD_REACTORS
330
10B2
102
}
330
10B2
100
AcDbVisualStyle
  2

 70
    26
 71
     2
 72
     2
 73
     1
 90
        2
 40
-0.6
 41
30.0
 62
     5
 63
     7
 74
     1
 91
       10
 64
     7
 65
   257
 75
     2
175
     1
 42
1.0
 92
        8
 66
   257
 43
1.0
 76
     1
 77
     6
 78
     2
 67
     7
 79
     3
170
     0
171
     0
290
     0
174
     0
 93
        5
 44
0.0
173
     0
291
     0
 45
0.0
1001
ACAD
1000
AcDbSavedByObjectVersion
1070
     0
  0
VISUALSTYLE
  5
336F3
102
{ACAD_XDICTIONARY
360
3587F
102
}
102
{ACAD_REACTORS
330
10B2
102
}
330
10B2
100
AcDbVisualStyle
  2

 70
    23
 71
     2
 72
     2
 73
     3
 90
        0
 40
-0.6
 41
-30.0
 62
     5
 63
     7
 74
     2
 91
        2
 64
     7
 65
     7
 75
     1
175
     1
 42
40.0
 92
        8
 66
     7
 43
1.0
 76
     1
 77
     6
 78
     2
 67
     7
 79
     3
170
     0
171
     0
290
     0
174
     0
 93
        1
 44
0.0
173
     0
291
     0
 45
0.0
1001
ACAD
1000
AcDbSavedByObjectVersion
1070
     0
  0
VISUALSTYLE
  5
336F4
102
{ACAD_XDICTIONARY
360
35881
102
}
102
{ACAD_REACTORS
330
10B2
102
}
330
10B2
100
AcDbVisualStyle
  2

 70
    24
 71
     1
 72
     2
 73
     2
 90
        0
 40
-0.6
 41
-30.0
 62
     5
 63
     7
 74
     2
 91
        2
 64
     7
 65
     7
 75
     1
175
     1
 42
40.0
 92
       11
 66
     7
 43
1.0
 76
     1
 77
     6
 78
     2
 67
     7
 79
     6
170
     0
171
     0
290
     0
174
     0
 93
        1
 44
0.0
173
     0
291
     0
 45
0.0
1001
ACAD
1000
AcDbSavedByObjectVersion
1070
     0
  0
VISUALSTYLE
  5
10BF
102
{ACAD_XDICTIONARY
360
35863
102
}
102
{ACAD_REACTORS
330
10B2
102
}
330
10B2
100
AcDbVisualStyle
  2

 70
    13
 71
     2
 72
     2
 73
     0
 90
        0
 40
-0.6
 41
-30.0
 62
     5
 63
     7
 74
     1
 91
        4
 64
     7
 65
   257
 75
     1
175
     1
 42
1.0
 92
       12
 66
     7
 43
1.0
 76
     1
 77
     6
 78
     2
 67
     7
 79
     5
170
     0
171
     0
290
     0
174
     0
 93
        1
 44
0.0
173
     0
291
     1
 45
0.0
1001
ACAD
1000
AcDbSavedByObjectVersion
1070
     0
  0
VISUALSTYLE
  5
336F1
102
{ACAD_XDICTIONARY
360
3587B
102
}
102
{ACAD_REACTORS
330
10B2
102
}
330
10B2
100
AcDbVisualStyle
  2

 70
     5
 71
     0
 72
     2
 73
     0
 90
        0
 40
-0.6
 41
-30.0
 62
     5
 63
     7
 74
     1
 91
        4
 64
     7
 65
   257
 75
     1
175
     1
 42
1.0
 92
        0
 66
   257
 43
1.0
 76
     1
 77
     6
 78
     2
 67
     7
 79
     3
170
     0
171
     0
290
     0
174
     0
 93
        1
 44
0.0
173
     0
291
     0
 45
0.0
1001
ACAD
1000
AcDbSavedByObjectVersion
1070
     0
  0
VISUALSTYLE
  5
336F5
102
{ACAD_XDICTIONARY
360
35883
102
}
102
{ACAD_REACTORS
330
10B2
102
}
330
10B2
100
AcDbVisualStyle
  2

 70
    25
 71
     2
 72
     2
 73
     1
 90
        1
 40
0.5
 41
-30.0
 62
     5
 63
     7
 74
     1
 91
        0
 64
     7
 65
   257
 75
     1
175
     1
 42
1.0
 92
        8
 66
     7
 43
1.0
 76
     1
 77
     6
 78
     2
 67
     7
 79
     3
170
     0
171
     0
290
     0
174
     0
 93
       13
 44
0.0
173
     0
291
     0
 45
0.0
1001
ACAD
1000
AcDbSavedByObjectVersion
1070
     0
  0
DICTIONARYVAR
  5
34BC7
102
{ACAD_REACTORS
330
3AC
102
}
330
3AC
100
DictionaryVariables
280
     0
  1
1:1
  0
DICTIONARYVAR
  5
34BC5
102
{ACAD_REACTORS
330
3AC
102
}
330
3AC
100
DictionaryVariables
280
     0
  1
STANDARD
  0
DICTIONARYVAR
  5
89F
102
{ACAD_REACTORS
330
3AC
102
}
330
3AC
100
DictionaryVariables
280
     0
  1
STANDARD
  0
DICTIONARYVAR
  5
3AD
102
{ACAD_REACTORS
330
3AC
102
}
330
3AC
100
DictionaryVariables
280
     0
  1
1
  0
DICTIONARYVAR
  5
35847
102
{ACAD_REACTORS
330
3AC
102
}
330
3AC
100
DictionaryVariables
280
     0
  1
0
  0
DICTIONARYVAR
  5
357F0
102
{ACAD_REACTORS
330
3AC
102
}
330
3AC
100
DictionaryVariables
280
     0
  1
0
  0
DICTIONARYVAR
  5
34BC9
102
{ACAD_REACTORS
330
3AC
102
}
330
3AC
100
DictionaryVariables
280
     0
  1
1
  0
DICTIONARYVAR
  5
34BCA
102
{ACAD_REACTORS
330
3AC
102
}
330
3AC
100
DictionaryVariables
280
     0
  1
15
  0
DICTIONARYVAR
  5
34BC8
102
{ACAD_REACTORS
330
3AC
102
}
330
3AC
100
DictionaryVariables
280
     0
  1
0
  0
DICTIONARYVAR
  5
34BC6
102
{ACAD_REACTORS
330
3AC
102
}
330
3AC
100
DictionaryVariables
280
     0
  1
0
  0
DICTIONARYVAR
  5
357F2
102
{ACAD_REACTORS
330
3AC
102
}
330
3AC
100
DictionaryVariables
280
     0
  1
1
  0
DICTIONARYVAR
  5
357EF
102
{ACAD_REACTORS
330
3AC
102
}
330
3AC
100
DictionaryVariables
280
     0
  1
127
  0
DICTIONARYVAR
  5
35848
102
{ACAD_REACTORS
330
3AC
102
}
330
3AC
100
DictionaryVariables
280
     0
  1
2
  0
XRECORD
  5
1054
102
{ACAD_REACTORS
330
1053
102
}
330
1053
100
AcDbXrecord
280
     1
330
0
  0
XRECORD
  5
335FC
102
{ACAD_REACTORS
330
89A
102
}
330
89A
100
AcDbXrecord
280
     1
 91
      535
301

290
     0
302
DIM
330
31F0D
 90
       24
 62
     7
370
    -3
331
8
  1
Color_7
330
1A94
 90
        0
 62
   253
370
    -3
331
8
  1
Color_253
330
1A91
 90
        8
 62
    60
370
    -3
331
8
  1
Color_60
330
1A8E
 90
        8
 62
     2
370
    -3
331
8
  1
Color_2
330
1A8B
 90
        8
 62
     2
370
    -3
331
1A4E
  1
Color_2
330
1A88
 90
        8
 62
     3
370
    -3
331
8
  1
Color_3
330
1A85
 90
        8
 62
     6
370
    -3
331
8
  1
Color_6
330
1A82
 90
        0
 62
   251
370
    -3
331
8
  1
Color_251
330
1A7F
 90
        8
 62
     1
370
    -3
331
8
  1
Color_1
330
1A7C
 90
        8
 62
   253
370
    -3
331
1A5D
  1
Color_253
330
1A79
 90
        8
 62
     2
370
    -3
331
8
  1
Color_2
330
1A76
 90
        8
 62
     4
370
    -3
331
8
  1
Color_4
330
1A73
 90
        8
 62
     1
370
    -3
331
8
  1
Color_1
330
1A70
 90
        8
 62
     6
370
    -3
331
8
  1
Color_6
330
1A6D
 90
        8
 62
     5
370
    -3
331
8
  1
Color_5
330
1A6A
 90
        8
 62
    52
370
    -3
331
8
  1
Color_52
330
1A67
 90
        8
 62
     2
370
    -3
331
8
  1
Color_2
330
1A64
 90
        8
 62
     1
370
    -3
331
8
  1
Color_1
330
1A61
 90
        8
 62
     1
370
    -3
331
8
  1
Color_1
330
73
 90
        0
 62
   252
370
    -3
331
8
  1
Color_252
330
32
 90
        8
 62
     3
370
    -3
331
8
  1
Color_3
330
4
 90
        8
 62
     7
370
    -3
331
8
  1
Color_7
  0
DICTIONARY
  5
89C
330
10
100
AcDbDictionary
280
     1
281
     1
  3
ACAD_XREC_ROUNDTRIP
360
3584F
  3
ADSK_XREC_LAYOUTTHUMBNAIL
360
89D
  0
DICTIONARY
  5
357E6
330
B
100
AcDbDictionary
280
     1
281
     1
  3
ACAD_XREC_ROUNDTRIP
360
3584E
  3
ADSK_XREC_LAYOUTTHUMBNAIL
360
357E7
  0
DICTIONARY
  5
35800
330
10B0
100
AcDbDictionary
280
     1
281
     1
  3
ACAD_XREC_ROUNDTRIP
360
35801
  0
DICTIONARY
  5
357FE
330
10AF
100
AcDbDictionary
280
     1
281
     1
  3
ACAD_XREC_ROUNDTRIP
360
357FF
  0
DICTIONARY
  5
35802
330
10B1
100
AcDbDictionary
280
     1
281
     1
  3
ACAD_XREC_ROUNDTRIP
360
35803
  0
DICTIONARY
  5
3586F
330
1A21
100
AcDbDictionary
280
     1
281
     1
  3
ACAD_XREC_ROUNDTRIP
360
35870
  0
DICTIONARY
  5
3586B
330
1A1F
100
AcDbDictionary
280
     1
281
     1
  3
ACAD_XREC_ROUNDTRIP
360
3586C
  0
DICTIONARY
  5
35871
330
1A22
100
AcDbDictionary
280
     1
281
     1
  3
ACAD_XREC_ROUNDTRIP
360
35872
  0
DICTIONARY
  5
3586D
330
1A20
100
AcDbDictionary
280
     1
281
     1
  3
ACAD_XREC_ROUNDTRIP
360
3586E
  0
DICTIONARY
  5
357F3
330
887
100
AcDbDictionary
280
     1
281
     1
  3
ACAD_ROUNDTRIP_2008_TABLESTYLE_CELLSTYLEMAP
360
35849
  3
ACAD_XREC_ROUNDTRIP
360
35852
  0
DICTIONARY
  5
3585D
330
10B8
100
AcDbDictionary
280
     1
281
     1
  3
ACAD_XREC_ROUNDTRIP
360
3585E
  0
DICTIONARY
  5
35873
330
1D4F
100
AcDbDictionary
280
     1
281
     1
  3
ACAD_XREC_ROUNDTRIP
360
35874
  0
DICTIONARY
  5
35875
330
1D50
100
AcDbDictionary
280
     1
281
     1
  3
ACAD_XREC_ROUNDTRIP
360
35876
  0
DICTIONARY
  5
3585B
330
10B7
100
AcDbDictionary
280
     1
281
     1
  3
ACAD_XREC_ROUNDTRIP
360
3585C
  0
DICTIONARY
  5
35861
330
10BE
100
AcDbDictionary
280
     1
281
     1
  3
ACAD_XREC_ROUNDTRIP
360
35862
  0
DICTIONARY
  5
35869
330
10C2
100
AcDbDictionary
280
     1
281
     1
  3
ACAD_XREC_ROUNDTRIP
360
3586A
  0
DICTIONARY
  5
35877
330
1D51
100
AcDbDictionary
280
     1
281
     1
  3
ACAD_XREC_ROUNDTRIP
360
35878
  0
DICTIONARY
  5
3585F
330
10BD
100
AcDbDictionary
280
     1
281
     1
  3
ACAD_XREC_ROUNDTRIP
360
35860
  0
DICTIONARY
  5
3588D
330
336FA
100
AcDbDictionary
280
     1
281
     1
  3
ACAD_XREC_ROUNDTRIP
360
3588E
  0
DICTIONARY
  5
35867
330
10C1
100
AcDbDictionary
280
     1
281
     1
  3
ACAD_XREC_ROUNDTRIP
360
35868
  0
DICTIONARY
  5
35853
330
10B3
100
AcDbDictionary
280
     1
281
     1
  3
ACAD_XREC_ROUNDTRIP
360
35854
  0
DICTIONARY
  5
35855
330
10B4
100
AcDbDictionary
280
     1
281
     1
  3
ACAD_XREC_ROUNDTRIP
360
35856
  0
DICTIONARY
  5
35857
330
10B5
100
AcDbDictionary
280
     1
281
     1
  3
ACAD_XREC_ROUNDTRIP
360
35858
  0
DICTIONARY
  5
35859
330
10B6
100
AcDbDictionary
280
     1
281
     1
  3
ACAD_XREC_ROUNDTRIP
360
3585A
  0
DICTIONARY
  5
3587D
330
336F2
100
AcDbDictionary
280
     1
281
     1
  3
ACAD_XREC_ROUNDTRIP
360
3587E
  0
DICTIONARY
  5
35889
330
336F8
100
AcDbDictionary
280
     1
281
     1
  3
ACAD_XREC_ROUNDTRIP
360
3588A
  0
DICTIONARY
  5
35865
330
10C0
100
AcDbDictionary
280
     1
281
     1
  3
ACAD_XREC_ROUNDTRIP
360
35866
  0
DICTIONARY
  5
3588B
330
336F9
100
AcDbDictionary
280
     1
281
     1
  3
ACAD_XREC_ROUNDTRIP
360
3588C
  0
DICTIONARY
  5
35879
330
1D52
100
AcDbDictionary
280
     1
281
     1
  3
ACAD_XREC_ROUNDTRIP
360
3587A
  0
DICTIONARY
  5
35887
330
336F7
100
AcDbDictionary
280
     1
281
     1
  3
ACAD_XREC_ROUNDTRIP
360
35888
  0
DICTIONARY
  5
35885
330
336F6
100
AcDbDictionary
280
     1
281
     1
  3
ACAD_XREC_ROUNDTRIP
360
35886
  0
DICTIONARY
  5
3587F
330
336F3
100
AcDbDictionary
280
     1
281
     1
  3
ACAD_XREC_ROUNDTRIP
360
35880
  0
DICTIONARY
  5
35881
330
336F4
100
AcDbDictionary
280
     1
281
     1
  3
ACAD_XREC_ROUNDTRIP
360
35882
  0
DICTIONARY
  5
35863
330
10BF
100
AcDbDictionary
280
     1
281
     1
  3
ACAD_XREC_ROUNDTRIP
360
35864
  0
DICTIONARY
  5
3587B
330
336F1
100
AcDbDictionary
280
     1
281
     1
  3
ACAD_XREC_ROUNDTRIP
360
3587C
  0
DICTIONARY
  5
35883
330
336F5
100
AcDbDictionary
280
     1
281
     1
  3
ACAD_XREC_ROUNDTRIP
360
35884
  0
XRECORD
  5
3584F
102
{ACAD_REACTORS
330
89C
102
}
330
89C
100
AcDbXrecord
280
     1
102
SHADEPLOT
 70
     0
102
SHADEPLOTRESLEVEL
 70
     2
102
SHADEPLOTCUSTOMDPI
 70
   300
  0
XRECORD
  5
89D
102
{ACAD_REACTORS
330
89C
102
}
330
89C
100
AcDbXrecord
280
     1
310
28000000B40000008B0000000100080000000000BC610000000000000000000000010000000000000000000000000000FFFFFF000000000000000000000000000000000000000000000000000000000000000000330000006600000099000000CC000000FF00000000330000333300006633000099330000CC330000FF3300
310
0000660000336600006666000099660000CC660000FF66000000990000339900006699000099990000CC990000FF99000000CC000033CC000066CC000099CC0000CCCC0000FFCC000000FF000033FF000066FF000099FF0000CCFF0000FFFF000000003300330033006600330099003300CC003300FF003300003333003333
310
33006633330099333300CC333300FF33330000663300336633006666330099663300CC663300FF66330000993300339933006699330099993300CC993300FF99330000CC330033CC330066CC330099CC3300CCCC3300FFCC330000FF330033FF330066FF330099FF3300CCFF3300FFFF330000006600330066006600660099
310
006600CC006600FF00660000336600333366006633660099336600CC336600FF33660000666600336666006666660099666600CC666600FF66660000996600339966006699660099996600CC996600FF99660000CC660033CC660066CC660099CC6600CCCC6600FFCC660000FF660033FF660066FF660099FF6600CCFF6600
310
FFFF660000009900330099006600990099009900CC009900FF00990000339900333399006633990099339900CC339900FF33990000669900336699006666990099669900CC669900FF66990000999900339999006699990099999900CC999900FF99990000CC990033CC990066CC990099CC9900CCCC9900FFCC990000FF99
310
0033FF990066FF990099FF9900CCFF9900FFFF99000000CC003300CC006600CC009900CC00CC00CC00FF00CC000033CC003333CC006633CC009933CC00CC33CC00FF33CC000066CC003366CC006666CC009966CC00CC66CC00FF66CC000099CC003399CC006699CC009999CC00CC99CC00FF99CC0000CCCC0033CCCC0066CC
310
CC0099CCCC00CCCCCC00FFCCCC0000FFCC0033FFCC0066FFCC0099FFCC00CCFFCC00FFFFCC000000FF003300FF006600FF009900FF00CC00FF00FF00FF000033FF003333FF006633FF009933FF00CC33FF00FF33FF000066FF003366FF006666FF009966FF00CC66FF00FF66FF000099FF003399FF006699FF009999FF00CC
310
99FF00FF99FF0000CCFF0033CCFF0066CCFF0099CCFF00CCCCFF00FFCCFF0000FFFF0033FFFF0066FFFF0099FFFF00CCFFFF00FFFFFF00000000000D0D0D001A1A1A00282828003535350043434300505050005D5D5D006B6B6B00787878008686860093939300A1A1A100AEAEAE00BBBBBB00C9C9C900D6D6D600E4E4E400
310
F1F1F100FFFFFF000000000000000000000000000000000000000000000000000000000000000000000000000000000000000000000000000000000000000000000000000000000000000000000000000000000000000000000000000000000000000000000000000000000000000000000000000000000000000000000000
310
00000000000000000000000000000000000000000000000000000000000000000000000000000000000000000000000000000000000000000000000000000000000000000000000000000000000000000000000000000000000000000000000000000000000000000000000000000000000000000000000000000000000000
310
00000000000000000000000000000000000000000000000000000000000000000000000000000000000000000000000000000000000000000000000000000000000000000000000000000000000000000000000000000000000000000000000000000000000000000000000000000000000000000000000000000000000000
310
00000000000000000000000000000000000000000000000000000000000000000000000000000000000000000000000000000000000000000000000000000000000000000000000000000000000000000000000000000000000000000000000000000000000000000000000000000000000000000000000000000000000000
310
00000000000000000000000000000000000000000000000000000000000000000000000000000000000000000000000000000000000000000000000000000000000000000000000000000000000000000000000000000000000000000000000000000000000000000000000000000000000000000000000000000000000000
310
00000000000000000000000000000000000000000000000000000000000000000000000000000000000000000000000000000000000000000000000000000000000000000000000000000000000000000000000000000000000000000000000000000000000000000000000000000000000000000000000000000000000000
310
00000000000000000000000000000000000000000000000000000000000000000000000000000000000000000000000000000000000000000000000000000000000000000000000000000000000000000000000000000000000000000000000000000000000000000000000000000000000000000000000000000000000000
310
00000000000000000000000000000000000000000000000000000000000000000000000000000000000000000000000000000000000000000000000000000000000000000000000000000000000000000000000000000000000000000000000000000000000000000000000000000000000000000000000000000000000000
310
00000000000000000000000000000000000000000000000000000000000000000000000000000000000000000000000000000000000000000000000000000000000000000000000000000000000000000000000000000000000000000000000000000000000000000000000000000000000000000000000000000000000000
310
00000000000000000000000000000000000000000000000000000000000000000000000000000000000000000000000000000000000000000000000000000000000000000000000000000000000000000000000000000000000000000000000000000000000000000000000000000000000000000000000000000000000000
310
00000000000000000000000000000000000000000000000000000000000000000000000000000000000000000000000000000000000000000000000000000000000000000000000000000000000000000000000000000000000000000000000000000000000000000000000000000000000000000000000000000000000000
310
00000000000000000000000000000000000000000000000000000000000000000000000000000000000000000000000000000000000000000000000000000000000000000000000000000000000000000000000000000000000000000000000000000000000000000000000000000000000000000000000000000000000000
310
00000000000000000000000000000000000000000000000000000000000000000000000000000000000000000000000000000000000000000000000000000000000000000000000000000000000000000000000000000000000000000000000000000000000000000000000000000000000000000000000000000000000000
310
00000000000000000000000000000000000000000000000000000000000000000000000000000000000000000000000000000000000000000000000000000000000000000000000000000000000000000000000000000000000000000000000000000000000000000000000000000000000000000000000000000000000000
310
00000000000000000000000000000000000000000000000000000000000000000000000000000000000000000000000000000000000000000000000000000000000000000000000000000000000000000000000000000000000000000000000000000000000000000000000000000000000000000000000000000000000000
310
00000000000000000000000000000000000000000000000000000000000000000000000000000000000000000000000000000000000000000000000000000000000000000000000000000000000000000000000000000000000000000000000000000000000000000000000000000000000000000000000000000000000000
310
00000000000000000000000000000000000000000000000000000000000000000000000000000000000000000000000000000000000000000000000000000000000000000000000000000000000000000000000000000000000000000000000000000000000000000000000000000000000000000000000000000000000000
310
00000000000000000000000000000000000000000000000000000000000000000000000000000000000000000000000000000000000000000000000000000000000000000000000000000000000000000000000000000000000000000000000000000000000000000000000000000000000000000000000000000000000000
310
00000000000000000000000000000000000000000000000000000000000000000000000000000000000000000000000000000000000000000000000000000000000000000000000000000000000000000000000000000000000000000000000000000000000000000000000000000000000000000000000000000000000000
310
00000000000000000000000000000000000000000000000000000000000000000000000000000000000000000000000000000000000000000000000000000000000000000000000000000000000000000000000000000000000000000000000000000000000000000000000000000000000000000000000000000000000000
310
00000000000000000000000000000000000000000000000000000000000000000000000000000000000000000000000000000000000000000000000000000000000000000000000000000000000000000000000000000000000000000000000000000000000000000000000000000000000000000000000000000000000000
310
00000000000000000000000000000000000000000000000000000000000000000000000000000000000000000000000000000000000000000000000000000000000000000000000000000000000000000000000000000000000000000000000000000000000000000000000000000000000000000000000000000000000000
310
00000000000000000000000000000000000000000000000000000000000000000000000000000000000000000000000000000000000000000000000000000000000000000000000000000000000000000000000000000000000000000000000000000000000000000000000000000000000000000000000000000000000000
310
00000000000000000000000000000000000000000000000000000000000000000000000000000000000000000000000000000000000000000000000000000000000000000000000000000000000000000000000000000000000000000000000000000000000000000000000000000000000000000000000000000000000000
310
00000000000000000000000000000000000000000000000000000000000000000000000000000000000000000000000000000000000000000000000000000000000000000000000000000000000000000000000000000000000000000000000000000000000000000000000000000000000000000000000000000000000000
310
00000000000000000000000000000000000000000000000000000000000000000000000000000000000000000000000000000000000000000000000000000000000000000000000000000000000000000000000000000000000000000000000000000000000000000000000000000000000000000000000000000000000000
310
00000000000000000000000000000000000000000000000000000000000000000000000000000000000000000000000000000000000000000000000000000000000000000000000000000000000000000000000000000000000000000000000000000000000000000000000000000000000000000000000000000000000000
310
00000000000000000000000000000000000000000000000000000000000000000000000000000000000000000000000000000000000000000000000000000000000000000000000000000000000000000000000000000000000000000000000000000000000000000000000000000000000000000000000000000000000000
310
00000000000000000000000000000000000000000000000000000000000000000000000000000000000000000000000000000000000000000000000000000000000000000000000000000000000000000000000000000000000000000000000000000000000000000000000000000000000000000000000000000000000000
310
00000000000000000000000000000000000000000000000000000000000000000000000000000000000000000000000000000000000000000000000000000000000000000000000000000000000000000000000000000000000000000000000000000000000000000000000000000000000000000000000000000000000000
310
00000000000000000000000000000000000000000000000000000000000000000000000000000000000000000000000000000000000000000000000000000000000000000000000000000000000000000000000000000000000000000000000000000000000000000000000000000000000000000000000000000000000000
310
00000000000000000000000000000000000000000000000000000000000000000000000000000000000000000000000000000000000000000000000000000000000000000000000000000000000000000000000000000000000000000000000000000000000000000000000000000000000000000000000000000000000000
310
00000000000000000000000000000000000000000000000000000000000000000000000000000000000000000000000000000000000000000000000000000000000000000000000000000000000000000000000000000000000000000000000000000000000000000000000000000000000000000000000000000000000000
310
00000000000000000000000000000000000000000000000000000000000000000000000000000000000000000000000000000000000000000000000000000000000000000000000000000000000000000000000000000000000000000000000000000000000000000000000000000000000000000000000000000000000000
310
00000000000000000000000000000000000000000000000000000000000000000000000000000000000000000000000000000000000000000000000000000000000000000000000000000000000000000000000000000000000000000000000000000000000000000000000000000000000000000000000000000000000000
310
00000000000000000000000000000000000000000000000000000000000000000000000000000000000000000000000000000000000000000000000000000000000000000000000000000000000000000000000000000000000000000000000000000000000000000000000000000000000000000000000000000000000000
310
00000000000000000000000000000000000000000000000000000000000000000000000000000000000000000000000000000000000000000000000000000000000000000000000000000000000000000000000000000000000000000000000000000000000000000000000000000000000000000000000000000000000000
310
00000000000000000000000000000000000000000000000000000000000000000000000000000000000000000000000000000000000000000000000000000000000000000000000000000000000000000000000000000000000000000000000000000000000000000000000000000000000000000000000000000000000000
310
00000000000000000000000000000000000000000000000000000000000000000000000000000000000000000000000000000000000000000000000000000000000000000000000000000000000000000000000000000000000000000000000000000000000000000000000000000000000000000000000000000000000000
310
00000000000000000000000000000000000000000000000000000000000000000000000000000000000000000000000000000000000000000000000000000000000000000000000000000000000000000000000000000000000000000000000000000000000000000000000000000000000000000000000000000000000000
310
00000000000000000000000000000000000000000000000000000000000000000000000000000000000000000000000000000000000000000000000000000000000000000000000000000000000000000000000000000000000000000000000000000000000000000000000000000000000000000000000000000000000000
310
00000000000000000000000000000000000000000000000000000000000000000000000000000000000000000000000000000000000000000000000000000000000000000000000000000000000000000000000000000000000000000000000000000000000000000000000000000000000000000000000000000000000000
310
00000000000000000000000000000000000000000000000000000000000000000000000000000000000000000000000000000000000000000000000000000000000000000000000000000000000000000000000000000000000000000000000000000000000000000000000000000000000000000000000000000000000000
310
00000000000000000000000000000000000000000000000000000000000000000000000000000000000000000000000000000000000000000000000000000000000000000000000000000000000000000000000000000000000000000000000000000000000000000000000000000000000000000000000000000000000000
310
00000000000000000000000000000000000000000000000000000000000000000000000000000000000000000000000000000000000000000000000000000000000000000000000000000000000000000000000000000000000000000000000000000000000000000000000000000000000000000000000000000000000000
310
00000000000000000000000000000000000000000000000000000000000000000000000000000000000000000000000000000000000000000000000000000000000000000000000000000000000000000000000000000000000000000000000000000000000000000000000000000000000000000000000000000000000000
310
00000000000000000000000000000000000000000000000000000000000000000000000000000000000000000000000000000000000000000000000000000000000000000000000000000000000000000000000000000000000000000000000000000000000000000000000000000000000000000000000000000000000000
310
00000000000000000000000000000000000000000000000000000000000000000000000000000000000000000000000000000000000000000000000000000000000000000000000000000000000000000000000000000000000000000000000000000000000000000000000000000000000000000000000000000000000000
310
00000000000000000000000000000000000000000000000000000000000000000000000000000000000000000000000000000000000000000000000000000000000000000000000000000000000000000000000000000000000000000000000000000000000000000000000000000000000000000000000000000000000000
310
00000000000000000000000000000000000000000000000000000000000000000000000000000000000000000000000000000000000000000000000000000000000000000000000000000000000000000000000000000000000000000000000000000000000000000000000000000000000000000000000000000000000000
310
00000000000000000000000000000000000000000000000000000000000000000000000000000000000000000000000000000000000000000000000000000000000000000000000000000000000000000000000000000000000000000000000000000000000000000000000000000000000000000000000000000000000000
310
00000000000000000000000000000000000000000000000000000000000000000000000000000000000000000000000000000000000000000000000000000000000000000000000000000000000000000000000000000000000000000000000000000000000000000000000000000000000000000000000000000000000000
310
00000000000000000000000000000000000000000000000000000000000000000000000000000000000000000000000000000000000000000000000000000000000000000000000000000000000000000000000000000000000000000000000000000000000000000000000000000000000000000000000000000000000000
310
00000000000000000000000000000000000000000000000000000000000000000000000000000000000000000000000000000000000000000000000000000000000000000000000000000000000000000000000000000000000000000000000000000000000000000000000000000000000000000000000000000000000000
310
00000000000000000000000000000000000000000000000000000000000000000000000000000000000000000000000000000000000000000000000000000000000000000000000000000000000000000000000000000000000000000000000000000000000000000000000000000000000000000000000000000000000000
310
00000000000000000000000000000000000000000000000000000000000000000000000000000000000000000000000000000000000000000000000000000000000000000000000000000000000000000000000000000000000000000000000000000000000000000000000000000000000000000000000000000000000000
310
00000000000000000000000000000000000000000000000000000000000000000000000000000000000000000000000000000000000000000000000000000000000000000000000000000000000000000000000000000000000000000000000000000000000000000000000000000000000000000000000000000000000000
310
00000000000000000000000000000000000000000000000000000000000000000000000000000000000000000000000000000000000000000000000000000000000000000000000000000000000000000000000000000000000000000000000000000000000000000000000000000000000000000000000000000000000000
310
00000000000000000000000000000000000000000000000000000000000000000000000000000000000000000000000000000000000000000000000000000000000000000000000000000000000000000000000000000000000000000000000000000000000000000000000000000000000000000000000000000000000000
310
00000000000000000000000000000000000000000000000000000000000000000000000000000000000000000000000000000000000000000000000000000000000000000000000000000000000000000000000000000000000000000000000000000000000000000000000000000000000000000000000000000000000000
310
00000000000000000000000000000000000000000000000000000000000000000000000000000000000000000000000000000000000000000000000000000000000000000000000000000000000000000000000000000000000000000000000000000000000000000000000000000000000000000000000000000000000000
310
00000000000000000000000000000000000000000000000000000000000000000000000000000000000000000000000000000000000000000000000000000000000000000000000000000000000000000000000000000000000000000000000000000000000000000000000000000000000000000000000000000000000000
310
00000000000000000000000000000000000000000000000000000000000000000000000000000000000000000000000000000000000000000000000000000000000000000000000000000000000000000000000000000000000000000000000000000000000000000000000000000000000000000000000000000000000000
310
00000000000000000000000000000000000000000000000000000000000000000000000000000000000000000000000000000000000000000000000000000000000000000000000000000000000000000000000000000000000000000000000000000000000000000000000000000000000000000000000000000000000000
310
00000000000000000000000000000000000000000000000000000000000000000000000000000000000000000000000000000000000000000000000000000000000000000000000000000000000000000000000000000000000000000000000000000000000000000000000000000000000000000000000000000000000000
310
00000000000000000000000000000000000000000000000000000000000000000000000000000000000000000000000000000000000000000000000000000000000000000000000000000000000000000000000000000000000000000000000000000000000000000000000000000000000000000000000000000000000000
310
00000000000000000000000000000000000000000000000000000000000000000000000000000000000000000000000000000000000000000000000000000000000000000000000000000000000000000000000000000000000000000000000000000000000000000000000000000000000000000000000000000000000000
310
00000000000000000000000000000000000000000000000000000000000000000000000000000000000000000000000000000000000000000000000000000000000000000000000000000000000000000000000000000000000000000000000000000000000000000000000000000000000000000000000000000000000000
310
00000000000000000000000000000000000000000000000000000000000000000000000000000000000000000000000000000000000000000000000000000000000000000000000000000000000000000000000000000000000000000000000000000000000000000000000000000000000000000000000000000000000000
310
00000000000000000000000000000000000000000000000000000000000000000000000000000000000000000000000000000000000000000000000000000000000000000000000000000000000000000000000000000000000000000000000000000000000000000000000000000000000000000000000000000000000000
310
00000000000000000000000000000000000000000000000000000000000000000000000000000000000000000000000000000000000000000000000000000000000000000000000000000000000000000000000000000000000000000000000000000000000000000000000000000000000000000000000000000000000000
310
00000000000000000000000000000000000000000000000000000000000000000000000000000000000000000000000000000000000000000000000000000000000000000000000000000000000000000000000000000000000000000000000000000000000000000000000000000000000000000000000000000000000000
310
00000000000000000000000000000000000000000000000000000000000000000000000000000000000000000000000000000000000000000000000000000000000000000000000000000000000000000000000000000000000000000000000000000000000000000000000000000000000000000000000000000000000000
310
00000000000000000000000000000000000000000000000000000000000000000000000000000000000000000000000000000000000000000000000000000000000000000000000000000000000000000000000000000000000000000000000000000000000000000000000000000000000000000000000000000000000000
310
00000000000000000000000000000000000000000000000000000000000000000000000000000000000000000000000000000000000000000000000000000000000000000000000000000000000000000000000000000000000000000000000000000000000000000000000000000000000000000000000000000000000000
310
00000000000000000000000000000000000000000000000000000000000000000000000000000000000000000000000000000000000000000000000000000000000000000000000000000000000000000000000000000000000000000000000000000000000000000000000000000000000000000000000000000000000000
310
00000000000000000000000000000000000000000000000000000000000000000000000000000000000000000000000000000000000000000000000000000000000000000000000000000000000000000000000000000000000000000000000000000000000000000000000000000000000000000000000000000000000000
310
00000000000000000000000000000000000000000000000000000000000000000000000000000000000000000000000000000000000000000000000000000000000000000000000000000000000000000000000000000000000000000000000000000000000000000000000000000000000000000000000000000000000000
310
00000000000000000000000000000000000000000000000000000000000000000000000000000000000000000000000000000000000000000000000000000000000000000000000000000000000000000000000000000000000000000000000000000000000000000000000000000000000000000000000000000000000000
310
00000000000000000000000000000000000000000000000000000000000000000000000000000000000000000000000000000000000000000000000000000000000000000000000000000000000000000000000000000000000000000000000000000000000000000000000000000000000000000000000000000000000000
310
00000000000000000000000000000000000000000000000000000000000000000000000000000000000000000000000000000000000000000000000000000000000000000000000000000000000000000000000000000000000000000000000000000000000000000000000000000000000000000000000000000000000000
310
00000000000000000000000000000000000000000000000000000000000000000000000000000000000000000000000000000000000000000000000000000000000000000000000000000000000000000000000000000000000000000000000000000000000000000000000000000000000000000000000000000000000000
310
00000000000000000000000000000000000000000000000000000000000000000000000000000000000000000000000000000000000000000000000000000000000000000000000000000000000000000000000000000000000000000000000000000000000000000000000000000000000000000000000000000000000000
310
00000000000000000000000000000000000000000000000000000000000000000000000000000000000000000000000000000000000000000000000000000000000000000000000000000000000000000000000000000000000000000000000000000000000000000000000000000000000000000000000000000000000000
310
00000000000000000000000000000000000000000000000000000000000000000000000000000000000000000000000000000000000000000000000000000000000000000000000000000000000000000000000000000000000000000000000000000000000000000000000000000000000000000000000000000000000000
310
00000000000000000000000000000000000000000000000000000000000000000000000000000000000000000000000000000000000000000000000000000000000000000000000000000000000000000000000000000000000000000000000000000000000000000000000000000000000000000000000000000000000000
310
00000000000000000000000000000000000000000000000000000000000000000000000000000000000000000000000000000000000000000000000000000000000000000000000000000000000000000000000000000000000000000000000000000000000000000000000000000000000000000000000000000000000000
310
00000000000000000000000000000000000000000000000000000000000000000000000000000000000000000000000000000000000000000000000000000000000000000000000000000000000000000000000000000000000000000000000000000000000000000000000000000000000000000000000000000000000000
310
00000000000000000000000000000000000000000000000000000000000000000000000000000000000000000000000000000000000000000000000000000000000000000000000000000000000000000000000000000000000000000000000000000000000000000000000000000000000000000000000000000000000000
310
00000000000000000000000000000000000000000000000000000000000000000000000000000000000000000000000000000000000000000000000000000000000000000000000000000000000000000000000000000000000000000000000000000000000000000000000000000000000000000000000000000000000000
310
00000000000000000000000000000000000000000000000000000000000000000000000000000000000000000000000000000000000000000000000000000000000000000000000000000000000000000000000000000000000000000000000000000000000000000000000000000000000000000000000000000000000000
310
00000000000000000000000000000000000000000000000000000000000000000000000000000000000000000000000000000000000000000000000000000000000000000000000000000000000000000000000000000000000000000000000000000000000000000000000000000000000000000000000000000000000000
310
00000000000000000000000000000000000000000000000000000000000000000000000000000000000000000000000000000000000000000000000000000000000000000000000000000000000000000000000000000000000000000000000000000000000000000000000000000000000000000000000000000000000000
310
00000000000000000000000000000000000000000000000000000000000000000000000000000000000000000000000000000000000000000000000000000000000000000000000000000000000000000000000000000000000000000000000000000000000000000000000000000000000000000000000000000000000000
310
00000000000000000000000000000000000000000000000000000000000000000000000000000000000000000000000000000000000000000000000000000000000000000000000000000000000000000000000000000000000000000000000000000000000000000000000000000000000000000000000000000000000000
310
00000000000000000000000000000000000000000000000000000000000000000000000000000000000000000000000000000000000000000000000000000000000000000000000000000000000000000000000000000000000000000000000000000000000000000000000000000000000000000000000000000000000000
310
00000000000000000000000000000000000000000000000000000000000000000000000000000000000000000000000000000000000000000000000000000000000000000000000000000000000000000000000000000000000000000000000000000000000000000000000000000000000000000000000000000000000000
310
00000000000000000000000000000000000000000000000000000000000000000000000000000000000000000000000000000000000000000000000000000000000000000000000000000000000000000000000000000000000000000000000000000000000000000000000000000000000000000000000000000000000000
310
00000000000000000000000000000000000000000000000000000000000000000000000000000000000000000000000000000000000000000000000000000000000000000000000000000000000000000000000000000000000000000000000000000000000000000000000000000000000000000000000000000000000000
310
00000000000000000000000000000000000000000000000000000000000000000000000000000000000000000000000000000000000000000000000000000000000000000000000000000000000000000000000000000000000000000000000000000000000000000000000000000000000000000000000000000000000000
310
00000000000000000000000000000000000000000000000000000000000000000000000000000000000000000000000000000000000000000000000000000000000000000000000000000000000000000000000000000000000000000000000000000000000000000000000000000000000000000000000000000000000000
310
00000000000000000000000000000000000000000000000000000000000000000000000000000000000000000000000000000000000000000000000000000000000000000000000000000000000000000000000000000000000000000000000000000000000000000000000000000000000000000000000000000000000000
310
00000000000000000000000000000000000000000000000000000000000000000000000000000000000000000000000000000000000000000000000000000000000000000000000000000000000000000000000000000000000000000000000000000000000000000000000000000000000000000000000000000000000000
310
00000000000000000000000000000000000000000000000000000000000000000000000000000000000000000000000000000000000000000000000000000000000000000000000000000000000000000000000000000000000000000000000000000000000000000000000000000000000000000000000000000000000000
310
00000000000000000000000000000000000000000000000000000000000000000000000000000000000000000000000000000000000000000000000000000000000000000000000000000000000000000000000000000000000000000000000000000000000000000000000000000000000000000000000000000000000000
310
00000000000000000000000000000000000000000000000000000000000000000000000000000000000000000000000000000000000000000000000000000000000000000000000000000000000000000000000000000000000000000000000000000000000000000000000000000000000000000000000000000000000000
310
00000000000000000000000000000000000000000000000000000000000000000000000000000000000000000000000000000000000000000000000000000000000000000000000000000000000000000000000000000000000000000000000000000000000000000000000000000000000000000000000000000000000000
310
00000000000000000000000000000000000000000000000000000000000000000000000000000000000000000000000000000000000000000000000000000000000000000000000000000000000000000000000000000000000000000000000000000000000000000000000000000000000000000000000000000000000000
310
00000000000000000000000000000000000000000000000000000000000000000000000000000000000000000000000000000000000000000000000000000000000000000000000000000000000000000000000000000000000000000000000000000000000000000000000000000000000000000000000000000000000000
310
00000000000000000000000000000000000000000000000000000000000000000000000000000000000000000000000000000000000000000000000000000000000000000000000000000000000000000000000000000000000000000000000000000000000000000000000000000000000000000000000000000000000000
310
00000000000000000000000000000000000000000000000000000000000000000000000000000000000000000000000000000000000000000000000000000000000000000000000000000000000000000000000000000000000000000000000000000000000000000000000000000000000000000000000000000000000000
310
00000000000000000000000000000000000000000000000000000000000000000000000000000000000000000000000000000000000000000000000000000000000000000000000000000000000000000000000000000000000000000000000000000000000000000000000000000000000000000000000000000000000000
310
00000000000000000000000000000000000000000000000000000000000000000000000000000000000000000000000000000000000000000000000000000000000000000000000000000000000000000000000000000000000000000000000000000000000000000000000000000000000000000000000000000000000000
310
00000000000000000000000000000000000000000000000000000000000000000000000000000000000000000000000000000000000000000000000000000000000000000000000000000000000000000000000000000000000000000000000000000000000000000000000000000000000000000000000000000000000000
310
00000000000000000000000000000000000000000000000000000000000000000000000000000000000000000000000000000000000000000000000000000000000000000000000000000000000000000000000000000000000000000000000000000000000000000000000000000000000000000000000000000000000000
310
00000000000000000000000000000000000000000000000000000000000000000000000000000000000000000000000000000000000000000000000000000000000000000000000000000000000000000000000000000000000000000000000000000000000000000000000000000000000000000000000000000000000000
310
00000000000000000000000000000000000000000000000000000000000000000000000000000000000000000000000000000000000000000000000000000000000000000000000000000000000000000000000000000000000000000000000000000000000000000000000000000000000000000000000000000000000000
310
00000000000000000000000000000000000000000000000000000000000000000000000000000000000000000000000000000000000000000000000000000000000000000000000000000000000000000000000000000000000000000000000000000000000000000000000000000000000000000000000000000000000000
310
00000000000000000000000000000000000000000000000000000000000000000000000000000000000000000000000000000000000000000000000000000000000000000000000000000000000000000000000000000000000000000000000000000000000000000000000000000000000000000000000000000000000000
310
00000000000000000000000000000000000000000000000000000000000000000000000000000000000000000000000000000000000000000000000000000000000000000000000000000000000000000000000000000000000000000000000000000000000000000000000000000000000000000000000000000000000000
310
00000000000000000000000000000000000000000000000000000000000000000000000000000000000000000000000000000000000000000000000000000000000000000000000000000000000000000000000000000000000000000000000000000000000000000000000000000000000000000000000000000000000000
310
00000000000000000000000000000000000000000000000000000000000000000000000000000000000000000000000000000000000000000000000000000000000000000000000000000000000000000000000000000000000000000000000000000000000000000000000000000000000000000000000000000000000000
310
00000000000000000000000000000000000000000000000000000000000000000000000000000000000000000000000000000000000000000000000000000000000000000000000000000000000000000000000000000000000000000000000000000000000000000000000000000000000000000000000000000000000000
310
00000000000000000000000000000000000000000000000000000000000000000000000000000000000000000000000000000000000000000000000000000000000000000000000000000000000000000000000000000000000000000000000000000000000000000000000000000000000000000000000000000000000000
310
00000000000000000000000000000000000000000000000000000000000000000000000000000000000000000000000000000000000000000000000000000000000000000000000000000000000000000000000000000000000000000000000000000000000000000000000000000000000000000000000000000000000000
310
00000000000000000000000000000000000000000000000000000000000000000000000000000000000000000000000000000000000000000000000000000000000000000000000000000000000000000000000000000000000000000000000000000000000000000000000000000000000000000000000000000000000000
310
00000000000000000000000000000000000000000000000000000000000000000000000000000000000000000000000000000000000000000000000000000000000000000000000000000000000000000000000000000000000000000000000000000000000000000000000000000000000000000000000000000000000000
310
00000000000000000000000000000000000000000000000000000000000000000000000000000000000000000000000000000000000000000000000000000000000000000000000000000000000000000000000000000000000000000000000000000000000000000000000000000000000000000000000000000000000000
310
00000000000000000000000000000000000000000000000000000000000000000000000000000000000000000000000000000000000000000000000000000000000000000000000000000000000000000000000000000000000000000000000000000000000000000000000000000000000000000000000000000000000000
310
00000000000000000000000000000000000000000000000000000000000000000000000000000000000000000000000000000000000000000000000000000000000000000000000000000000000000000000000000000000000000000000000000000000000000000000000000000000000000000000000000000000000000
310
00000000000000000000000000000000000000000000000000000000000000000000000000000000000000000000000000000000000000000000000000000000000000000000000000000000000000000000000000000000000000000000000000000000000000000000000000000000000000000000000000000000000000
310
00000000000000000000000000000000000000000000000000000000000000000000000000000000000000000000000000000000000000000000000000000000000000000000000000000000000000000000000000000000000000000000000000000000000000000000000000000000000000000000000000000000000000
310
00000000000000000000000000000000000000000000000000000000000000000000000000000000000000000000000000000000000000000000000000000000000000000000000000000000000000000000000000000000000000000000000000000000000000000000000000000000000000000000000000000000000000
310
00000000000000000000000000000000000000000000000000000000000000000000000000000000000000000000000000000000000000000000000000000000000000000000000000000000000000000000000000000000000000000000000000000000000000000000000000000000000000000000000000000000000000
310
00000000000000000000000000000000000000000000000000000000000000000000000000000000000000000000000000000000000000000000000000000000000000000000000000000000000000000000000000000000000000000000000000000000000000000000000000000000000000000000000000000000000000
310
00000000000000000000000000000000000000000000000000000000000000000000000000000000000000000000000000000000000000000000000000000000000000000000000000000000000000000000000000000000000000000000000000000000000000000000000000000000000000000000000000000000000000
310
00000000000000000000000000000000000000000000000000000000000000000000000000000000000000000000000000000000000000000000000000000000000000000000000000000000000000000000000000000000000000000000000000000000000000000000000000000000000000000000000000000000000000
310
00000000000000000000000000000000000000000000000000000000000000000000000000000000000000000000000000000000000000000000000000000000000000000000000000000000000000000000000000000000000000000000000000000000000000000000000000000000000000000000000000000000000000
310
00000000000000000000000000000000000000000000000000000000000000000000000000000000000000000000000000000000000000000000000000000000000000000000000000000000000000000000000000000000000000000000000000000000000000000000000000000000000000000000000000000000000000
310
00000000000000000000000000000000000000000000000000000000000000000000000000000000000000000000000000000000000000000000000000000000000000000000000000000000000000000000000000000000000000000000000000000000000000000000000000000000000000000000000000000000000000
310
00000000000000000000000000000000000000000000000000000000000000000000000000000000000000000000000000000000000000000000000000000000000000000000000000000000000000000000000000000000000000000000000000000000000000000000000000000000000000000000000000000000000000
310
00000000000000000000000000000000000000000000000000000000000000000000000000000000000000000000000000000000000000000000000000000000000000000000000000000000000000000000000000000000000000000000000000000000000000000000000000000000000000000000000000000000000000
310
00000000000000000000000000000000000000000000000000000000000000000000000000000000000000000000000000000000000000000000000000000000000000000000000000000000000000000000000000000000000000000000000000000000000000000000000000000000000000000000000000000000000000
310
00000000000000000000000000000000000000000000000000000000000000000000000000000000000000000000000000000000000000000000000000000000000000000000000000000000000000000000000000000000000000000000000000000000000000000000000000000000000000000000000000000000000000
310
00000000000000000000000000000000000000000000000000000000000000000000000000000000000000000000000000000000000000000000000000000000000000000000000000000000000000000000000000000000000000000000000000000000000000000000000000000000000000000000000000000000000000
310
00000000000000000000000000000000000000000000000000000000000000000000000000000000000000000000000000000000000000000000000000000000000000000000000000000000000000000000000000000000000000000000000000000000000000000000000000000000000000000000000000000000000000
310
00000000000000000000000000000000000000000000000000000000000000000000000000000000000000000000000000000000000000000000000000000000000000000000000000000000000000000000000000000000000000000000000000000000000000000000000000000000000000000000000000000000000000
310
00000000000000000000000000000000000000000000000000000000000000000000000000000000000000000000000000000000000000000000000000000000000000000000000000000000000000000000000000000000000000000000000000000000000000000000000000000000000000000000000000000000000000
310
00000000000000000000000000000000000000000000000000000000000000000000000000000000000000000000000000000000000000000000000000000000000000000000000000000000000000000000000000000000000000000000000000000000000000000000000000000000000000000000000000000000000000
310
00000000000000000000000000000000000000000000000000000000000000000000000000000000000000000000000000000000000000000000000000000000000000000000000000000000000000000000000000000000000000000000000000000000000000000000000000000000000000000000000000000000000000
310
00000000000000000000000000000000000000000000000000000000000000000000000000000000000000000000000000000000000000000000000000000000000000000000000000000000000000000000000000000000000000000000000000000000000000000000000000000000000000000000000000000000000000
310
00000000000000000000000000000000000000000000000000000000000000000000000000000000000000000000000000000000000000000000000000000000000000000000000000000000000000000000000000000000000000000000000000000000000000000000000000000000000000000000000000000000000000
310
00000000000000000000000000000000000000000000000000000000000000000000000000000000000000000000000000000000000000000000000000000000000000000000000000000000000000000000000000000000000000000000000000000000000000000000000000000000000000000000000000000000000000
310
00000000000000000000000000000000000000000000000000000000000000000000000000000000000000000000000000000000000000000000000000000000000000000000000000000000000000000000000000000000000000000000000000000000000000000000000000000000000000000000000000000000000000
310
00000000000000000000000000000000000000000000000000000000000000000000000000000000000000000000000000000000000000000000000000000000000000000000000000000000000000000000000000000000000000000000000000000000000000000000000000000000000000000000000000000000000000
310
00000000000000000000000000000000000000000000000000000000000000000000000000000000000000000000000000000000000000000000000000000000000000000000000000000000000000000000000000000000000000000000000000000000000000000000000000000000000000000000000000000000000000
310
00000000000000000000000000000000000000000000000000000000000000000000000000000000000000000000000000000000000000000000000000000000000000000000000000000000000000000000000000000000000000000000000000000000000000000000000000000000000000000000000000000000000000
310
00000000000000000000000000000000000000000000000000000000000000000000000000000000000000000000000000000000000000000000000000000000000000000000000000000000000000000000000000000000000000000000000000000000000000000000000000000000000000000000000000000000000000
310
00000000000000000000000000000000000000000000000000000000000000000000000000000000000000000000000000000000000000000000000000000000000000000000000000000000000000000000000000000000000000000000000000000000000000000000000000000000000000000000000000000000000000
310
00000000000000000000000000000000000000000000000000000000000000000000000000000000000000000000000000000000000000000000000000000000000000000000000000000000000000000000000000000000000000000000000000000000000000000000000000000000000000000000000000000000000000
310
00000000000000000000000000000000000000000000000000000000000000000000000000000000000000000000000000000000000000000000000000000000000000000000000000000000000000000000000000000000000000000000000000000000000000000000000000000000000000000000000000000000000000
310
00000000000000000000000000000000000000000000000000000000000000000000000000000000000000000000000000000000000000000000000000000000000000000000000000000000000000000000000000000000000000000000000000000000000000000000000000000000000000000000000000000000000000
310
00000000000000000000000000000000000000000000000000000000000000000000000000000000000000000000000000000000000000000000000000000000000000000000000000000000000000000000000000000000000000000000000000000000000000000000000000000000000000000000000000000000000000
310
00000000000000000000000000000000000000000000000000000000000000000000000000000000000000000000000000000000000000000000000000000000000000000000000000000000000000000000000000000000000000000000000000000000000000000000000000000000000000000000000000000000000000
310
00000000000000000000000000000000000000000000000000000000000000000000000000000000000000000000000000000000000000000000000000000000000000000000000000000000000000000000000000000000000000000000000000000000000000000000000000000000000000000000000000000000000000
310
00000000000000000000000000000000000000000000000000000000000000000000000000000000000000000000000000000000000000000000000000000000000000000000000000000000000000000000000000000000000000000000000000000000000000000000000000000000000000000000000000000000000000
310
00000000000000000000000000000000000000000000000000000000000000000000000000000000000000000000000000000000000000000000000000000000000000000000000000000000000000000000000000000000000000000000000000000000000000000000000000000000000000000000000000000000000000
310
00000000000000000000000000000000000000000000000000000000000000000000000000000000000000000000000000000000000000000000000000000000000000000000000000000000000000000000000000000000000000000000000000000000000000000000000000000000000000000000000000000000000000
310
00000000000000000000000000000000000000000000000000000000000000000000000000000000000000000000000000000000000000000000000000000000000000000000000000000000000000000000000000000000000000000000000000000000000000000000000000000000000000000000000000000000000000
310
00000000000000000000000000000000000000000000000000000000000000000000000000000000000000000000000000000000000000000000000000000000000000000000000000000000000000000000000000000000000000000000000000000000000000000000000000000000000000000000000000000000000000
310
00000000000000000000000000000000000000000000000000000000000000000000000000000000000000000000000000000000000000000000000000000000000000000000000000000000000000000000000000000000000000000000000000000000000000000000000000000000000000000000000000000000000000
310
00000000000000000000000000000000000000000000000000000000000000000000000000000000000000000000000000000000000000000000000000000000000000000000000000000000000000000000000000000000000000000000000000000000000000000000000000000000000000000000000000000000000000
310
00000000000000000000000000000000000000000000000000000000000000000000000000000000000000000000000000000000000000000000000000000000000000000000000000000000000000000000000000000000000000000000000000000000000000000000000000000000000000000000000000000000000000
310
00000000000000000000000000000000000000000000000000000000000000000000000000000000000000000000000000000000000000000000000000000000000000000000000000000000000000000000000000000000000000000000000000000000000000000000000000000000000000000000000000000000000000
310
00000000000000000000000000000000000000000000000000000000000000000000000000000000000000000000000000000000000000000000000000000000000000000000000000000000000000000000000000000000000000000000000000000000000000000000000000000000000000000000000000000000000000
310
00000000000000000000000000000000000000000000000000000000000000000000000000000000000000000000000000000000000000000000000000000000000000000000000000000000000000000000000000000000000000000000000000000000000000000000000000000000000000000000000000000000000000
310
00000000000000000000000000000000000000000000000000000000000000000000000000000000000000000000000000000000000000000000000000000000000000000000000000000000000000000000000000000000000000000000000000000000000000000000000000000000000000000000000000000000000000
310
00000000000000000000000000000000000000000000000000000000000000000000000000000000000000000000000000000000000000000000000000000000000000000000000000000000000000000000000000000000000000000000000000000000000000000000000000000000000000000000000000000000000000
310
00000000000000000000000000000000000000000000000000000000000000000000000000000000000000000000000000000000000000000000000000000000000000000000000000000000000000000000000000000000000000000000000000000000000000000000000000000000000000000000000000000000000000
310
00000000000000000000000000000000000000000000000000000000000000000000000000000000000000000000000000000000000000000000000000000000000000000000000000000000000000000000000000000000000000000000000000000000000000000000000000000000000000000000000000000000000000
310
00000000000000000000000000000000000000000000000000000000000000000000000000000000000000000000000000000000000000000000000000000000000000000000000000000000000000000000000000000000000000000000000000000000000000000000000000000000000000000000000000000000000000
310
00000000000000000000000000000000000000000000000000000000000000000000000000000000000000000000000000000000000000000000000000000000000000000000000000000000000000000000000000000000000000000000000000000000000000000000000000000000000000000000000000000000000000
310
00000000000000000000000000000000000000000000000000000000000000000000000000000000000000000000000000000000000000000000000000000000000000000000000000000000000000000000000000000000000000000000000000000000000000000000000000000000000000000000000000000000000000
310
00000000000000000000000000000000000000000000000000000000000000000000000000000000000000000000000000000000000000000000000000000000000000000000000000000000000000000000000000000000000000000000000000000000000000000000000000000000000000000000000000000000000000
310
00000000000000000000000000000000000000000000000000000000000000000000000000000000000000000000000000000000000000000000000000000000000000000000000000000000000000000000000000000000000000000000000000000000000000000000000000000000000000000000000000000000000000
310
00000000000000000000000000000000000000000000000000000000000000000000000000000000000000000000000000000000000000000000000000000000000000000000000000000000000000000000000000000000000000000000000000000000000000000000000000000000000000000000000000000000000000
310
00000000000000000000000000000000000000000000000000000000000000000000000000000000000000000000000000000000000000000000000000000000000000000000000000000000000000000000000000000000000000000000000000000000000000000000000000000000000000000000000000000000000000
310
00000000000000000000000000000000000000000000000000000000000000000000000000000000000000000000000000000000000000000000000000000000000000000000000000000000000000000000000000000000000000000000000000000000000000000000000000000000000000000000000000000000000000
310
00000000000000000000000000000000000000000000000000000000000000000000000000000000000000000000000000000000000000000000000000000000000000000000000000000000000000000000000000000000000000000000000000000000000000000000000000000000000000000000000000000000000000
310
00000000000000000000000000000000000000000000000000000000000000000000000000000000000000000000000000000000000000000000000000000000000000000000000000000000000000000000000000000000000000000000000000000000000000000000000000000000000000000000000000000000000000
310
00000000000000000000000000000000000000000000000000000000000000000000000000000000000000000000000000000000000000000000000000000000000000000000000000000000000000000000000000000000000000000000000000000000000000000000000000000000000000000000000000000000000000
310
00000000000000000000000000000000000000000000000000000000000000000000000000000000000000000000000000000000000000000000000000000000000000000000000000000000000000000000000000000000000000000000000000000000000000000000000000000000000000000000000000000000000000
310
00000000000000000000000000000000000000000000000000000000000000000000000000000000000000000000000000000000000000000000000000000000000000000000000000000000000000000000000000000000000000000000000000000000000000000000000000000000000000000000000000000000000000
310
00000000000000000000000000000000000000000000000000000000000000000000000000000000000000000000000000000000000000000000000000000000000000000000000000000000000000000000000000000000000000000000000000000000000000000000000000000000000000000000000000000000000000
310
00000000000000000000000000000000000000000000000000000000000000000000000000000000000000000000000000000000000000000000000000000000000000000000000000000000000000000000000000000000000000000000000000000000000000000000000000000000000000000000000000000000000000
310
00000000000000000000000000000000000000000000000000000000000000000000000000000000000000000000000000000000000000000000000000000000000000000000000000000000000000000000000000000000000000000000000000000000000000000000000000000000000000000000000000000000000000
310
00000000000000000000000000000000000000000000000000000000000000000000000000000000000000000000000000000000000000000000000000000000000000000000000000000000000000000000000000000000000000000000000000000000000000000000000000000000000000000000000000000000000000
310
00000000000000000000000000000000000000000000000000000000000000000000000000000000000000000000000000
  0
XRECORD
  5
3584E
102
{ACAD_REACTORS
330
357E6
102
}
330
357E6
100
AcDbXrecord
280
     1
102
SHADEPLOT
 70
     0
102
SHADEPLOTRESLEVEL
 70
     2
102
SHADEPLOTCUSTOMDPI
 70
   300
  0
XRECORD
  5
357E7
102
{ACAD_REACTORS
330
357E6
102
}
330
357E6
100
AcDbXrecord
280
     1
310
280000000001000063000000010008000000000000630000000000000000000000010000000000000000000000000000FFFFFF000000000000000000000000000000000000000000000000000000000000000000330000006600000099000000CC000000FF00000000330000333300006633000099330000CC330000FF3300
310
0000660000336600006666000099660000CC660000FF66000000990000339900006699000099990000CC990000FF99000000CC000033CC000066CC000099CC0000CCCC0000FFCC000000FF000033FF000066FF000099FF0000CCFF0000FFFF000000003300330033006600330099003300CC003300FF003300003333003333
310
33006633330099333300CC333300FF33330000663300336633006666330099663300CC663300FF66330000993300339933006699330099993300CC993300FF99330000CC330033CC330066CC330099CC3300CCCC3300FFCC330000FF330033FF330066FF330099FF3300CCFF3300FFFF330000006600330066006600660099
310
006600CC006600FF00660000336600333366006633660099336600CC336600FF33660000666600336666006666660099666600CC666600FF66660000996600339966006699660099996600CC996600FF99660000CC660033CC660066CC660099CC6600CCCC6600FFCC660000FF660033FF660066FF660099FF6600CCFF6600
310
FFFF660000009900330099006600990099009900CC009900FF00990000339900333399006633990099339900CC339900FF33990000669900336699006666990099669900CC669900FF66990000999900339999006699990099999900CC999900FF99990000CC990033CC990066CC990099CC9900CCCC9900FFCC990000FF99
310
0033FF990066FF990099FF9900CCFF9900FFFF99000000CC003300CC006600CC009900CC00CC00CC00FF00CC000033CC003333CC006633CC009933CC00CC33CC00FF33CC000066CC003366CC006666CC009966CC00CC66CC00FF66CC000099CC003399CC006699CC009999CC00CC99CC00FF99CC0000CCCC0033CCCC0066CC
310
CC0099CCCC00CCCCCC00FFCCCC0000FFCC0033FFCC0066FFCC0099FFCC00CCFFCC00FFFFCC000000FF003300FF006600FF009900FF00CC00FF00FF00FF000033FF003333FF006633FF009933FF00CC33FF00FF33FF000066FF003366FF006666FF009966FF00CC66FF00FF66FF000099FF003399FF006699FF009999FF00CC
310
99FF00FF99FF0000CCFF0033CCFF0066CCFF0099CCFF00CCCCFF00FFCCFF0000FFFF0033FFFF0066FFFF0099FFFF00CCFFFF00FFFFFF00000000000D0D0D001A1A1A00282828003535350043434300505050005D5D5D006B6B6B00787878008686860093939300A1A1A100AEAEAE00BBBBBB00C9C9C900D6D6D600E4E4E400
310
F1F1F100FFFFFF000000000000000000000000000000000000000000000000000000000000000000000000000000000000000000000000000000000000000000000000000000000000000000000000000000000000000000000000000000000000000000000000000000000000000000000000000000000000000000000000
310
00000000000000000000000000000000000000000000000000000000000000000000000000000000000000000000000000000000000000000000000000000000000000000000000000000000000000000000000000000000000000000000000000000000000000000000000000000000000000000000000000000000000000
310
00000000000000000000000000000000000000000000000000000000000000000000000000000000000000000000000000000000000000000000000000000000000000000000000000000000000000000000000000000000000000000000000000000000000000000000000000000000000000000000000000000000000000
310
00000000000000000000000000000000000000000000000000000000000000000000000000000000000000000000000000000000000000000000000000000000000000000000000000000000000000000000000000000000000000000000000000000000000000000000000000000000000000000000000000000000000000
310
00000000000000000000000000000000000000000000000000000000000000000000000000000000000000000000000000000000000000000000000000000000000000000000000000000000000000000000000000000000000000000000000000000000000000000000000000000000000000000000000000000000000000
310
00000000000000000000000000000000000000000000000000000000000000000000000000000000000000000000000000000000000000000000000000000000000000000000000000000000000000000000000000000000000000000000000000000000000000000000000000000000000000000000000000000000000000
310
00000000000000000000000000000000000000000000000000000000000000000000000000000000000000000000000000000000000000000000000000000000000000000000000000000000000000000000000000000000000000000000000000000000000000000000000000000000000000000000000000000000000000
310
00000000000000000000000000000000000000000000000000000000000000000000000000000000000000000000000000000000000000000000000000000000000000000000000000000000000000000000000000000000000000000000000000000000000000000000000000000000000000000000000000000000000000
310
00000000000000000000000000000000000000000000000000000000000000000000000000000000000000000000000000000000000000000000000000000000000000000000000000000000000000000000000000000000000000000000000000000000000000000000000000000000000000000000000000000000000000
310
00000000000000000000000000000000000000000000000000000000000000000000000000000000000000000000000000000000000000000000000000000000000000000000000000000000000000000000000000000000000000000000000000000000000000000000000000000000000000000000000000000000000000
310
00000000000000000000000000000000000000000000000000000000000000000000000000000000000000000000000000000000000000000000000000000000000000000000000000000000000000000000000000000000000000000000000000000000000000000000000000000000000000000000000000000000000000
310
00000000000000000000000000000000000000000000000000000000000000000000000000000000000000000000000000000000000000000000000000000000000000000000000000000000000000000000000000000000000000000000000000000000000000000000000000000000000000000000000000000000000000
310
00000000000000000000000000000000000000000000000000000000000000000000000000000000000000000000000000000000000000000000000000000000000000000000000000000000000000000000000000000000000000000000000000000000000000000000000000000000000000000000000000000000000000
310
00000000000000000000000000000000000000000000000000000000000000000000000000000000000000000000000000000000000000000000000000000000000000000000000000000000000000000000000000000000000000000000000000000000000000000000000000000000000000000000000000000000000000
310
00000000000000000000000000000000000000000000000000000000000000000000000000000000000000000000000000000000000000000000000000000000000000000000000000000000000000000000000000000000000000000000000000000000000000000000000000000000000000000000000000000000000000
310
00000000000000000000000000000000000000000000000000000000000000000000000000000000000000000000000000000000000000000000000000000000000000000000000000000000000000000000000000000000000000000000000000000000000000000000000000000000000000000000000000000000000000
310
00000000000000000000000000000000000000000000000000000000000000000000000000000000000000000000000000000000000000000000000000000000000000000000000000000000000000000000000000000000000000000000000000000000000000000000000000000000000000000000000000000000000000
310
00000000000000000000000000000000000000000000000000000000000000000000000000000000000000000000000000000000000000000000000000000000000000000000000000000000000000000000000000000000000000000000000000000000000000000000000000000000000000000000000000000000000000
310
00000000000000000000000000000000000000000000000000000000000000000000000000000000000000000000000000000000000000000000000000000000000000000000000000000000000000000000000000000000000000000000000000000000000000000000000000000000000000000000000000000000000000
310
00000000000000000000000000000000000000000000000000000000000000000000000000000000000000000000000000000000000000000000000000000000000000000000000000000000000000000000000000000000000000000000000000000000000000000000000000000000000000000000000000000000000000
310
00000000000000000000000000000000000000000000000000000000000000000000000000000000000000000000000000000000000000000000000000000000000000000000000000000000000000000000000000000000000000000000000000000000000000000000000000000000000000000000000000000000000000
310
00000000000000000000000000000000000000000000000000000000000000000000000000000000000000000000000000000000000000000000000000000000000000000000000000000000000000000000000000000000000000000000000000000000000000000000000000000000000000000000000000000000000000
310
00000000000000000000000000000000000000000000000000000000000000000000000000000000000000000000000000000000000000000000000000000000000000000000000000000000000000000000000000000000000000000000000000000000000000000000000000000000000000000000000000000000000000
310
00000000000000000000000000000000000000000000000000000000000000000000000000000000000000000000000000000000000000000000000000000000000000000000000000000000000000000000000000000000000000000000000000000000000000000000000000000000000000000000000000000000000000
310
00000000000000000000000000000000000000000000000000000000000000000000000000000000000000000000000000000000000000000000000000000000000000000000000000000000000000000000000000000000000000000000000000000000000000000000000000000000000000000000000000000000000000
310
00000000000000000000000000000000000000000000000000000000000000000000000000000000000000000000000000000000000000000000000000000000000000000000000000000000000000000000000000000000000000000000000000000000000000000000000000000000000000000000000000000000000000
310
00000000000000000000000000000000000000000000000000000000000000000000000000000000000000000000000000000000000000000000000000000000000000000000000000000000000000000000000000000000000000000000000000000000000000000000000000000000000000000000000000000000000000
310
00000000000000000000000000000000000000000000000000000000000000000000000000000000000000000000000000000000000000000000000000000000000000000000000000000000000000000000000000000000000000000000000000000000000000000000000000000000000000000000000000000000000000
310
00000000000000000000000000000000000000000000000000000000000000000000000000000000000000000000000000000000000000000000000000000000000000000000000000000000000000000000000000000000000000000000000000000000000000000000000000000000000000000000000000000000000000
310
00000000000000000000000000000000000000000000000000000000000000000000000000000000000000000000000000000000000000000000000000000000000000000000000000000000000000000000000000000000000000000000000000000000000000000000000000000000000000000000000000000000000000
310
00000000000000000000000000000000000000000000000000000000000000000000000000000000000000000000000000000000000000000000000000000000000000000000000000000000000000000000000000000000000000000000000000000000000000000000000000000000000000000000000000000000000000
310
00000000000000000000000000000000000000000000000000000000000000000000000000000000000000000000000000000000000000000000000000000000000000000000000000000000000000000000000000000000000000000000000000000000000000000000000000000000000000000000000000000000000000
310
00000000000000000000000000000000000000000000000000000000000000000000000000000000000000000000000000000000000000000000000000000000000000000000000000000000000000000000000000000000000000000000000000000000000000000000000000000000000000000000000000000000000000
310
00000000000000000000000000000000000000000000000000000000000000000000000000000000000000000000000000000000000000000000000000000000000000000000000000000000000000000000000000000000000000000000000000000000000000000000000000000000000000000000000000000000000000
310
00000000000000000000000000000000000000000000000000000000000000000000000000000000000000000000000000000000000000000000000000000000000000000000000000000000000000000000000000000000000000000000000000000000000000000000000000000000000000000000000000000000000000
310
00000000000000000000000000000000000000000000000000000000000000000000000000000000000000000000000000000000000000000000000000000000000000000000000000000000000000000000000000000000000000000000000000000000000000000000000000000000000000000000000000000000000000
310
00000000000000000000000000000000000000000000000000000000000000000000000000000000000000000000000000000000000000000000000000000000000000000000000000000000000000000000000000000000000000000000000000000000000000000000000000000000000000000000000000000000000000
310
00000000000000000000000000000000000000000000000000000000000000000000000000000000000000000000000000000000000000000000000000000000000000000000000000000000000000000000000000000000000000000000000000000000000000000000000000000000000000000000000000000000000000
310
00000000000000000000000000000000000000000000000000000000000000000000000000000000000000000000000000000000000000000000000000000000000000000000000000000000000000000000000000000000000000000000000000000000000000000000000000000000000000000000000000000000000000
310
00000000000000000000000000000000000000000000000000000000000000000000000000000000000000000000000000000000000000000000000000000000000000000000000000000000000000000000000000000000000000000000000000000000000000000000000000000000000000000000000000000000000000
310
00000000000000000000000000000000000000000000000000000000000000000000000000000000000000000000000000000000000000000000000000000000000000000000000000000000000000000000000000000000000000000000000000000000000000000000000000000000000000000000000000000000000000
310
00000000000000000000000000000000000000000000000000000000000000000000000000000000000000000000000000000000000000000000000000000000000000000000000000000000000000000000000000000000000000000000000000000000000000000000000000000000000000000000000000000000000000
310
00000000000000000000000000000000000000000000000000000000000000000000000000000000000000000000000000000000000000000000000000000000000000000000000000000000000000000000000000000000000000000000000000000000000000000000000000000000000000000000000000000000000000
310
00000000000000000000000000000000000000000000000000000000000000000000000000000000000000000000000000000000000000000000000000000000000000000000000000000000000000000000000000000000000000000000000000000000000000000000000000000000000000000000000000000000000000
310
00000000000000000000000000000000000000000000000000000000000000000000000000000000000000000000000000000000000000000000000000000000000000000000000000000000000000000000000000000000000000000000000000000000000000000000000000000000000000000000000000000000000000
310
00000000000000000000000000000000000000000000000000000000000000000000000000000000000000000000000000000000000000000000000000000000000000000000000000000000000000000000000000000000000000000000000000000000000000000000000000000000000000000000000000000000000000
310
00000000000000000000000000000000000000000000000000000000000000000000000000000000000000000000000000000000000000000000000000000000000000000000000000000000000000000000000000000000000000000000000000000000000000000000000000000000000000000000000000000000000000
310
00000000BEBEBEBEBEBEBEBEBEBEBEBEBEBEBEBEBEBE000000000000000000000000000000000000000000000000000000000000000000000000000000000000000000000000000000000000000000000000000000000000000000000000000000000000000000000000000000000000000000000000000000000000000000
310
00000000000000000000000000000000000000000000000000000000000000000000000000000000000000000000000000000000000000000000000000000000000000000000000000000000000000000000000000000000000000000000000000000000000000000000000000000000000000000000000000000000000000
310
000000000000BEBEBEBEBEBEBEBEBEBEBEBEBEBEBEBEBEBE00000000000000000000000000000000000000000000000000000000000000000000000000000000000000000000000000000000000000000000000000000000000000000000000000000000000000000000000000000000000000000000000000000000000000
310
00000000000000000000000000000000000000000000000000000000000000000000000000000000000000000000000000000000000000000000000000000000000000000000000000000000000000000000000000000000000000000000000000000000000000000000000000000000000000000000000000000000000000
310
0000000000000000BEBEBEBEBEBEBEBEBEBEBEBEBEBEBEBEBEBE0000000000000000000000000000000000000000000000000000000000000000000000000000000000000000000000000000000000000000000000000000000000000000000000000000000000000000000000000000000000000000000000000000000000
310
00000000000000000000000000000000000000000000000000000000000000000000000000000000000000000000000000000000000000000000000000000000000000000000000000000000000000000000000000000000000000000000000000000000000000000000000000000000000000000000000000000000000000
310
00000000000000000000BEBEBEBEBEBEBEBEBEBEBEBEBEBEBEBEBEBE000000000000000000000000000000000000000000000000000000000000000000000000000000000000000000000000000000000000000000000000000000000000000000000000000000000000000000000000000000000000000000000000000000
310
00000000000000000000000000000000000000000000000000000000000000000000000000000000000000000000000000000000000000000000000000000000000000000000000000000000000000000000000000000000000000000000000000000000000000000000000000000000000000000000000000BEBEBEBEBEBE
310
BEBEBEBEBEBEBEBEBEBEBEBEBEBEBEBEBEBEBEBEBEBEBEBEBEBEBEBEBEBE0000000000000000000000000000000000000000000000000000000000000000000000000000000000000000BEBEBEBEBEBEBEBEBEBEBEBEBEBEBEBEBEBEBEBEBEBE00000000000000000000000000000000000000000000000000000000000000
310
000000000000000000000000000000000000000000000000000000000000000000000000000000000000000000000000000000000000000000000000000000000000000000000000000000000000000000000000000000000000000000000000000000000000000000000000000000000000000000000000000000BEBEBEBE
310
BEBEBEBEBEBEBEBEBEBEBEBEBEBEBEBEBEBEBEBEBEBEBEBEBEBEBEBEBEBEBEBE0000000000000000000000000000000000000000000000000000000000000000000000000000000000000000BEBEBEBEBEBEBEBEBEBEBEBEBEBEBEBEBEBEBEBEBEBE0000000000000000000000000000000000000000BEBEBEBEBEBEBEBEBE
310
BEBEBEBEBEBEBEBEBEBEBEBEBEBEBE0000000000000000000000000000000000000000000000000000000000000000000000000000000000000000000000000000000000000000000000000000000000000000000000000000000000000000000000000000000000000000000000000000000000000000000000000000BEBE
310
BEBEBEBEBEBEBEBEBEBEBEBEBEBEBEBEBEBEBEBEBEBEBEBEBEBEBEBEBEBEBEBEBEBE0000000000000000000000000000000000000000000000000000000000000000000000000000000000000000BEBEBEBEBEBEBEBEBEBEBEBEBEBEBEBEBEBEBEBEBEBE0000000000000000000000000000000000000000BEBEBEBEBEBEBE
310
BEBEBEBEBEBEBEBEBEBEBEBEBEBEBEBEBE0000000000000000000000000000000000000000000000000000000000000000000000000000000000000000000000000000000000000000000000000000000000000000000000000000000000000000000000000000000000000000000000000000000000000000000000000000
310
BEBEBEBEBEBEBEBEBEBEBEBEBEBEBEBEBEBEBEBEBEBEBEBEBEBEBEBEBEBEBEBEBEBEBEBE0000000000000000000000000000000000000000000000000000000000000000000000000000000000000000BEBEBEBEBEBEBEBEBEBEBEBEBEBEBEBEBEBEBEBEBEBE0000000000000000000000000000000000000000BEBEBEBEBE
310
BEBEBEBEBEBEBEBEBEBEBEBEBEBEBEBEBEBEBE000000000000000000000000000000000000000000000000000000000000000000000000000000000000000000000000000000000000000000000000000000000000000000000000000000000000000000000000000000000000000000000000000000000000000000000000
310
00000000000000000000000000BEBEBEBEBEBEBEBEBEBEBEBEBEBEBEBEBEBEBEBEBEBEBEBEBE000000000000000000000000000000000000000000000000000000000000000000000000000000000000000000BEBEBEBEBEBEBEBEBEBEBE000000000000000000000000000000000000000000000000000000000000BEBEBE
310
BEBEBEBEBEBEBEBEBEBEBEBEBEBEBEBEBEBEBEBEBE00000000000000000000000000000000000000000000000000000000000000000000000000000000000000000000000000000000000000000000000000000000000000000000000000000000000000000000000000000000000000000000000000000000000000000000
310
000000000000000000000000000000BEBEBEBEBEBEBEBEBEBEBEBEBEBEBEBEBEBEBEBEBEBEBEBEBE000000000000000000000000000000000000000000000000000000000000000000000000000000000000000000BEBEBEBEBEBEBEBEBEBEBE000000000000000000000000000000000000000000000000000000000000BE
310
BEBEBEBEBEBEBEBEBEBEBEBEBEBEBEBEBEBEBEBEBEBEBEBEBEBEBEBEBEBE00000000000000000000000000000000000000000000000000000000000000000000000000000000000000000000000000000000000000000000000000000000000000000000000000000000000000000000000000000000000000000000000000
310
0000000000000000000000000000000000BEBEBEBEBEBEBEBEBEBEBEBEBEBEBEBEBEBEBEBEBEBEBEBEBE0000BEBEBE000000000000000000000000000000000000000000000000000000000000000000000000BEBEBE00BEBEBEBEBEBEBEBEBEBEBE0000000000000000000000000000000000000000000000000000000000
310
00BEBEBEBEBEBEBEBEBEBEBEBEBEBEBEBEBEBEBEBEBEBEBEBEBEBEBEBEBEBEBE0000000000000000000000000000000000000000000000000000000000000000000000000000000000000000000000000000000000000000000000000000000000000000000000000000000000000000000000000000000000000000000000
310
00000000000000000000000000000000000000BEBEBEBEBEBEBEBEBEBEBEBEBEBEBEBEBEBEBEBEBEBEBEBEBE00000000BE000000000000000000000000000000000000000000000000000000000000000000000000BE000000BEBEBEBEBEBEBEBEBEBEBE0000000000000000000000000000000000000000000000000000BE
310
BEBEBEBEBEBEBEBEBEBEBEBEBEBEBEBEBEBEBEBEBEBEBEBEBEBEBEBEBEBEBEBEBEBE000000000000000000000000000000000000000000000000000000000000000000000000000000000000000000000000000000000000000000000000000000000000000000000000000000000000000000000000000000000000000000
310
000000000000000000000000000000000000000000000000000000000000000000000000000000000000000000000000000000BE00000000000000000000000000000000000000000000000000000000000000000000BE00000000000000000000000000000000000000000000000000000000000000000000000000000000
310
00BE000000BEBEBEBEBEBEBEBEBEBEBEBEBEBEBEBEBEBEBEBEBEBEBEBEBEBEBEBEBEBEBE00000000000000000000000000000000000000000000000000000000000000000000000000000000000000000000000000000000000000000000000000000000000000000000000000000000000000000000000000000000000000
310
0000000000000000000000000000000000000000000000000000000000000000000000000000000000000000000000000000000000BE00000000000000000000000000000000000000000000000000000000000000000000BE0000000000000000000000000000000000000000000000000000000000000000000000000000
310
000000BE000000000000000000000000000000000000000000000000000000000000000000000000000000000000000000000000000000000000000000000000000000000000000000000000000000000000000000000000000000000000000000000000000000000000000000000000000000000000000000000000000000
310
00000000000000000000000000000000000000000000000000000000000000000000000000000000000000000000000000000000000000BE00000000000000000000000000000000000000000000000000000000000000000000BE000000000000000000000000000000000000000000000000000000000000000000000000
310
0000000000BE00000000000000000000000000000000000000000000000000000000000000000000000000000000000000000000000000000000000000000000000000000000000000000000000000000000000000000000000000000000000000000000000000000000000000000000000000000000000000000000000000
310
00000000000000000000000000000000000000000000000000000000000000000000000000000000000000000000000000000000000000000000BE0000000000000000000000000000000000000000000000000000000000000000BE0000000000000000000000000000000000000000000000000000000000000000000000
310
00000000000000BE0000000000000000000000000000000000000000000000000000000000000000000000000000000000000000000000000000000000000000000000000000000000000000000000000000000000000000000000000000000000000000000000000000000000000000000000000000000000000000000000
310
000000000000000000000000000000000000000000000000000000000000000000000000000000000000000000000000000000000000000000000000BE00000000000000000000000000000000000000000000000000000000000000BEBE000000000000000000000000000000000000000000000000000000000000000000
310
0000000000000000BE00000000000000000000000000000000000000000000000000000000000000000000000000000000000000000000000000000000000000000000000000000000000000000000000000000000000000000000000000000000000000000000000000000000000000000000000000000000000000000000
310
000000000000000000000000000000EF0000000000000000000000000000000000000000000000000000000000000000000000000000000000000000000000BE000000000000000000000000000000000000000000000000000000000000BEBE00000000000000000000000000000000000000000000000000000000000000
310
00000000000000000000BE0000000000000000000000000000000000000000000000000000000000000000000000000000000000000000000000000000000000000000000000000000000000000000000000000000000000000000000000000000000000000000000000000000000000000000000000000000000000000000
310
0000000000000000000000000000000000EFBEBEBEBEBEB8BEBEBEBEBEBEB8BEBEBEBEBEBEB8BEBEBEBEBEBEB8BEBEBEBEBEBEB8BEBEBEBEBEBEB8BEBEBEBEBEBEBEBEBEBEBEBEBEBEBEBEBEBEBEBEBEBEBEBEBEBEBEBEBEBEBEBEBEBEBEBEBEBEBEBEB8BEBEBEBEBEBEB8BEBEBEBEBEBEB8BEBEBEBEBEBEB8BEBEBEBEBEBE
310
B8BEBEBEBEBEBEB8BEBEBEBEBEBEB8BEBEBEBEBEBEB8BEBEBEBEBEBEBEBEBEBEBEBEBEBEBEB80000000000000000000000000000000000000000000000000000000000000000000000000000000000000000000000000000000000000000000000000000000000000000000000000000000000000000000000000000000000
310
00000000000000000000000000000000000000EF0F0F0F0F0F0F0F0F0F0F0F0F0F0F0F0F0F0F0F0F0F0F0F0F0F0F0F0F0F0F0F0F0F0F0F0F0F0F0F0F0F0F0F0FB80F0F0F0F0F0F0F0FB80F0F0F0F0F0F0F0F0F0F0F0F0F0F0F0F0F0F0F0F0F0F0F0F0F0F0F0F0F0F0F0F0F0F0F0F0F0F0F0F0F0F0F0F0F0F0F0F0F0F0F0F0F
310
0F0F0F0F0F0F0F0F0F0F0F0F0F0F0F0F0F0F0F0F0F0F0F0F0F0F0F0F0F0F0F0F0F0F0F0F0F0F0FB8000000000000000000000000000000000000000000000000000000000000000000000000000000000000000000000000000000000000000000000000000000000000000000000000000000000000000000000000000000
310
000000000000000000000000000000000000000000EF0F0F0F0F0F0F0F0F0F0F0F0F0F0F0F0F0F0F0F0F0F0F0F0F0F0F0F0F0F0F0F0F0F0F0F0F0F0F0F0F0F0F0F0FB80F0F0F0F0F0F0F0FB80F0F0F0F0F0F0F0F0F0F0F0F0F0F0F0F0F0F0F0F0F0F0F0F0F0F0F0F0F0F0F0F0F0F0F0F0F0F0F0F0F0F0F0F0F0F0F0F0F0F0F
310
0F0F0F0F0F0F0F0F0F0F0F0F0F0F0F0F0F0F0F0F0F0F0F0F0F0F0F0F0F0F0F0F0F0F0F0F0F0F0F0F0FB800000000000000000000000000000000000000000000000000000000000000000000000000000000000000000000000000000000000000000000000000000000000000000000000000000000000000000000000000
310
0000000000000000000000000000000000000000000000EF0F0F0F0F0F0F0F0F0F0F0F0F0F0F0F0F0F0F0F0F0F0F0F0F0F0F0F0F0F0F0F0F0F0F0F0F0F0F0F0F0F0F0F0FB80F0F0F0F0F0F0F0FB80F0F0F0F0F0F0F0F0F0F0F0F0F0F0F0F0F0F0F0F0F0F0F0F0F0F0F0F0F0F0F0F0F0F0F0F0F0F0F0F0F0F0F0F0F0F0F0F0F
310
0F0F0F0F0F0F0F0F0F0F0F0F0F0F0F0F0F0F0F0F0F0F0F0F0F0F0F0F0F0F0F0F0F0F0F0F0F0F0F0F0F0F0FB80000000000000000000000000000000000000000000000000000000000000000000000000000000000000000000000000000000000000000000000000000000000000000000000000000000000000000000000
310
00000000000000000000000000000000000000000000000000EF0F0F0F0F0F0F0F0F0F0F0F0F0F0F0F0F0F0F0F0F0F0F0F0F0F0F0F0F0F0F0F0F0F0F0F0F0F0F0F0F0F0F0F0FB80F0F0F0F0F0F0F0FB80F0F0F0F0F0F0F0F0F0F0F0F0F0F0F0F0F0F0F0F0F0F0F0F0F0F0F0F0F0F0F0F0F0F0F0F0F0F0F0F0F0F0F0F0F0F0F
310
0F0F0F0F0F0F0F0F0F0F0F0F0F0F0F0F0F0F0F0F0F0F0F0F0F0F0F0F0F0F0F0F0F0F0F0F0F0F0F0F0F0F0F0F0FB8000000000000000000000000000000000000000000000000000000000000000000000000000000000000000000000000000000000000000000000000000000000000000000000000000000000000000000
310
000000000000000000000000000000000000000000000000000000EF0F0F0F0F0F0F0F0F0F0F0F0F0F0F0F0F0F0F0F0F0F0F0F0F0F0F0F0F0F0F0F0F0F0F0F0F0F0F0F0F0F0F0F0FB8BEBEBE0F0F0F0F0FB80F0F0F0F0F0F0F0F0F0F0F0F0F0F0F0F0F0F0F0F0F0F0F0F0F0F0F0F0F0F0F0F0F0F0F0F0F0F0F0F0F0F0F0F0F
310
0F0F0F0F0F0F0F0F0F0F0F0F0F0F0F0F0F0F0F0FBEBEBE0F0F0F0F0F0F0F0F0F0F0F0F0F0F0F0F0F0F0F0F0F0F0F0FB800000000000000000000000000000000000000000000000000000000000000000000000000000000000000000000000000000000000000000000000000000000000000000000000000000000000000
310
0000000000000000000000000000000000000000000000000000000000EFDCDCDCDCDCDCDCDCDCDCDCDCDCDCDCDCDCDCDCDCDCDCDCDCDCDCDCDCDCDCDCDCDCDCDCDCDCDCDCDCDCDCDCDC2DBEBEBEBE2D2D2D2D2DDCDCDCDCDCDCDCDCDCDCDCDCDCDCDCDCDCDCDCDCDCDCDCDCDCDCDCDCDCDCDCDCDCDCDCDCDCDCDCDCDCDCDC
310
DCDCDCDCDCDCDCDCDCDCDCDCDCDCDCDCDCB8B8B8B8BEBEBEBEB8B8B8B8B8B8B8B8B8B8B8B8B8B8B8B8B8B8B8B8B8B8B8B8B80000000000000000000000000000000000000000000000000000000000000000000000000000000000000000000000000000000000000000000000000000000000000000000000000000000000
310
00000000000000000000000000000000000000000000000000000000000000EFBEBEBEBEBEBEBEBEBEBEBEBEBEBEBEBEBEBEBEBEBEBEBEBEBEBEBEBEBEBEBEBEBEBEEFDCDCDCDCDCDCDCDCDC2DBEBEBE2D2D2DDC2D2DDCDCDCDCDCDCDCDCDCBEBEBEBEBEBEBEBEBEBEBEBEBEBEBEBEBEBEBEBEBEBEBEBEBEBEBEBEBEBEBEBE
310
BEBEBEBEBEBEDCDCDCDCDCDCDCDCDCDCDCDCDCDCDC2D2D2DBEBE2D2D000000000000000000000000000000000000000000000000000000000000000000000000000000000000000000000000000000000000000000000000000000000000000000000000000000000000000000000000000000000000000000000000000000
310
000000000000000000000000000000000000000000000000000000000000000000EFEFBE00BEBE00BE00BEBE00BEBE00BE00BEBE00BE00BEBE00BE00BEBE00BE00BEBE00EFBEBEBEBEBEBEBEBEBEBEBEBEBEBEBEBEBEBEBEBEBEBEBEBEBEBEBEBEEF00BE00BEBE00BE00BEBE00BE00BEBE00BE00BEBE00BEBE00BE00BEBE00
310
BE00BEBE00BE00EF000000BEBEBEBEBEBEBEBEBEBEBEBEBEBEBEBEBE000000000000000000000000000000000000000000000000000000000000000000000000000000000000000000000000000000000000000000000000000000000000000000000000000000000000000000000000000000000000000000000000000000
310
000000000000000000000000000000000000000000000000000000000000000000000000BEEFEFBEBEBEBEBEBEBEBEBEBEBEBEBEBEBEBEBEBEBEBEBEBEBEBEBEBEBEBEBEBEBEEFBE00BE0000000000000000BEBEBE2DBE000000000000000000BE00BEEFBEBEBE00BEBEBEBE00BEBEBEBEBEBEBEBEBEBEBEBEBEBEBEBEBEBE
310
BEBEBEBEBEBEBEBEBEEF000000BE00BE000000000000000000BE2DBEBEBE00000000000000000000000000000000000000000000000000000000000000000000000000000000000000000000000000000000000000000000000000000000000000000000000000000000000000000000000000000000000000000000000000
310
00000000000000000000000000000000000000000000000000000000000000000000000000BEEFEFBEBE00BE00BEBE00BE00BEBE00BE00BEBE00BE00BEBE00BEBE00BE00BEBE00BEEFBE00BE0000000000000000BEBEBE2DBE000000000000000000BE00BEEFBE00BEBE00BE00BEBE00BE00BEBE00BE00BEBE00BE00BEBE00
310
BE00BEBE00BE00BEBE00BEEF000000BE00BE000000000000000000BE2DBEBEBE0000000000000000000000000000000000000000000000000000000000000000000000000000000000000000000000000000000000000000000000000000000000000000000000000000000000000000000000000000000000000000000000
310
0000000000000000000000000000000000000000000000000000000000000000000000000000EFEFBEBE00BEBE00BE00BEBE00BEBE00BE00BEBE00BE00BEBE00BE00BEBE00BE00BEBE00EFBE00BE00000000000000000000BE2DBE000000000000000000BE00BEEF00BE00BEBE00BE00BEBE00BE00BEBE00BE00BEBE00BEBE
310
00BE00BEBE00BE00BEBE00BE00EF000000BE00BE000000000000000000BE2DBE0000000000000000000000000000000000000000000000000000000000000000000000000000000000000000000000000000000000000000000000000000000000000000000000000000000000000000000000000000000000000000000000
310
0000000000000000000000000000000000000000000000000000000000000000000000000000EFEF00BE00BEBEBE00BE00BEBE00BE00BEBE00BE00BEBE00BE00BEBE00BEBE00BE00BEBE00BEEFBEBEBEBEBEBEBEBEBEBEBEDCBEBEBEBEBEBEBEBEBEBEBEBEBEBEBEBEEFBE00BE00BEBE00BE00BEBE00BEBE00BE00BEBE00BE
310
00BEBE00BE00BEBE00BEBEBEBE00BEEF000000BEBEBEBEBEBEBEBEBEBEBEBEBEBEBE000000000000000000000000000000000000000000000000000000000000000000000000000000000000000000000000000000000000000000000000000000000000000000000000000000000000000000000000000000000000000000
310
000000000000000000000000000000000000000000000000000000000000000000000000000000000000EFEFBE00BEBEBEBEBE00BEBEBEBEBEBEBEBEBEBEBEBEBEBEBEBEBEBEBEBEBEBEBEBEBEBEEF0000BE0000000000000000DC002D2D00DC000000BEBE000000BE0000EFBEBE00BEBEBEBE00BEBEBEBE00BEBEBEBE00BE
310
BEBEBEBEBEBEBEBEBEBEBEBE00BEBEBEBEEF0000000000BE00000000BE000000DC002D0000000000000000000000000000000000000000000000000000000000000000000000000000000000000000000000000000000000000000000000000000000000000000000000000000000000000000000000000000000000000000
310
000000000000000000000000000000000000000000000000000000000000000000000000000000000000000000EF00BE00BEBE00BEBE00BE00BEBE00BE00BEBE00BE00BEBE00BE00BE00BEBE00BEBEEFEF0000000000000000000000DC002D2D00DC00000000BE000000000000EFEFBEBE00BE00BEBE00BE00BEBE00BE00BE
310
BE00BE00BEBE00BE00BEBE00BE00BE00BEBE00EF000000000000000000BE00000000DC002D000000000000000000000000000000000000000000000000000000000000000000000000000000000000000000000000000000000000000000000000000000000000000000000000000000000000000000000000000000000000
310
0000000000000000000000000000000000000000000000000000000000000000000000000000000000000000000000EFBE00BE00BEBE00BEBE00BE00BEBE00BE00BEBE00BE00BEBE00BEBE0000BEBEBE00EF000000000000000000000000DC002D2D00DC00000000BE00000000000000EF00BEBE00BE00BEBE00BE00BEBE00
310
BE00BEBE00BE00BEBE00BE00BEBE00BE00BE00BEEFEF000000000000000000BE00000000DC002D00000000000000000000000000000000000000000000000000000000000000000000000000000000000000000000000000000000000000000000000000000000000000000000000000000000000000000000000000000000
310
00000000000000000000000000000000000000000000000000000000000000000000000000000000000000000000000000EFBEBE00BEBE00BE00BEBE00BEBE00BE00BEBE00BE00BEBE00BE00BEBE0000BEBEEFEF000000000000000000000000DCBEBEBEBEDC0000000000BE000000000000EFEF00BEBE00BE00BEBE00BE00
310
BEBE00BE00BEBE00BEBE00BE00BEBE00BE00BEBE0000EF00000000000000000000BE00000000DCBEBEBEBE000000000000000000000000000000000000000000000000000000000000000000000000000000000000000000000000000000000000000000000000000000000000000000000000000000000000000000000000
310
000000000000000000000000000000000000000000000000000000000000000000000000000000000000000000000000000000EF00BEBEBEBEBE00BEBEBEBE00BEBEBEBE00BEBEBEBE00BEBEBEBEBEBEBEBE00BEEF00000000000000000000000000DCBEBEBEBEDC0000000000BE00000000000000EFBEBEBEBE00BEBEBEBE
310
00BEBEBEBE00BEBEBEBE00BEBEBEBE00BEBEBEBE00BEBEEF00000000000000000000BE0000000000BEBE2DBEBE00000000000000000000000000000000000000000000000000000000000000000000000000000000000000000000000000000000000000000000000000000000000000000000000000000000000000000000
310
0000000000000000000000000000000000000000000000000000000000000000000000000000000000000000000000000000000000EFBEBE00BE00BEBE00BE00BEBE00BE00BEBE00BE00BEBE00BE00BEBE00BE00BEEFEFDCDCDCDCDCDCDCDCDCDCDCDCDCDCBE2D2DBEDCDCDCDCDCDCDCDCDCDCDCDCDCDCEFEF00BEBEBE0000
310
BEBEBE00BE00BEBE00BE00BEBE00BE00BEBE00BE00BEBE00BEEFDCDCDCDCDCDCDCDCDCDCDCDCDCDCDCDCBEBE2D2DBE0000000000000000000000000000000000000000000000000000000000000000000000000000000000000000000000000000000000000000000000000000000000000000000000000000000000000000
310
00000000000000000000000000000000000000000000000000000000000000000000000000000000000000000000000000000000000000EF00BEBE00BE00BEBE00BE00BEBE00BE00BEBE00BE00BEBE00BE00BEBE00BE00EFEF00000000000000000000000000DCBE2D2DBEDC0000000000BE00000000000000EFEF00BE00BE
310
BE00BE00BEBE00BE00BEBE00BE00BEBE00BE00BEBE00BE00BEBE00EF00000000000000000000BE0000000000BEBE2D2DBE000000000000000000000000000000000000000000000000000000000000000000000000000000000000000000000000000000000000000000000000000000000000000000000000000000000000
310
000000000000000000000000000000000000000000000000000000000000000000000000000000000000000000000000000000000000000000EFBE00BEBE00BE00BEBE00BE00BEBE00BE00BEBE00BE00BEBE00BEBE00BE00BEBEEFDCDCDCDCDCDCDCDCDCDCDCDCDCDCBE2DBEBEDCDCDCDCDCDCDCDCDCDCDCDCDCDCDCBEBE00
310
BE00BEBE00BE00BEBE00BE00BEBE00BE00BEBE00BE00BEBE00BE00BEBEEFDCDCDCDCDCDCDCDCDCDCDCDCDCDCDCDCDCBE2DBEBE00000000000000000000000000000000000000000000000000000000000000000000000000000000000000000000000000000000000000000000000000000000000000000000000000000000
310
0000000000000000000000000000000000000000000000000000000000000000000000000000000000000000000000000000000000000000000000EFBEBEBEBEBEBEBEBEBEBEBEBEBEBEBEBEBEBEBEBEBEBEBEBEBEBEBEBEBEBEBEBEEF0000000000000000000000000000BEBEBEBE0000BEBE000000BE000000000000BEBE
310
BEBEBEBEBEBEBEBEBEBEBEBEBEBEBEBEBEBEBEBEBEBEBEBEBEBEBEBEBEBEBEBE000000000000000000BE00000000000000BEBEBEBE0000000000000000000000000000000000000000000000000000000000000000000000000000000000000000000000000000000000000000000000000000000000000000000000000000
310
00000000000000000000000000000000000000000000000000000000000000000000000000000000000000000000000000000000000000000000000000EF00000000000000000000000000000000000000BE000000000000000000000000000000000000000000000000000000BEBEBE000000BEBE000000BE000000000000
310
00000000000000000000000000000000000000000000000000000000000000000000000000000000000000BE00000000000000BEBEBE00000000000000000000000000000000000000000000000000000000000000000000000000000000000000000000000000000000000000000000000000000000000000000000000000
310
0000000000000000000000000000000000000000000000000000000000000000000000000000000000000000000000000000000000000000000000000000000000000000000000BEBEBEBEBEBEBE00000000BEBE000000000000BEBEBEBEBEBEBEBEBEBEBEBEBEBE00000000000000BEBEBE000000BEBE00000000BE000000
310
00BEBEBEBEBEBEBE00000000000000000000000000000000000000000000000000000000000000000000000000BE0000000000000000BEBE0000000000000000000000000000000000000000000000000000000000000000000000000000000000000000000000000000000000000000000000000000000000000000000000
310
00000000000000000000000000000000000000000000000000000000000000000000000000000000000000000000000000000000000000000000000000000000000000000000000000BEBEBEBEBEBEBE0000000000BE000000000000BEBEBEBEBEBEBEBEBEBEBEBEBEBE000000000000BE00BEBE00000000BE00000000BE00
310
000000BEBEBEBEBEBEBE000000000000000000000000000000000000000000000000000000000000000000000000BE0000000000000000BEBEBE000000000000000000000000000000000000000000000000000000000000000000000000000000000000000000000000000000000000000000000000000000000000000000
310
000000000000000000000000000000000000000000000000000000000000000000000000000000000000000000000000000000000000000000000000000000000000000000000000000000BEBEBEBEBEBEBE0000000000BE000000000000BEBEBEBEBEBEBEBEBEBEBEBEBEBE000000000000BE00BEBE0000000000BE000000
310
BE00000000BEBEBEBEBEBEBE0000000000000000000000000000000000000000000000BEBEBEBEBEBEBEBE0000000000BE0000000000000000BEBEBE00000000000000000000000000000000000000000000000000000000000000000000000000000000000000000000000000000000000000000000000000000000000000
310
0000000000000000000000000000000000000000000000000000000000000000000000000000000000000000000000000000000000000000000000000000000000000000000000000000000000BEBEBEBEBEBEBE0000000000BE000000000000BEBEBEBEBEBEBEBEBEBEBEBEBEBE0000000000BE0000BEBEBE00000000BE00
310
0000BE00000000000000000000000000000000000000000000000000000000000000000000BEBEBEBEBEBEBEBE0000000000BE0000000000000000BEBEBEBE00000000000000000000000000000000000000000000000000000000000000000000000000000000000000000000000000000000000000000000000000000000
310
000000000000000000000000000000000000000000000000000000000000000000000000000000000000000000000000000000000000000000000000000000000000BEBEBEBEBEBEBEBEBEBEBEBEBEBEBEBEBEBEBEBE00000000BE00000000000000000000000000BEBEBEBEBEBEBEBE0000000000BE0000BEBE0000000000
310
BE00000000BE000000BEBEBEBEBEBEBEBEBE000000000000000000000000000000000000000000BEBEBEBEBEBEBEBE00000000BE00000000000000000000BEBE000000000000000000000000000000000000000000000000000000000000000000000000000000000000000000000000000000000000000000000000000000
310
0000000000000000000000000000000000000000000000000000000000000000000000000000000000000000000000000000000000000000000000000000000000000000BEBEBEBEBEBEBEBEBEBEBEBEBEBEBEBEBEBEBEBE00000000BE00000000000000000000000000BEBEBEBEBEBEBEBE00000000BE000000BEBE000000
310
0000BE00000000BEBEBE00BEBEBEBEBEBEBEBEBE000000000000000000000000000000000000000000BEBEBEBEBEBEBEBE00000000BE00000000000000000000BEBE00000000000000000000000000000000000000000000000000000000000000000000000000000000000000000000000000000000000000000000000000
310
00000000000000000000000000000000000000000000000000000000000000000000000000000000000000000000000000000000000000000000000000000000000000000000BEBEBEBEBEBEBEBEBEBEBEBEBEBEBEBEBEBEBEBE00BEBEBEBE00000000000000000000000000BEBEBEBEBEBEBEBE00BEBEBEBE000000BEBE00
310
00000000BE0000000000000000BEBEBEBEBEBEBEBEBE00000000000000000000000000000000000000BEBEBEBEBEBEBEBEBE0000000000BE00000000000000000000BEBE0000000000000000000000000000000000000000000000000000000000000000000000000000000000000000000000000000000000000000000000
310
000000000000000000000000000000000000000000000000000000000000000000000000000000000000000000000000000000000000000000000000000000000000000000000000BEBEBEBEBEBEBEBEBEBEBEBEBEBEBEBEBEBEBEBE000000000000000000000000000000000000BEBEBEBEBEBEBEBE0000000000000000BE
310
BE0000000000BE000000000000000000000000000000000000000000000000000000000000000000000000BEBEBEBEBEBEBEBEBE00000000BE0000000000000000000000BEBE000000000000000000000000000000000000000000000000000000000000000000000000000000000000000000000000000000000000000000
310
00000000000000000000000000000000000000000000000000000000000000000000000000000000000000000000000000000000000000000000000000000000000000000000000000000000000000000000000000000000000000000000000000000000000000000000000000000000000000000000000000000000000000
310
00BEBE000000000000BE0000000000000000000000000000000000000000000000000000000000000000000000BEBEBEBEBEBEBEBEBE0000BEBEBE0000000000000000000000BEBE00000000000000000000000000000000000000000000000000000000000000000000000000000000000000000000000000000000000000
310
00000000000000000000000000000000000000000000000000000000000000000000000000000000000000000000000000000000000000000000000000000000000000000000000000000000000000000000000000000000000000000000000000000000000000000000000000000000000000000000000000000000000000
310
000000BEBE000000000000BE000000000000000000000000000000000000000000000000000000000000000000000000000000000000000000000000000000000000000000000000BEBE0000000000000000000000000000000000000000000000000000000000000000000000000000000000000000000000000000000000
310
00000000000000000000000000000000000000000000000000000000000000000000000000000000000000000000000000000000000000000000000000000000000000000000000000000000000000000000000000000000000000000000000000000000000000000000000000000000000000000000000000000000000000
310
0000000000BEBE000000000000BE00000000BEBEBEBEBEBEBEBEBEBEBEBEBEBE000000000000000000000000000000000000000000000000000000000000000000000000000000000000BEBE000000000000000000000000000000000000000000000000000000000000000000000000000000000000000000000000000000
310
00000000000000000000000000000000000000000000000000000000000000000000000000000000000000000000000000000000000000000000000000000000000000000000000000000000000000000000000000000000000000000000000000000000000000000000000000000000000000000000000000000000000000
310
00000000000000BEBE000000000000BE00000000BEBEBEBEBEBEBEBEBEBEBEBEBEBE000000000000000000000000000000000000000000000000000000000000000000000000000000000000BEBE00000000000000000000000000000000000000000000000000000000000000000000000000000000000000000000000000
310
000000000000000000000000000000000000000000000000000000000000000000000000000000000000000000000000000000000000000000000000000000000000000000000000000000000000000000000000000000000000000000000000000000000000000000000000000000000000000000000000BEBEBEBEBEBE00
310
0000000000000000BEBEBE000000000000BE00000000BEBEBEBEBEBEBEBEBEBEBEBEBEBE000000000000000000000000000000000000000000000000000000000000000000000000000000000000BEBE0000000000000000000000000000000000000000000000000000000000000000000000000000000000000000000000
310
0000000000000000000000000000000000000000000000000000000000000000000000000000000000000000000000000000000000000000000000000000000000000000000000000000000000000000000000000000000000000000000000000000000000000000000000000000000000000000000000000000BEBEBEBEBE
310
BE0000000000000000BE00BEBE000000000000BE00000000BEBEBEBEBEBEBEBEBEBEBEBEBEBE000000000000000000000000000000000000000000000000000000000000000000000000000000000000BEBE000000000000000000000000000000000000000000000000000000000000000000000000000000000000000000
310
00000000000000000000000000000000000000000000000000000000000000000000000000000000000000000000000000000000000000000000000000000000000000000000000000000000000000000000000000000000000000000000000000000000000000000000000000000000000000000000000000000000BEBEBE
310
BEBEBE0000000000000000BE00BEBE00000000000000BE000000BEBEBEBEBEBEBEBEBEBEBE000000000000000000000000000000000000000000000000000000000000000000000000000000000000000000BEBE00000000000000000000000000000000000000000000000000000000000000000000000000000000000000
310
00000000000000000000000000000000000000000000000000000000000000000000000000000000000000000000000000000000000000000000000000000000000000000000000000000000000000000000BEBEBEBEBEBEBEBEBEBEBEBEBEBEBEBEBEBEBEBEBEBEBEBEBEBEBEBEBEBEBEBEBEBEBEBEBEBEBEBEBEBEBEBEBE
310
BEBEBEBEBE00000000000000BE0000BEBE00000000000000BE000000BEBEBEBEBEBEBEBEBEBEBE000000000000000000000000000000000000000000000000000000000000000000000000000000000000000000BEBE0000000000000000000000000000000000000000000000000000000000000000000000000000000000
310
000000000000000000000000000000000000000000000000000000000000000000000000000000000000000000000000000000000000000000000000000000000000000000000000000000000000000000000000BEBEBEBEBEBEBEBEBEBEBEBEBEBEBEBEBEBEBEBEBEBEBEBEBEBEBEBEBEBEBEBEBEBEBEBEBEBEBEBEBEBEBE
310
BEBEBEBEBEBEBE00000000000000BE0000BEBE00000000000000BEBEBE00BEBEBEBEBEBEBEBEBEBEBE000000000000000000000000000000000000000000000000000000000000000000000000000000000000000000BEBE000000000000000000000000000000000000000000000000000000000000000000000000000000
310
0000000000000000000000000000000000000000000000000000000000000000000000000000000000000000000000000000000000000000000000000000000000000000000000000000000000000000000000000000BEBEBEBEBEBEBEBEBEBEBEBEBEBEBEBEBEBEBEBEBEBEBEBEBEBEBEBEBEBEBEBEBEBEBEBEBEBEBEBEBE
310
BEBEBEBEBEBEBEBEBE000000000000BE000000BEBE0000000000000000000000BEBEBEBEBEBEBEBEBEBEBE000000000000000000000000000000000000000000000000000000000000000000000000000000000000000000BEBE00000000000000000000000000000000000000000000000000000000000000000000000000
310
00000000000000000000000000000000000000000000000000000000000000000000000000000000000000000000000000000000000000000000000000000000000000000000000000000000000000000000000000000000BEBEBEBEBEBEBEBEBEBEBEBEBEBEBEBEBEBEBEBEBEBEBEBEBEBEBEBEBEBEBEBEBEBEBEBEBEBEBE
310
BEBEBEBEBEBEBEBEBEBEBE000000000000BE00000000000000000000000000000000000000000000000000000000000000000000000000000000000000000000000000000000000000000000000000000000000000000000000000000000000000000000000000000000000000000000000000000000000000000000000000
310
000000000000000000000000000000000000000000000000000000000000000000000000000000000000000000000000000000000000000000000000000000000000000000000000000000000000000000000000000000000000000000000000000000000000000000000000000000000000000000BEBEBEBEBEBEBEBEBEBE
310
BEBEBEBEBEBEBEBEBEBEBEBEBE0000000000BE000000000000000000000000000000000000000000000000000000000000000000000000000000000000000000000000000000000000000000000000000000000000000000000000000000000000000000000000000000000000000000000000000000000000000000000000
310
0000000000000000000000000000000000000000000000000000000000000000000000000000000000000000000000000000000000000000000000000000000000000000000000000000000000000000000000000000000000000000000000000000000000000000000000000000000000000000000000BEBEBEBEBEBEBEBE
310
BEBEBEBEBEBEBEBEBEBEBEBEBEBEBE0000000000BE00000000000000000000000000000000000000000000000000000000000000000000000000000000000000000000000000000000000000000000000000000000000000000000000000000000000000000000000000000000000000000000000000000000000000000000
310
00000000000000000000000000000000000000000000000000000000000000000000000000000000000000000000000000000000000000000000000000000000000000000000000000000000000000000000000000000000000000000000000000000000000000000000000000000000000000000000000000BEBEBEBEBEBE
310
BEBEBEBEBEBEBEBEBEBEBEBEBEBEBEBEBE0000BEBEBE000000000000000000000000000000000000000000000000000000000000000000000000000000000000000000000000000000000000000000000000000000000000000000000000000000000000000000000000000000000000000000000000000000000000000000
310
000000000000000000000000000000000000000000000000000000000000000000000000000000000000000000000000000000000000000000000000000000000000000000000000000000000000000000000000000000000000000000000000000000000000000000000000000000000000000000000000000000BEBEBEBE
310
BEBEBEBEBEBEBEBEBEBEBEBEBEBEBEBEBEBEBE000000000000000000000000000000000000000000000000000000000000000000000000000000000000000000000000000000000000000000000000000000000000000000000000000000000000000000000000000000000000000000000000000000000000000000000000
310
00000000000000000000000000000000000000000000000000000000000000000000000000000000000000000000000000000000000000000000000000000000000000000000000000000000000000000000000000000000000000000000000000000000000000000000000000000000000000000000000000000000000000
310
00000000000000000000000000000000000000000000000000000000000000000000000000000000000000000000000000000000000000000000000000000000000000000000000000000000000000000000000000000000000000000000000000000000000000000000000000000000000000000000000000000000000000
310
00000000000000000000000000000000000000000000000000000000000000000000000000000000000000000000000000000000000000000000000000000000000000000000000000000000000000000000000000000000000000000000000000000000000000000000000000000000000000000000000000000000000000
310
00000000000000000000000000000000000000000000000000000000000000000000000000000000000000000000000000000000000000000000000000000000000000000000000000000000000000000000000000000000000000000000000000000000000000000000000000000000000000000000000000000000000000
310
00000000000000000000000000000000000000000000000000000000000000000000000000000000000000000000000000000000000000000000000000000000000000000000000000000000000000000000000000000000000000000000000000000000000000000000000000000000000000000000000000000000000000
310
00000000000000000000000000000000000000000000000000000000000000000000000000000000000000000000000000000000000000000000000000000000000000000000000000000000000000000000000000000000000000000000000000000000000000000000000000000000000000000000000000000000000000
310
00000000000000000000000000000000000000000000000000000000000000000000000000000000000000000000000000000000000000000000000000000000000000000000000000000000000000000000000000000000000000000000000000000000000000000000000000000000000000000000000000000000000000
310
00000000000000000000000000000000000000000000000000000000000000000000000000000000000000000000000000000000000000000000000000000000000000000000000000000000000000000000000000000000000000000000000000000000000000000000000000000000000000000000000000000000000000
310
00000000000000000000000000000000000000000000000000000000000000000000000000000000000000000000000000000000000000000000000000000000000000000000000000000000000000000000000000000000000000000000000000000000000000000000000000000000000000000000000000000000000000
310
00000000000000000000000000000000000000000000000000000000000000000000000000000000000000000000000000000000000000000000000000000000000000000000000000000000000000000000000000000000000000000000000000000000000000000000000000000000000000000000000000000000000000
310
00000000000000000000000000000000000000000000000000000000000000000000000000000000000000000000000000000000000000000000000000000000000000000000000000000000000000000000000000000000000000000000000000000000000000000000000000000000000000000000000000000000000000
310
00000000000000000000000000000000000000000000000000000000000000000000000000000000000000000000000000000000000000000000000000000000000000000000000000000000000000000000000000000000000000000000000000000000000000000000000000000000000000000000000000000000000000
310
00000000000000000000000000000000000000000000000000000000000000000000000000000000000000000000000000000000000000000000000000000000000000000000000000000000000000000000000000000000000000000000000000000000000000000000000000000000000000000000000000000000000000
310
00000000000000000000000000000000000000000000000000000000000000000000000000000000000000000000000000000000000000000000000000000000000000000000000000000000000000000000000000000000000000000000000000000000000000000000000000000000000000000000000000000000000000
310
00000000000000000000000000000000000000000000000000000000000000000000000000000000000000000000000000000000000000000000000000000000000000000000000000000000000000000000000000000000000000000000000000000000000000000000000000000000000000000000000000000000000000
310
00000000000000000000000000000000000000000000000000000000000000000000000000000000000000000000000000000000000000000000000000000000000000000000000000000000000000000000000000000000000000000000000000000000000000000000000000000000000000000000000000000000000000
310
00000000000000000000000000000000000000000000000000000000000000000000000000000000000000000000000000000000000000000000000000000000000000000000000000000000000000000000000000000000000000000000000000000000000000000000000000000000000000000000000000000000000000
310
00000000000000000000000000000000000000000000000000000000000000000000000000000000000000000000000000000000000000000000000000000000000000000000000000000000000000000000000000000000000000000000000000000000000000000000000000000000000000000000000000000000000000
310
00000000000000000000000000000000000000000000000000000000000000000000000000000000000000000000000000000000000000000000000000000000000000000000000000000000000000000000000000000000000000000000000000000000000000000000000000000000000000000000000000000000000000
310
00000000000000000000000000000000000000000000000000000000000000000000000000000000000000000000000000000000000000000000000000000000000000000000000000000000000000000000000000000000000000000000000000000000000000000000000000000000000000000000000000000000000000
310
00000000000000000000000000000000000000000000000000000000000000000000000000000000000000000000000000000000000000000000000000000000000000000000000000000000000000000000000000000000000000000000000000000000000000000000000000000000000000000000000000000000000000
310
00000000000000000000000000000000000000000000000000000000000000000000000000000000000000000000000000000000000000000000000000000000000000000000000000000000000000000000000000000000000000000000000000000000000000000000000000000000000000000000000000000000000000
310
00000000000000000000000000000000000000000000000000000000000000000000000000000000000000000000000000000000000000000000000000000000000000000000000000000000000000000000000000000000000000000000000000000000000000000000000000000000000000000000000000000000000000
310
00000000000000000000000000000000000000000000000000000000000000000000000000000000000000000000000000000000000000000000000000000000000000000000000000000000000000000000000000000000000000000000000000000000000000000000000000000000000000000000000000000000000000
310
0000000000000000000000000000000000000000000000000000000000000000000000000000000000000000000000000000000000000000000000000000000000000000000000000000000000000000000000000000000000000000000000000000000000000000000000000000000000000000000000
  0
XRECORD
  5
35801
102
{ACAD_REACTORS
330
35800
102
}
330
35800
100
AcDbXrecord
280
     1
102
MATERIAL
148
0.0
149
0.0
149
0.0
 93
        0
 94
      127
282
     0
 72
     1
 77
     1
171
     1
175
     1
179
     1
273
     0
  0
XRECORD
  5
357FF
102
{ACAD_REACTORS
330
357FE
102
}
330
357FE
100
AcDbXrecord
280
     1
102
MATERIAL
148
0.0
149
0.0
149
0.0
 93
        0
 94
      127
282
     0
 72
     1
 77
     1
171
     1
175
     1
179
     1
273
     0
  0
XRECORD
  5
35803
102
{ACAD_REACTORS
330
35802
102
}
330
35802
100
AcDbXrecord
280
     1
102
MATERIAL
148
0.0
149
0.0
149
0.0
 93
        0
 94
      127
282
     0
 72
     1
 77
     1
171
     1
175
     1
179
     1
273
     0
  0
XRECORD
  5
35870
102
{ACAD_REACTORS
330
3586F
102
}
330
3586F
100
AcDbXrecord
280
     1
102
SHADEPLOT
 70
     0
102
SHADEPLOTRESLEVEL
 70
     2
102
SHADEPLOTCUSTOMDPI
 70
   300
  0
XRECORD
  5
3586C
102
{ACAD_REACTORS
330
3586B
102
}
330
3586B
100
AcDbXrecord
280
     1
102
SHADEPLOT
 70
     0
102
SHADEPLOTRESLEVEL
 70
     2
102
SHADEPLOTCUSTOMDPI
 70
   300
  0
XRECORD
  5
35872
102
{ACAD_REACTORS
330
35871
102
}
330
35871
100
AcDbXrecord
280
     1
102
SHADEPLOT
 70
     0
102
SHADEPLOTRESLEVEL
 70
     2
102
SHADEPLOTCUSTOMDPI
 70
   300
  0
XRECORD
  5
3586E
102
{ACAD_REACTORS
330
3586D
102
}
330
3586D
100
AcDbXrecord
280
     1
102
SHADEPLOT
 70
     0
102
SHADEPLOTRESLEVEL
 70
     2
102
SHADEPLOTCUSTOMDPI
 70
   300
  0
CELLSTYLEMAP
  5
35849
102
{ACAD_REACTORS
330
357F3
102
}
330
357F3
100
AcDbCellStyleMap
 90
        3
300
CELLSTYLE
  1
TABLEFORMAT_BEGIN
 90
        5
170
     1
 91
        0
 92
    32768
 62
   257
 93
        1
300
CONTENTFORMAT
  1
CONTENTFORMAT_BEGIN
 90
        0
 91
        0
 92
        4
 93
        0
300

 40
0.0
140
1.0
 94
        5
 62
     0
340
13
144
0.25
309
CONTENTFORMAT_END
171
     1
301
MARGIN
  1
CELLMARGIN_BEGIN
 40
0.06
 40
0.06
 40
0.06
 40
0.06
 40
0.18
 40
0.18
309
CELLMARGIN_END
 94
        6
 95
        1
302
GRIDFORMAT
  1
GRIDFORMAT_BEGIN
 90
        0
 91
        1
 62
     0
 92
       -2
340
0
 93
        0
 40
0.045
309
GRIDFORMAT_END
 95
        2
302
GRIDFORMAT
  1
GRIDFORMAT_BEGIN
 90
        0
 91
        1
 62
     0
 92
       -2
340
0
 93
        0
 40
0.045
309
GRIDFORMAT_END
 95
        4
302
GRIDFORMAT
  1
GRIDFORMAT_BEGIN
 90
        0
 91
        1
 62
     0
 92
       -2
340
0
 93
        0
 40
0.045
309
GRIDFORMAT_END
 95
        8
302
GRIDFORMAT
  1
GRIDFORMAT_BEGIN
 90
        0
 91
        1
 62
     0
 92
       -2
340
0
 93
        0
 40
0.045
309
GRIDFORMAT_END
 95
       16
302
GRIDFORMAT
  1
GRIDFORMAT_BEGIN
 90
        0
 91
        1
 62
     0
 92
       -2
340
0
 93
        0
 40
0.045
309
GRIDFORMAT_END
 95
       32
302
GRIDFORMAT
  1
GRIDFORMAT_BEGIN
 90
        0
 91
        1
 62
     0
 92
       -2
340
0
 93
        0
 40
0.045
309
GRIDFORMAT_END
309
TABLEFORMAT_END
  1
CELLSTYLE_BEGIN
 90
        1
 91
        1
300
_TITLE
309
CELLSTYLE_END
300
CELLSTYLE
  1
TABLEFORMAT_BEGIN
 90
        5
170
     1
 91
        0
 92
        0
 62
   257
 93
        1
300
CONTENTFORMAT
  1
CONTENTFORMAT_BEGIN
 90
        0
 91
        0
 92
        4
 93
        0
300

 40
0.0
140
1.0
 94
        5
 62
     0
340
13
144
0.18
309
CONTENTFORMAT_END
171
     1
301
MARGIN
  1
CELLMARGIN_BEGIN
 40
0.06
 40
0.06
 40
0.06
 40
0.06
 40
0.18
 40
0.18
309
CELLMARGIN_END
 94
        6
 95
        1
302
GRIDFORMAT
  1
GRIDFORMAT_BEGIN
 90
        0
 91
        1
 62
     0
 92
       -2
340
0
 93
        0
 40
0.045
309
GRIDFORMAT_END
 95
        2
302
GRIDFORMAT
  1
GRIDFORMAT_BEGIN
 90
        0
 91
        1
 62
     0
 92
       -2
340
0
 93
        0
 40
0.045
309
GRIDFORMAT_END
 95
        4
302
GRIDFORMAT
  1
GRIDFORMAT_BEGIN
 90
        0
 91
        1
 62
     0
 92
       -2
340
0
 93
        0
 40
0.045
309
GRIDFORMAT_END
 95
        8
302
GRIDFORMAT
  1
GRIDFORMAT_BEGIN
 90
        0
 91
        1
 62
     0
 92
       -2
340
0
 93
        0
 40
0.045
309
GRIDFORMAT_END
 95
       16
302
GRIDFORMAT
  1
GRIDFORMAT_BEGIN
 90
        0
 91
        1
 62
     0
 92
       -2
340
0
 93
        0
 40
0.045
309
GRIDFORMAT_END
 95
       32
302
GRIDFORMAT
  1
GRIDFORMAT_BEGIN
 90
        0
 91
        1
 62
     0
 92
       -2
340
0
 93
        0
 40
0.045
309
GRIDFORMAT_END
309
TABLEFORMAT_END
  1
CELLSTYLE_BEGIN
 90
        2
 91
        1
300
_HEADER
309
CELLSTYLE_END
300
CELLSTYLE
  1
TABLEFORMAT_BEGIN
 90
        5
170
     1
 91
        0
 92
        0
 62
   257
 93
        1
300
CONTENTFORMAT
  1
CONTENTFORMAT_BEGIN
 90
        0
 91
        0
 92
        4
 93
        0
300

 40
0.0
140
1.0
 94
        2
 62
     0
340
13
144
0.18
309
CONTENTFORMAT_END
171
     1
301
MARGIN
  1
CELLMARGIN_BEGIN
 40
0.06
 40
0.06
 40
0.06
 40
0.06
 40
0.18
 40
0.18
309
CELLMARGIN_END
 94
        6
 95
        1
302
GRIDFORMAT
  1
GRIDFORMAT_BEGIN
 90
        0
 91
        1
 62
     0
 92
       -2
340
0
 93
        0
 40
0.045
309
GRIDFORMAT_END
 95
        2
302
GRIDFORMAT
  1
GRIDFORMAT_BEGIN
 90
        0
 91
        1
 62
     0
 92
       -2
340
0
 93
        0
 40
0.045
309
GRIDFORMAT_END
 95
        4
302
GRIDFORMAT
  1
GRIDFORMAT_BEGIN
 90
        0
 91
        1
 62
     0
 92
       -2
340
0
 93
        0
 40
0.045
309
GRIDFORMAT_END
 95
        8
302
GRIDFORMAT
  1
GRIDFORMAT_BEGIN
 90
        0
 91
        1
 62
     0
 92
       -2
340
0
 93
        0
 40
0.045
309
GRIDFORMAT_END
 95
       16
302
GRIDFORMAT
  1
GRIDFORMAT_BEGIN
 90
        0
 91
        1
 62
     0
 92
       -2
340
0
 93
        0
 40
0.045
309
GRIDFORMAT_END
 95
       32
302
GRIDFORMAT
  1
GRIDFORMAT_BEGIN
 90
        0
 91
        1
 62
     0
 92
       -2
340
0
 93
        0
 40
0.045
309
GRIDFORMAT_END
309
TABLEFORMAT_END
  1
CELLSTYLE_BEGIN
 90
        3
 91
        2
300
_DATA
309
CELLSTYLE_END
  0
XRECORD
  5
35852
102
{ACAD_REACTORS
330
357F3
102
}
330
357F3
100
AcDbXrecord
280
     1
102
ACAD_ROUNDTRIP_PRE2007_TABLESTYLE
 90
        4
 91
        0
  1

 92
        4
 93
        0
  2

 94
        4
 95
        0
  3

  0
XRECORD
  5
3585E
102
{ACAD_REACTORS
330
3585D
102
}
330
3585D
100
AcDbXrecord
280
     1
102
RTVSPropertyOp0
 70
     1
102
RTVSPropertyOp1
 70
     1
102
RTVSPropertyOp2
 70
     1
102
RTVSPropertyOp3
 70
     1
102
RTVSPropertyOp4
 70
     1
102
RTVSPropertyOp5
 70
     1
102
RTVSPropertyOp6
 70
     1
102
RTVSPropertyOp7
 70
     1
102
RTVSPropertyOp8
 70
     1
102
RTVSPropertyOp9
 70
     1
102
RTVSPropertyOp10
 70
     1
102
RTVSPropertyOp11
 70
     1
102
RTVSPropertyOp12
 70
     1
102
RTVSPropertyOp13
 70
     1
102
RTVSPropertyOp14
 70
     1
102
RTVSPropertyOp15
 70
     1
102
RTVSPropertyOp16
 70
     1
102
RTVSPropertyOp17
 70
     1
102
RTVSPropertyOp18
 70
     1
102
RTVSPropertyOp19
 70
     1
102
RTVSPropertyOp20
 70
     1
102
RTVSPropertyOp21
 70
     1
102
RTVSPropertyOp22
 70
     1
102
RTVSPropertyOp23
 70
     1
102
RTVSPropertyOp24
 70
     1
102
RTVSPropertyOp25
 70
     1
102
RTVSPropertyOp26
 70
     1
102
RTVSPropertyOp27
 70
     1
102
RTVSPropertyOp28
 70
     1
102
RTVSPropertyOp29
 70
     1
102
RTVSPropertyOp30
 70
     1
102
RTVSPropertyOp31
 70
     1
102
RTVSPropertyOp32
 70
     1
  0
XRECORD
  5
35874
102
{ACAD_REACTORS
330
35873
102
}
330
35873
100
AcDbXrecord
280
     1
102
RTVSPropertyOp0
 70
     1
102
RTVSPropertyOp1
 70
     1
102
RTVSPropertyOp2
 70
     1
102
RTVSPropertyOp3
 70
     1
102
RTVSPropertyOp4
 70
     1
102
RTVSPropertyOp5
 70
     1
102
RTVSPropertyOp6
 70
     1
102
RTVSPropertyOp7
 70
     1
102
RTVSPropertyOp8
 70
     1
102
RTVSPropertyOp9
 70
     1
102
RTVSPropertyOp10
 70
     1
102
RTVSPropertyOp11
 70
     1
102
RTVSPropertyOp12
 70
     1
102
RTVSPropertyOp13
 70
     1
102
RTVSPropertyOp14
 70
     1
102
RTVSPropertyOp15
 70
     1
102
RTVSPropertyOp16
 70
     1
102
RTVSPropertyOp17
 70
     1
102
RTVSPropertyOp18
 70
     1
102
RTVSPropertyOp19
 70
     1
102
RTVSPropertyOp20
 70
     1
102
RTVSPropertyOp21
 70
     1
102
RTVSPropertyOp22
 70
     1
102
RTVSPropertyOp23
 70
     1
102
RTVSPropertyOp24
 70
     1
102
RTVSPropertyOp25
 70
     1
102
RTVSPropertyOp26
 70
     1
102
RTVSPropertyOp27
 70
     1
102
RTVSPropertyOp28
 70
     1
102
RTVSPropertyOp29
 70
     1
102
RTVSPropertyOp30
 70
     1
102
RTVSPropertyOp31
 70
     1
102
RTVSPropertyOp32
 70
     1
  0
XRECORD
  5
35876
102
{ACAD_REACTORS
330
35875
102
}
330
35875
100
AcDbXrecord
280
     1
102
RTVSPropertyOp0
 70
     1
102
RTVSPropertyOp1
 70
     1
102
RTVSPropertyOp2
 70
     1
102
RTVSPropertyOp3
 70
     1
102
RTVSPropertyOp4
 70
     1
102
RTVSPropertyOp5
 70
     1
102
RTVSPropertyOp6
 70
     1
102
RTVSPropertyOp7
 70
     1
102
RTVSPropertyOp8
 70
     1
102
RTVSPropertyOp9
 70
     1
102
RTVSPropertyOp10
 70
     1
102
RTVSPropertyOp11
 70
     1
102
RTVSPropertyOp12
 70
     1
102
RTVSPropertyOp13
 70
     1
102
RTVSPropertyOp14
 70
     1
102
RTVSPropertyOp15
 70
     1
102
RTVSPropertyOp16
 70
     1
102
RTVSPropertyOp17
 70
     1
102
RTVSPropertyOp18
 70
     1
102
RTVSPropertyOp19
 70
     1
102
RTVSPropertyOp20
 70
     1
102
RTVSPropertyOp21
 70
     1
102
RTVSPropertyOp22
 70
     1
102
RTVSPropertyOp23
 70
     1
102
RTVSPropertyOp24
 70
     1
102
RTVSPropertyOp25
 70
     1
102
RTVSPropertyOp26
 70
     1
102
RTVSPropertyOp27
 70
     1
102
RTVSPropertyOp28
 70
     1
102
RTVSPropertyOp29
 70
     1
102
RTVSPropertyOp30
 70
     1
102
RTVSPropertyOp31
 70
     1
102
RTVSPropertyOp32
 70
     1
  0
XRECORD
  5
3585C
102
{ACAD_REACTORS
330
3585B
102
}
330
3585B
100
AcDbXrecord
280
     1
102
RTVSPropertyOp0
 70
     1
102
RTVSPropertyOp1
 70
     1
102
RTVSPropertyOp2
 70
     1
102
RTVSPropertyOp3
 70
     1
102
RTVSPropertyOp4
 70
     1
102
RTVSPropertyOp5
 70
     1
102
RTVSPropertyOp6
 70
     1
102
RTVSPropertyOp7
 70
     1
102
RTVSPropertyOp8
 70
     1
102
RTVSPropertyOp9
 70
     1
102
RTVSPropertyOp10
 70
     1
102
RTVSPropertyOp11
 70
     1
102
RTVSPropertyOp12
 70
     1
102
RTVSPropertyOp13
 70
     1
102
RTVSPropertyOp14
 70
     1
102
RTVSPropertyOp15
 70
     1
102
RTVSPropertyOp16
 70
     1
102
RTVSPropertyOp17
 70
     1
102
RTVSPropertyOp18
 70
     1
102
RTVSPropertyOp19
 70
     1
102
RTVSPropertyOp20
 70
     1
102
RTVSPropertyOp21
 70
     1
102
RTVSPropertyOp22
 70
     1
102
RTVSPropertyOp23
 70
     1
102
RTVSPropertyOp24
 70
     1
102
RTVSPropertyOp25
 70
     1
102
RTVSPropertyOp26
 70
     1
102
RTVSPropertyOp27
 70
     1
102
RTVSPropertyOp28
 70
     1
102
RTVSPropertyOp29
 70
     1
102
RTVSPropertyOp30
 70
     1
102
RTVSPropertyOp31
 70
     1
102
RTVSPropertyOp32
 70
     1
  0
XRECORD
  5
35862
102
{ACAD_REACTORS
330
35861
102
}
330
35861
100
AcDbXrecord
280
     1
102
RTVSPropertyOp0
 70
     1
102
RTVSPropertyOp1
 70
     1
102
RTVSPropertyOp2
 70
     1
102
RTVSPropertyOp3
 70
     1
102
RTVSPropertyOp4
 70
     1
102
RTVSPropertyOp5
 70
     1
102
RTVSPropertyOp6
 70
     1
102
RTVSPropertyOp7
 70
     1
102
RTVSPropertyOp8
 70
     1
102
RTVSPropertyOp9
 70
     1
102
RTVSPropertyOp10
 70
     1
102
RTVSPropertyOp11
 70
     1
102
RTVSPropertyOp12
 70
     1
102
RTVSPropertyOp13
 70
     1
102
RTVSPropertyOp14
 70
     1
102
RTVSPropertyOp15
 70
     1
102
RTVSPropertyOp16
 70
     1
102
RTVSPropertyOp17
 70
     1
102
RTVSPropertyOp18
 70
     1
102
RTVSPropertyOp19
 70
     1
102
RTVSPropertyOp20
 70
     1
102
RTVSPropertyOp21
 70
     1
102
RTVSPropertyOp22
 70
     1
102
RTVSPropertyOp23
 70
     1
102
RTVSPropertyOp24
 70
     1
102
RTVSPropertyOp25
 70
     1
102
RTVSPropertyOp26
 70
     1
102
RTVSPropertyOp27
 70
     1
102
RTVSPropertyOp28
 70
     1
102
RTVSPropertyOp29
 70
     1
102
RTVSPropertyOp30
 70
     1
102
RTVSPropertyOp31
 70
     1
102
RTVSPropertyOp32
 70
     1
  0
XRECORD
  5
3586A
102
{ACAD_REACTORS
330
35869
102
}
330
35869
100
AcDbXrecord
280
     1
102
RTVSPropertyOp0
 70
     1
102
RTVSPropertyOp1
 70
     1
102
RTVSPropertyOp2
 70
     1
102
RTVSPropertyOp3
 70
     1
102
RTVSPropertyOp4
 70
     1
102
RTVSPropertyOp5
 70
     1
102
RTVSPropertyOp6
 70
     1
102
RTVSPropertyOp7
 70
     1
102
RTVSPropertyOp8
 70
     1
102
RTVSPropertyOp9
 70
     1
102
RTVSPropertyOp10
 70
     1
102
RTVSPropertyOp11
 70
     1
102
RTVSPropertyOp12
 70
     1
102
RTVSPropertyOp13
 70
     1
102
RTVSPropertyOp14
 70
     1
102
RTVSPropertyOp15
 70
     1
102
RTVSPropertyOp16
 70
     1
102
RTVSPropertyOp17
 70
     1
102
RTVSPropertyOp18
 70
     1
102
RTVSPropertyOp19
 70
     1
102
RTVSPropertyOp20
 70
     1
102
RTVSPropertyOp21
 70
     1
102
RTVSPropertyOp22
 70
     1
102
RTVSPropertyOp23
 70
     1
102
RTVSPropertyOp24
 70
     1
102
RTVSPropertyOp25
 70
     1
102
RTVSPropertyOp26
 70
     1
102
RTVSPropertyOp27
 70
     1
102
RTVSPropertyOp28
 70
     1
102
RTVSPropertyOp29
 70
     1
102
RTVSPropertyOp30
 70
     1
102
RTVSPropertyOp31
 70
     1
102
RTVSPropertyOp32
 70
     1
  0
XRECORD
  5
35878
102
{ACAD_REACTORS
330
35877
102
}
330
35877
100
AcDbXrecord
280
     1
102
RTVSPropertyOp0
 70
     1
102
RTVSPropertyOp1
 70
     1
102
RTVSPropertyOp2
 70
     1
102
RTVSPropertyOp3
 70
     1
102
RTVSPropertyOp4
 70
     1
102
RTVSPropertyOp5
 70
     1
102
RTVSPropertyOp6
 70
     1
102
RTVSPropertyOp7
 70
     1
102
RTVSPropertyOp8
 70
     1
102
RTVSPropertyOp9
 70
     1
102
RTVSPropertyOp10
 70
     1
102
RTVSPropertyOp11
 70
     1
102
RTVSPropertyOp12
 70
     1
102
RTVSPropertyOp13
 70
     1
102
RTVSPropertyOp14
 70
     1
102
RTVSPropertyOp15
 70
     1
102
RTVSPropertyOp16
 70
     1
102
RTVSPropertyOp17
 70
     1
102
RTVSPropertyOp18
 70
     1
102
RTVSPropertyOp19
 70
     1
102
RTVSPropertyOp20
 70
     1
102
RTVSPropertyOp21
 70
     1
102
RTVSPropertyOp22
 70
     1
102
RTVSPropertyOp23
 70
     1
102
RTVSPropertyOp24
 70
     1
102
RTVSPropertyOp25
 70
     1
102
RTVSPropertyOp26
 70
     1
102
RTVSPropertyOp27
 70
     1
102
RTVSPropertyOp28
 70
     1
102
RTVSPropertyOp29
 70
     1
102
RTVSPropertyOp30
 70
     1
102
RTVSPropertyOp31
 70
     1
102
RTVSPropertyOp32
 70
     1
  0
XRECORD
  5
35860
102
{ACAD_REACTORS
330
3585F
102
}
330
3585F
100
AcDbXrecord
280
     1
102
RTVSPropertyOp0
 70
     1
102
RTVSPropertyOp1
 70
     1
102
RTVSPropertyOp2
 70
     1
102
RTVSPropertyOp3
 70
     1
102
RTVSPropertyOp4
 70
     1
102
RTVSPropertyOp5
 70
     1
102
RTVSPropertyOp6
 70
     1
102
RTVSPropertyOp7
 70
     1
102
RTVSPropertyOp8
 70
     1
102
RTVSPropertyOp9
 70
     1
102
RTVSPropertyOp10
 70
     1
102
RTVSPropertyOp11
 70
     1
102
RTVSPropertyOp12
 70
     1
102
RTVSPropertyOp13
 70
     1
102
RTVSPropertyOp14
 70
     1
102
RTVSPropertyOp15
 70
     1
102
RTVSPropertyOp16
 70
     1
102
RTVSPropertyOp17
 70
     1
102
RTVSPropertyOp18
 70
     1
102
RTVSPropertyOp19
 70
     1
102
RTVSPropertyOp20
 70
     1
102
RTVSPropertyOp21
 70
     1
102
RTVSPropertyOp22
 70
     1
102
RTVSPropertyOp23
 70
     1
102
RTVSPropertyOp24
 70
     1
102
RTVSPropertyOp25
 70
     1
102
RTVSPropertyOp26
 70
     1
102
RTVSPropertyOp27
 70
     1
102
RTVSPropertyOp28
 70
     1
102
RTVSPropertyOp29
 70
     1
102
RTVSPropertyOp30
 70
     1
102
RTVSPropertyOp31
 70
     1
102
RTVSPropertyOp32
 70
     1
  0
XRECORD
  5
3588E
102
{ACAD_REACTORS
330
3588D
102
}
330
3588D
100
AcDbXrecord
280
     1
102
RTVSPropertyOp0
 70
     0
102
RTVSPropertyOp1
 70
     0
102
RTVSPropertyOp2
 70
     0
102
RTVSPropertyOp3
 70
     0
102
RTVSPropertyOp4
 70
     0
102
RTVSPropertyOp5
 70
     0
102
RTVSPropertyOp6
 70
     0
102
RTVSPropertyOp7
 70
     0
102
RTVSPropertyOp8
 70
     0
102
RTVSPropertyOp9
 70
     0
102
RTVSPropertyOp10
 70
     0
102
RTVSPropertyOp11
 70
     0
102
RTVSPropertyOp12
 70
     0
102
RTVSPropertyOp13
 70
     0
102
RTVSPropertyOp14
 70
     2
102
RTVSPropertyOp15
 70
     0
102
RTVSPropertyOp16
 70
     0
102
RTVSPropertyOp17
 70
     0
102
RTVSPropertyOp18
 70
     0
102
RTVSPropertyOp19
 70
     0
102
RTVSPropertyOp20
 70
     0
102
RTVSPropertyOp21
 70
     0
102
RTVSPropertyOp22
 70
     0
102
RTVSPropertyOp23
 70
     0
102
RTVSPropertyOp24
 70
     0
102
RTVSPropertyOp25
 70
     0
102
RTVSPropertyOp26
 70
     0
102
RTVSPropertyOp27
 70
     0
102
RTVSPropertyOp28
 70
     1
102
RTVSPropertyOp29
 70
     1
102
RTVSPropertyOp30
 70
     1
102
RTVSPropertyOp31
 70
     1
102
RTVSPropertyOp32
 70
     1
  0
XRECORD
  5
35868
102
{ACAD_REACTORS
330
35867
102
}
330
35867
100
AcDbXrecord
280
     1
102
RTVSPropertyOp0
 70
     1
102
RTVSPropertyOp1
 70
     1
102
RTVSPropertyOp2
 70
     1
102
RTVSPropertyOp3
 70
     1
102
RTVSPropertyOp4
 70
     1
102
RTVSPropertyOp5
 70
     1
102
RTVSPropertyOp6
 70
     1
102
RTVSPropertyOp7
 70
     1
102
RTVSPropertyOp8
 70
     1
102
RTVSPropertyOp9
 70
     1
102
RTVSPropertyOp10
 70
     1
102
RTVSPropertyOp11
 70
     1
102
RTVSPropertyOp12
 70
     1
102
RTVSPropertyOp13
 70
     1
102
RTVSPropertyOp14
 70
     1
102
RTVSPropertyOp15
 70
     1
102
RTVSPropertyOp16
 70
     1
102
RTVSPropertyOp17
 70
     1
102
RTVSPropertyOp18
 70
     1
102
RTVSPropertyOp19
 70
     1
102
RTVSPropertyOp20
 70
     1
102
RTVSPropertyOp21
 70
     1
102
RTVSPropertyOp22
 70
     1
102
RTVSPropertyOp23
 70
     1
102
RTVSPropertyOp24
 70
     1
102
RTVSPropertyOp25
 70
     1
102
RTVSPropertyOp26
 70
     1
102
RTVSPropertyOp27
 70
     1
102
RTVSPropertyOp28
 70
     1
102
RTVSPropertyOp29
 70
     1
102
RTVSPropertyOp30
 70
     1
102
RTVSPropertyOp31
 70
     1
102
RTVSPropertyOp32
 70
     1
  0
XRECORD
  5
35854
102
{ACAD_REACTORS
330
35853
102
}
330
35853
100
AcDbXrecord
280
     1
102
RTVSPropertyOp0
 70
     1
102
RTVSPropertyOp1
 70
     1
102
RTVSPropertyOp2
 70
     1
102
RTVSPropertyOp3
 70
     1
102
RTVSPropertyOp4
 70
     1
102
RTVSPropertyOp5
 70
     1
102
RTVSPropertyOp6
 70
     1
102
RTVSPropertyOp7
 70
     1
102
RTVSPropertyOp8
 70
     1
102
RTVSPropertyOp9
 70
     1
102
RTVSPropertyOp10
 70
     1
102
RTVSPropertyOp11
 70
     1
102
RTVSPropertyOp12
 70
     1
102
RTVSPropertyOp13
 70
     1
102
RTVSPropertyOp14
 70
     1
102
RTVSPropertyOp15
 70
     1
102
RTVSPropertyOp16
 70
     1
102
RTVSPropertyOp17
 70
     1
102
RTVSPropertyOp18
 70
     1
102
RTVSPropertyOp19
 70
     1
102
RTVSPropertyOp20
 70
     1
102
RTVSPropertyOp21
 70
     1
102
RTVSPropertyOp22
 70
     1
102
RTVSPropertyOp23
 70
     1
102
RTVSPropertyOp24
 70
     1
102
RTVSPropertyOp25
 70
     1
102
RTVSPropertyOp26
 70
     1
102
RTVSPropertyOp27
 70
     1
102
RTVSPropertyOp28
 70
     1
102
RTVSPropertyOp29
 70
     1
102
RTVSPropertyOp30
 70
     1
102
RTVSPropertyOp31
 70
     1
102
RTVSPropertyOp32
 70
     1
  0
XRECORD
  5
35856
102
{ACAD_REACTORS
330
35855
102
}
330
35855
100
AcDbXrecord
280
     1
102
RTVSPropertyOp0
 70
     1
102
RTVSPropertyOp1
 70
     1
102
RTVSPropertyOp2
 70
     1
102
RTVSPropertyOp3
 70
     1
102
RTVSPropertyOp4
 70
     1
102
RTVSPropertyOp5
 70
     1
102
RTVSPropertyOp6
 70
     1
102
RTVSPropertyOp7
 70
     1
102
RTVSPropertyOp8
 70
     1
102
RTVSPropertyOp9
 70
     1
102
RTVSPropertyOp10
 70
     1
102
RTVSPropertyOp11
 70
     1
102
RTVSPropertyOp12
 70
     1
102
RTVSPropertyOp13
 70
     1
102
RTVSPropertyOp14
 70
     1
102
RTVSPropertyOp15
 70
     1
102
RTVSPropertyOp16
 70
     1
102
RTVSPropertyOp17
 70
     1
102
RTVSPropertyOp18
 70
     1
102
RTVSPropertyOp19
 70
     1
102
RTVSPropertyOp20
 70
     1
102
RTVSPropertyOp21
 70
     1
102
RTVSPropertyOp22
 70
     1
102
RTVSPropertyOp23
 70
     1
102
RTVSPropertyOp24
 70
     1
102
RTVSPropertyOp25
 70
     1
102
RTVSPropertyOp26
 70
     1
102
RTVSPropertyOp27
 70
     1
102
RTVSPropertyOp28
 70
     1
102
RTVSPropertyOp29
 70
     1
102
RTVSPropertyOp30
 70
     1
102
RTVSPropertyOp31
 70
     1
102
RTVSPropertyOp32
 70
     1
  0
XRECORD
  5
35858
102
{ACAD_REACTORS
330
35857
102
}
330
35857
100
AcDbXrecord
280
     1
102
RTVSPropertyOp0
 70
     1
102
RTVSPropertyOp1
 70
     1
102
RTVSPropertyOp2
 70
     1
102
RTVSPropertyOp3
 70
     1
102
RTVSPropertyOp4
 70
     1
102
RTVSPropertyOp5
 70
     1
102
RTVSPropertyOp6
 70
     1
102
RTVSPropertyOp7
 70
     1
102
RTVSPropertyOp8
 70
     1
102
RTVSPropertyOp9
 70
     1
102
RTVSPropertyOp10
 70
     1
102
RTVSPropertyOp11
 70
     1
102
RTVSPropertyOp12
 70
     1
102
RTVSPropertyOp13
 70
     1
102
RTVSPropertyOp14
 70
     1
102
RTVSPropertyOp15
 70
     1
102
RTVSPropertyOp16
 70
     1
102
RTVSPropertyOp17
 70
     1
102
RTVSPropertyOp18
 70
     1
102
RTVSPropertyOp19
 70
     1
102
RTVSPropertyOp20
 70
     1
102
RTVSPropertyOp21
 70
     1
102
RTVSPropertyOp22
 70
     1
102
RTVSPropertyOp23
 70
     1
102
RTVSPropertyOp24
 70
     1
102
RTVSPropertyOp25
 70
     1
102
RTVSPropertyOp26
 70
     1
102
RTVSPropertyOp27
 70
     1
102
RTVSPropertyOp28
 70
     1
102
RTVSPropertyOp29
 70
     1
102
RTVSPropertyOp30
 70
     1
102
RTVSPropertyOp31
 70
     1
102
RTVSPropertyOp32
 70
     1
  0
XRECORD
  5
3585A
102
{ACAD_REACTORS
330
35859
102
}
330
35859
100
AcDbXrecord
280
     1
102
RTVSPropertyOp0
 70
     1
102
RTVSPropertyOp1
 70
     1
102
RTVSPropertyOp2
 70
     1
102
RTVSPropertyOp3
 70
     1
102
RTVSPropertyOp4
 70
     1
102
RTVSPropertyOp5
 70
     1
102
RTVSPropertyOp6
 70
     1
102
RTVSPropertyOp7
 70
     1
102
RTVSPropertyOp8
 70
     1
102
RTVSPropertyOp9
 70
     1
102
RTVSPropertyOp10
 70
     1
102
RTVSPropertyOp11
 70
     1
102
RTVSPropertyOp12
 70
     1
102
RTVSPropertyOp13
 70
     1
102
RTVSPropertyOp14
 70
     1
102
RTVSPropertyOp15
 70
     1
102
RTVSPropertyOp16
 70
     1
102
RTVSPropertyOp17
 70
     1
102
RTVSPropertyOp18
 70
     1
102
RTVSPropertyOp19
 70
     1
102
RTVSPropertyOp20
 70
     1
102
RTVSPropertyOp21
 70
     1
102
RTVSPropertyOp22
 70
     1
102
RTVSPropertyOp23
 70
     1
102
RTVSPropertyOp24
 70
     1
102
RTVSPropertyOp25
 70
     1
102
RTVSPropertyOp26
 70
     1
102
RTVSPropertyOp27
 70
     1
102
RTVSPropertyOp28
 70
     1
102
RTVSPropertyOp29
 70
     1
102
RTVSPropertyOp30
 70
     1
102
RTVSPropertyOp31
 70
     1
102
RTVSPropertyOp32
 70
     1
  0
XRECORD
  5
3587E
102
{ACAD_REACTORS
330
3587D
102
}
330
3587D
100
AcDbXrecord
280
     1
102
RTVSPropertyOp0
 70
     1
102
RTVSPropertyOp1
 70
     1
102
RTVSPropertyOp2
 70
     1
102
RTVSPropertyOp3
 70
     1
102
RTVSPropertyOp4
 70
     1
102
RTVSPropertyOp5
 70
     1
102
RTVSPropertyOp6
 70
     1
102
RTVSPropertyOp7
 70
     1
102
RTVSPropertyOp8
 70
     1
102
RTVSPropertyOp9
 70
     1
102
RTVSPropertyOp10
 70
     1
102
RTVSPropertyOp11
 70
     1
102
RTVSPropertyOp12
 70
     1
102
RTVSPropertyOp13
 70
     1
102
RTVSPropertyOp14
 70
     1
102
RTVSPropertyOp15
 70
     1
102
RTVSPropertyOp16
 70
     1
102
RTVSPropertyOp17
 70
     1
102
RTVSPropertyOp18
 70
     1
102
RTVSPropertyOp19
 70
     1
102
RTVSPropertyOp20
 70
     1
102
RTVSPropertyOp21
 70
     1
102
RTVSPropertyOp22
 70
     1
102
RTVSPropertyOp23
 70
     1
102
RTVSPropertyOp24
 70
     1
102
RTVSPropertyOp25
 70
     1
102
RTVSPropertyOp26
 70
     1
102
RTVSPropertyOp27
 70
     1
102
RTVSPropertyOp28
 70
     1
102
RTVSPropertyOp29
 70
     1
102
RTVSPropertyOp30
 70
     1
102
RTVSPropertyOp31
 70
     1
102
RTVSPropertyOp32
 70
     1
  0
XRECORD
  5
3588A
102
{ACAD_REACTORS
330
35889
102
}
330
35889
100
AcDbXrecord
280
     1
102
RTVSPropertyOp0
 70
     0
102
RTVSPropertyOp1
 70
     0
102
RTVSPropertyOp2
 70
     0
102
RTVSPropertyOp3
 70
     0
102
RTVSPropertyOp4
 70
     0
102
RTVSPropertyOp5
 70
     0
102
RTVSPropertyOp6
 70
     0
102
RTVSPropertyOp7
 70
     0
102
RTVSPropertyOp8
 70
     0
102
RTVSPropertyOp9
 70
     0
102
RTVSPropertyOp10
 70
     0
102
RTVSPropertyOp11
 70
     0
102
RTVSPropertyOp12
 70
     0
102
RTVSPropertyOp13
 70
     0
102
RTVSPropertyOp14
 70
     2
102
RTVSPropertyOp15
 70
     0
102
RTVSPropertyOp16
 70
     0
102
RTVSPropertyOp17
 70
     0
102
RTVSPropertyOp18
 70
     0
102
RTVSPropertyOp19
 70
     0
102
RTVSPropertyOp20
 70
     0
102
RTVSPropertyOp21
 70
     0
102
RTVSPropertyOp22
 70
     0
102
RTVSPropertyOp23
 70
     0
102
RTVSPropertyOp24
 70
     0
102
RTVSPropertyOp25
 70
     0
102
RTVSPropertyOp26
 70
     0
102
RTVSPropertyOp27
 70
     0
102
RTVSPropertyOp28
 70
     1
102
RTVSPropertyOp29
 70
     1
102
RTVSPropertyOp30
 70
     1
102
RTVSPropertyOp31
 70
     1
102
RTVSPropertyOp32
 70
     1
  0
XRECORD
  5
35866
102
{ACAD_REACTORS
330
35865
102
}
330
35865
100
AcDbXrecord
280
     1
102
RTVSPropertyOp0
 70
     1
102
RTVSPropertyOp1
 70
     1
102
RTVSPropertyOp2
 70
     1
102
RTVSPropertyOp3
 70
     1
102
RTVSPropertyOp4
 70
     1
102
RTVSPropertyOp5
 70
     1
102
RTVSPropertyOp6
 70
     1
102
RTVSPropertyOp7
 70
     1
102
RTVSPropertyOp8
 70
     1
102
RTVSPropertyOp9
 70
     1
102
RTVSPropertyOp10
 70
     1
102
RTVSPropertyOp11
 70
     1
102
RTVSPropertyOp12
 70
     1
102
RTVSPropertyOp13
 70
     1
102
RTVSPropertyOp14
 70
     1
102
RTVSPropertyOp15
 70
     1
102
RTVSPropertyOp16
 70
     1
102
RTVSPropertyOp17
 70
     1
102
RTVSPropertyOp18
 70
     1
102
RTVSPropertyOp19
 70
     1
102
RTVSPropertyOp20
 70
     1
102
RTVSPropertyOp21
 70
     1
102
RTVSPropertyOp22
 70
     1
102
RTVSPropertyOp23
 70
     1
102
RTVSPropertyOp24
 70
     1
102
RTVSPropertyOp25
 70
     1
102
RTVSPropertyOp26
 70
     1
102
RTVSPropertyOp27
 70
     1
102
RTVSPropertyOp28
 70
     1
102
RTVSPropertyOp29
 70
     1
102
RTVSPropertyOp30
 70
     1
102
RTVSPropertyOp31
 70
     1
102
RTVSPropertyOp32
 70
     1
  0
XRECORD
  5
3588C
102
{ACAD_REACTORS
330
3588B
102
}
330
3588B
100
AcDbXrecord
280
     1
102
RTVSPropertyOp0
 70
     0
102
RTVSPropertyOp1
 70
     0
102
RTVSPropertyOp2
 70
     0
102
RTVSPropertyOp3
 70
     0
102
RTVSPropertyOp4
 70
     0
102
RTVSPropertyOp5
 70
     0
102
RTVSPropertyOp6
 70
     0
102
RTVSPropertyOp7
 70
     0
102
RTVSPropertyOp8
 70
     0
102
RTVSPropertyOp9
 70
     0
102
RTVSPropertyOp10
 70
     0
102
RTVSPropertyOp11
 70
     0
102
RTVSPropertyOp12
 70
     0
102
RTVSPropertyOp13
 70
     0
102
RTVSPropertyOp14
 70
     2
102
RTVSPropertyOp15
 70
     0
102
RTVSPropertyOp16
 70
     0
102
RTVSPropertyOp17
 70
     0
102
RTVSPropertyOp18
 70
     0
102
RTVSPropertyOp19
 70
     0
102
RTVSPropertyOp20
 70
     0
102
RTVSPropertyOp21
 70
     0
102
RTVSPropertyOp22
 70
     0
102
RTVSPropertyOp23
 70
     0
102
RTVSPropertyOp24
 70
     0
102
RTVSPropertyOp25
 70
     0
102
RTVSPropertyOp26
 70
     0
102
RTVSPropertyOp27
 70
     0
102
RTVSPropertyOp28
 70
     1
102
RTVSPropertyOp29
 70
     1
102
RTVSPropertyOp30
 70
     1
102
RTVSPropertyOp31
 70
     1
102
RTVSPropertyOp32
 70
     1
  0
XRECORD
  5
3587A
102
{ACAD_REACTORS
330
35879
102
}
330
35879
100
AcDbXrecord
280
     1
102
RTVSPropertyOp0
 70
     1
102
RTVSPropertyOp1
 70
     1
102
RTVSPropertyOp2
 70
     1
102
RTVSPropertyOp3
 70
     1
102
RTVSPropertyOp4
 70
     1
102
RTVSPropertyOp5
 70
     1
102
RTVSPropertyOp6
 70
     1
102
RTVSPropertyOp7
 70
     1
102
RTVSPropertyOp8
 70
     1
102
RTVSPropertyOp9
 70
     1
102
RTVSPropertyOp10
 70
     1
102
RTVSPropertyOp11
 70
     1
102
RTVSPropertyOp12
 70
     1
102
RTVSPropertyOp13
 70
     1
102
RTVSPropertyOp14
 70
     1
102
RTVSPropertyOp15
 70
     1
102
RTVSPropertyOp16
 70
     1
102
RTVSPropertyOp17
 70
     1
102
RTVSPropertyOp18
 70
     1
102
RTVSPropertyOp19
 70
     1
102
RTVSPropertyOp20
 70
     1
102
RTVSPropertyOp21
 70
     1
102
RTVSPropertyOp22
 70
     1
102
RTVSPropertyOp23
 70
     1
102
RTVSPropertyOp24
 70
     1
102
RTVSPropertyOp25
 70
     1
102
RTVSPropertyOp26
 70
     1
102
RTVSPropertyOp27
 70
     1
102
RTVSPropertyOp28
 70
     1
102
RTVSPropertyOp29
 70
     1
102
RTVSPropertyOp30
 70
     1
102
RTVSPropertyOp31
 70
     1
102
RTVSPropertyOp32
 70
     1
  0
XRECORD
  5
35888
102
{ACAD_REACTORS
330
35887
102
}
330
35887
100
AcDbXrecord
280
     1
102
RTVSPropertyOp0
 70
     1
102
RTVSPropertyOp1
 70
     1
102
RTVSPropertyOp2
 70
     1
102
RTVSPropertyOp3
 70
     1
102
RTVSPropertyOp4
 70
     1
102
RTVSPropertyOp5
 70
     1
102
RTVSPropertyOp6
 70
     1
102
RTVSPropertyOp7
 70
     1
102
RTVSPropertyOp8
 70
     1
102
RTVSPropertyOp9
 70
     1
102
RTVSPropertyOp10
 70
     1
102
RTVSPropertyOp11
 70
     1
102
RTVSPropertyOp12
 70
     1
102
RTVSPropertyOp13
 70
     1
102
RTVSPropertyOp14
 70
     1
102
RTVSPropertyOp15
 70
     1
102
RTVSPropertyOp16
 70
     1
102
RTVSPropertyOp17
 70
     1
102
RTVSPropertyOp18
 70
     1
102
RTVSPropertyOp19
 70
     1
102
RTVSPropertyOp20
 70
     1
102
RTVSPropertyOp21
 70
     1
102
RTVSPropertyOp22
 70
     1
102
RTVSPropertyOp23
 70
     1
102
RTVSPropertyOp24
 70
     1
102
RTVSPropertyOp25
 70
     1
102
RTVSPropertyOp26
 70
     1
102
RTVSPropertyOp27
 70
     1
102
RTVSPropertyOp28
 70
     1
102
RTVSPropertyOp29
 70
     1
102
RTVSPropertyOp30
 70
     1
102
RTVSPropertyOp31
 70
     1
102
RTVSPropertyOp32
 70
     1
  0
XRECORD
  5
35886
102
{ACAD_REACTORS
330
35885
102
}
330
35885
100
AcDbXrecord
280
     1
102
RTVSPropertyOp0
 70
     1
102
RTVSPropertyOp1
 70
     1
102
RTVSPropertyOp2
 70
     1
102
RTVSPropertyOp3
 70
     1
102
RTVSPropertyOp4
 70
     1
102
RTVSPropertyOp5
 70
     1
102
RTVSPropertyOp6
 70
     1
102
RTVSPropertyOp7
 70
     1
102
RTVSPropertyOp8
 70
     1
102
RTVSPropertyOp9
 70
     1
102
RTVSPropertyOp10
 70
     1
102
RTVSPropertyOp11
 70
     1
102
RTVSPropertyOp12
 70
     1
102
RTVSPropertyOp13
 70
     1
102
RTVSPropertyOp14
 70
     1
102
RTVSPropertyOp15
 70
     1
102
RTVSPropertyOp16
 70
     1
102
RTVSPropertyOp17
 70
     1
102
RTVSPropertyOp18
 70
     1
102
RTVSPropertyOp19
 70
     1
102
RTVSPropertyOp20
 70
     1
102
RTVSPropertyOp21
 70
     1
102
RTVSPropertyOp22
 70
     1
102
RTVSPropertyOp23
 70
     1
102
RTVSPropertyOp24
 70
     1
102
RTVSPropertyOp25
 70
     1
102
RTVSPropertyOp26
 70
     1
102
RTVSPropertyOp27
 70
     1
102
RTVSPropertyOp28
 70
     1
102
RTVSPropertyOp29
 70
     1
102
RTVSPropertyOp30
 70
     1
102
RTVSPropertyOp31
 70
     1
102
RTVSPropertyOp32
 70
     1
  0
XRECORD
  5
35880
102
{ACAD_REACTORS
330
3587F
102
}
330
3587F
100
AcDbXrecord
280
     1
102
RTVSPropertyOp0
 70
     1
102
RTVSPropertyOp1
 70
     1
102
RTVSPropertyOp2
 70
     1
102
RTVSPropertyOp3
 70
     1
102
RTVSPropertyOp4
 70
     1
102
RTVSPropertyOp5
 70
     1
102
RTVSPropertyOp6
 70
     1
102
RTVSPropertyOp7
 70
     1
102
RTVSPropertyOp8
 70
     1
102
RTVSPropertyOp9
 70
     1
102
RTVSPropertyOp10
 70
     1
102
RTVSPropertyOp11
 70
     1
102
RTVSPropertyOp12
 70
     1
102
RTVSPropertyOp13
 70
     1
102
RTVSPropertyOp14
 70
     1
102
RTVSPropertyOp15
 70
     1
102
RTVSPropertyOp16
 70
     1
102
RTVSPropertyOp17
 70
     1
102
RTVSPropertyOp18
 70
     1
102
RTVSPropertyOp19
 70
     1
102
RTVSPropertyOp20
 70
     1
102
RTVSPropertyOp21
 70
     1
102
RTVSPropertyOp22
 70
     1
102
RTVSPropertyOp23
 70
     1
102
RTVSPropertyOp24
 70
     1
102
RTVSPropertyOp25
 70
     1
102
RTVSPropertyOp26
 70
     1
102
RTVSPropertyOp27
 70
     1
102
RTVSPropertyOp28
 70
     1
102
RTVSPropertyOp29
 70
     1
102
RTVSPropertyOp30
 70
     1
102
RTVSPropertyOp31
 70
     1
102
RTVSPropertyOp32
 70
     1
  0
XRECORD
  5
35882
102
{ACAD_REACTORS
330
35881
102
}
330
35881
100
AcDbXrecord
280
     1
102
RTVSPropertyOp0
 70
     1
102
RTVSPropertyOp1
 70
     1
102
RTVSPropertyOp2
 70
     1
102
RTVSPropertyOp3
 70
     1
102
RTVSPropertyOp4
 70
     1
102
RTVSPropertyOp5
 70
     1
102
RTVSPropertyOp6
 70
     1
102
RTVSPropertyOp7
 70
     1
102
RTVSPropertyOp8
 70
     1
102
RTVSPropertyOp9
 70
     1
102
RTVSPropertyOp10
 70
     1
102
RTVSPropertyOp11
 70
     1
102
RTVSPropertyOp12
 70
     1
102
RTVSPropertyOp13
 70
     1
102
RTVSPropertyOp14
 70
     1
102
RTVSPropertyOp15
 70
     1
102
RTVSPropertyOp16
 70
     1
102
RTVSPropertyOp17
 70
     1
102
RTVSPropertyOp18
 70
     1
102
RTVSPropertyOp19
 70
     1
102
RTVSPropertyOp20
 70
     1
102
RTVSPropertyOp21
 70
     1
102
RTVSPropertyOp22
 70
     1
102
RTVSPropertyOp23
 70
     1
102
RTVSPropertyOp24
 70
     1
102
RTVSPropertyOp25
 70
     1
102
RTVSPropertyOp26
 70
     1
102
RTVSPropertyOp27
 70
     1
102
RTVSPropertyOp28
 70
     1
102
RTVSPropertyOp29
 70
     1
102
RTVSPropertyOp30
 70
     1
102
RTVSPropertyOp31
 70
     1
102
RTVSPropertyOp32
 70
     1
  0
XRECORD
  5
35864
102
{ACAD_REACTORS
330
35863
102
}
330
35863
100
AcDbXrecord
280
     1
102
RTVSPropertyOp0
 70
     1
102
RTVSPropertyOp1
 70
     1
102
RTVSPropertyOp2
 70
     1
102
RTVSPropertyOp3
 70
     1
102
RTVSPropertyOp4
 70
     1
102
RTVSPropertyOp5
 70
     1
102
RTVSPropertyOp6
 70
     1
102
RTVSPropertyOp7
 70
     1
102
RTVSPropertyOp8
 70
     1
102
RTVSPropertyOp9
 70
     1
102
RTVSPropertyOp10
 70
     1
102
RTVSPropertyOp11
 70
     1
102
RTVSPropertyOp12
 70
     1
102
RTVSPropertyOp13
 70
     1
102
RTVSPropertyOp14
 70
     1
102
RTVSPropertyOp15
 70
     1
102
RTVSPropertyOp16
 70
     1
102
RTVSPropertyOp17
 70
     1
102
RTVSPropertyOp18
 70
     1
102
RTVSPropertyOp19
 70
     1
102
RTVSPropertyOp20
 70
     1
102
RTVSPropertyOp21
 70
     1
102
RTVSPropertyOp22
 70
     1
102
RTVSPropertyOp23
 70
     1
102
RTVSPropertyOp24
 70
     1
102
RTVSPropertyOp25
 70
     1
102
RTVSPropertyOp26
 70
     1
102
RTVSPropertyOp27
 70
     1
102
RTVSPropertyOp28
 70
     1
102
RTVSPropertyOp29
 70
     1
102
RTVSPropertyOp30
 70
     1
102
RTVSPropertyOp31
 70
     1
102
RTVSPropertyOp32
 70
     1
  0
XRECORD
  5
3587C
102
{ACAD_REACTORS
330
3587B
102
}
330
3587B
100
AcDbXrecord
280
     1
102
RTVSPropertyOp0
 70
     1
102
RTVSPropertyOp1
 70
     1
102
RTVSPropertyOp2
 70
     1
102
RTVSPropertyOp3
 70
     1
102
RTVSPropertyOp4
 70
     1
102
RTVSPropertyOp5
 70
     1
102
RTVSPropertyOp6
 70
     1
102
RTVSPropertyOp7
 70
     1
102
RTVSPropertyOp8
 70
     1
102
RTVSPropertyOp9
 70
     1
102
RTVSPropertyOp10
 70
     1
102
RTVSPropertyOp11
 70
     1
102
RTVSPropertyOp12
 70
     1
102
RTVSPropertyOp13
 70
     1
102
RTVSPropertyOp14
 70
     1
102
RTVSPropertyOp15
 70
     1
102
RTVSPropertyOp16
 70
     1
102
RTVSPropertyOp17
 70
     1
102
RTVSPropertyOp18
 70
     1
102
RTVSPropertyOp19
 70
     1
102
RTVSPropertyOp20
 70
     1
102
RTVSPropertyOp21
 70
     1
102
RTVSPropertyOp22
 70
     1
102
RTVSPropertyOp23
 70
     1
102
RTVSPropertyOp24
 70
     1
102
RTVSPropertyOp25
 70
     1
102
RTVSPropertyOp26
 70
     1
102
RTVSPropertyOp27
 70
     1
102
RTVSPropertyOp28
 70
     1
102
RTVSPropertyOp29
 70
     1
102
RTVSPropertyOp30
 70
     1
102
RTVSPropertyOp31
 70
     1
102
RTVSPropertyOp32
 70
     1
  0
XRECORD
  5
35884
102
{ACAD_REACTORS
330
35883
102
}
330
35883
100
AcDbXrecord
280
     1
102
RTVSPropertyOp0
 70
     1
102
RTVSPropertyOp1
 70
     1
102
RTVSPropertyOp2
 70
     1
102
RTVSPropertyOp3
 70
     1
102
RTVSPropertyOp4
 70
     1
102
RTVSPropertyOp5
 70
     1
102
RTVSPropertyOp6
 70
     1
102
RTVSPropertyOp7
 70
     1
102
RTVSPropertyOp8
 70
     1
102
RTVSPropertyOp9
 70
     1
102
RTVSPropertyOp10
 70
     1
102
RTVSPropertyOp11
 70
     1
102
RTVSPropertyOp12
 70
     1
102
RTVSPropertyOp13
 70
     1
102
RTVSPropertyOp14
 70
     1
102
RTVSPropertyOp15
 70
     1
102
RTVSPropertyOp16
 70
     1
102
RTVSPropertyOp17
 70
     1
102
RTVSPropertyOp18
 70
     1
102
RTVSPropertyOp19
 70
     1
102
RTVSPropertyOp20
 70
     1
102
RTVSPropertyOp21
 70
     1
102
RTVSPropertyOp22
 70
     1
102
RTVSPropertyOp23
 70
     1
102
RTVSPropertyOp24
 70
     1
102
RTVSPropertyOp25
 70
     1
102
RTVSPropertyOp26
 70
     1
102
RTVSPropertyOp27
 70
     1
102
RTVSPropertyOp28
 70
     1
102
RTVSPropertyOp29
 70
     1
102
RTVSPropertyOp30
 70
     1
102
RTVSPropertyOp31
 70
     1
102
RTVSPropertyOp32
 70
     1
  0
ENDSEC
  0
EOF
