  0
SECTION
  2
HEADER
  9
$ACADVER
  1
AC1015
  9
$ACADMAINTVER
 70
    20
  9
$DWGCODEPAGE
  3
ANSI_1252
  9
$INSBASE
 10
1.235102848601107
 20
11.24774640129371
 30
0.0
  9
$EXTMIN
 10
424.5613385576331
 20
326.0501364460086
 30
0.0
  9
$EXTMAX
 10
544.0145268869948
 20
383.1413468742022
 30
0.0
  9
$LIMMIN
 10
0.0
 20
0.0
  9
$LIMMAX
 10
12.0
 20
9.0
  9
$ORTHOMODE
 70
     1
  9
$REGENMODE
 70
     1
  9
$FILLMODE
 70
     1
  9
$QTEXTMODE
 70
     0
  9
$MIRRTEXT
 70
     0
  9
$LTSCALE
 40
1.0
  9
$ATTMODE
 70
     1
  9
$TEXTSIZE
 40
1.125
  9
$TRACEWID
 40
0.05
  9
$TEXTSTYLE
  7
STD
  9
$CLAYER
  8
0
  9
$CELTYPE
  6
BYLAYER
  9
$CECOLOR
 62
   256
  9
$CELTSCALE
 40
1.0
  9
$DISPSILH
 70
     0
  9
$DIMSCALE
 40
1.0
  9
$DIMASZ
 40
0.18
  9
$DIMEXO
 40
0.0625
  9
$DIMDLI
 40
0.38
  9
$DIMRND
 40
0.0
  9
$DIMDLE
 40
0.0
  9
$DIMEXE
 40
0.18
  9
$DIMTP
 40
0.0
  9
$DIMTM
 40
0.0
  9
$DIMTXT
 40
0.18
  9
$DIMCEN
 40
0.09
  9
$DIMTSZ
 40
0.0
  9
$DIMTOL
 70
     0
  9
$DIMLIM
 70
     0
  9
$DIMTIH
 70
     1
  9
$DIMTOH
 70
     1
  9
$DIMSE1
 70
     0
  9
$DIMSE2
 70
     0
  9
$DIMTAD
 70
     0
  9
$DIMZIN
 70
     0
  9
$DIMBLK
  1

  9
$DIMASO
 70
     1
  9
$DIMSHO
 70
     1
  9
$DIMPOST
  1

  9
$DIMAPOST
  1

  9
$DIMALT
 70
     0
  9
$DIMALTD
 70
     2
  9
$DIMALTF
 40
25.4
  9
$DIMLFAC
 40
1.0
  9
$DIMTOFL
 70
     0
  9
$DIMTVP
 40
0.0
  9
$DIMTIX
 70
     0
  9
$DIMSOXD
 70
     0
  9
$DIMSAH
 70
     0
  9
$DIMBLK1
  1

  9
$DIMBLK2
  1

  9
$DIMSTYLE
  2
Standard
  9
$DIMCLRD
 70
     0
  9
$DIMCLRE
 70
     0
  9
$DIMCLRT
 70
     0
  9
$DIMTFAC
 40
1.0
  9
$DIMGAP
 40
0.09
  9
$DIMJUST
 70
     0
  9
$DIMSD1
 70
     0
  9
$DIMSD2
 70
     0
  9
$DIMTOLJ
 70
     1
  9
$DIMTZIN
 70
     0
  9
$DIMALTZ
 70
     0
  9
$DIMALTTZ
 70
     0
  9
$DIMUPT
 70
     0
  9
$DIMDEC
 70
     4
  9
$DIMTDEC
 70
     4
  9
$DIMALTU
 70
     2
  9
$DIMALTTD
 70
     2
  9
$DIMTXSTY
  7
STANDARD
  9
$DIMAUNIT
 70
     0
  9
$DIMADEC
 70
     0
  9
$DIMALTRND
 40
0.0
  9
$DIMAZIN
 70
     0
  9
$DIMDSEP
 70
    46
  9
$DIMATFIT
 70
     3
  9
$DIMFRAC
 70
     0
  9
$DIMLDRBLK
  1

  9
$DIMLUNIT
 70
     2
  9
$DIMLWD
 70
    -2
  9
$DIMLWE
 70
    -2
  9
$DIMTMOVE
 70
     0
  9
$LUNITS
 70
     5
  9
$LUPREC
 70
     6
  9
$SKETCHINC
 40
0.1
  9
$FILLETRAD
 40
0.0
  9
$AUNITS
 70
     0
  9
$AUPREC
 70
     0
  9
$MENU
  1
.
  9
$ELEVATION
 40
0.0
  9
$PELEVATION
 40
0.0
  9
$THICKNESS
 40
0.0
  9
$LIMCHECK
 70
     0
  9
$CHAMFERA
 40
0.5
  9
$CHAMFERB
 40
0.5
  9
$CHAMFERC
 40
1.0
  9
$CHAMFERD
 40
0.0
  9
$SKPOLY
 70
     0
  9
$TDCREATE
 40
2451225.386950695
  9
$TDUCREATE
 40
2451225.595284028
  9
$TDUPDATE
 40
2456114.525933241
  9
$TDUUPDATE
 40
2456114.734266574
  9
$TDINDWG
 40
0.6615701505
  9
$TDUSRTIMER
 40
0.6615701505
  9
$USRTIMER
 70
     1
  9
$ANGBASE
 50
0.0
  9
$ANGDIR
 70
     0
  9
$PDMODE
 70
     3
  9
$PDSIZE
 40
0.0
  9
$PLINEWID
 40
0.0
  9
$SPLFRAME
 70
     0
  9
$SPLINETYPE
 70
     6
  9
$SPLINESEGS
 70
     8
  9
$HANDSEED
  5
37E5E
  9
$SURFTAB1
 70
     6
  9
$SURFTAB2
 70
     6
  9
$SURFTYPE
 70
     6
  9
$SURFU
 70
     6
  9
$SURFV
 70
     6
  9
$UCSBASE
  2

  9
$UCSNAME
  2

  9
$UCSORG
 10
0.0
 20
0.0
 30
0.0
  9
$UCSXDIR
 10
1.0
 20
0.0
 30
0.0
  9
$UCSYDIR
 10
0.0
 20
1.0
 30
0.0
  9
$UCSORTHOREF
  2

  9
$UCSORTHOVIEW
 70
     0
  9
$UCSORGTOP
 10
0.0
 20
0.0
 30
0.0
  9
$UCSORGBOTTOM
 10
0.0
 20
0.0
 30
0.0
  9
$UCSORGLEFT
 10
0.0
 20
0.0
 30
0.0
  9
$UCSORGRIGHT
 10
0.0
 20
0.0
 30
0.0
  9
$UCSORGFRONT
 10
0.0
 20
0.0
 30
0.0
  9
$UCSORGBACK
 10
0.0
 20
0.0
 30
0.0
  9
$PUCSBASE
  2

  9
$PUCSNAME
  2

  9
$PUCSORG
 10
0.0
 20
0.0
 30
0.0
  9
$PUCSXDIR
 10
1.0
 20
0.0
 30
0.0
  9
$PUCSYDIR
 10
0.0
 20
1.0
 30
0.0
  9
$PUCSORTHOREF
  2

  9
$PUCSORTHOVIEW
 70
     0
  9
$PUCSORGTOP
 10
0.0
 20
0.0
 30
0.0
  9
$PUCSORGBOTTOM
 10
0.0
 20
0.0
 30
0.0
  9
$PUCSORGLEFT
 10
0.0
 20
0.0
 30
0.0
  9
$PUCSORGRIGHT
 10
0.0
 20
0.0
 30
0.0
  9
$PUCSORGFRONT
 10
0.0
 20
0.0
 30
0.0
  9
$PUCSORGBACK
 10
0.0
 20
0.0
 30
0.0
  9
$USERI1
 70
     0
  9
$USERI2
 70
     0
  9
$USERI3
 70
     0
  9
$USERI4
 70
     0
  9
$USERI5
 70
     0
  9
$USERR1
 40
0.0
  9
$USERR2
 40
0.0
  9
$USERR3
 40
0.0
  9
$USERR4
 40
0.0
  9
$USERR5
 40
0.0
  9
$WORLDVIEW
 70
     1
  9
$SHADEDGE
 70
     3
  9
$SHADEDIF
 70
    70
  9
$TILEMODE
 70
     1
  9
$MAXACTVP
 70
    48
  9
$PINSBASE
 10
0.0
 20
0.0
 30
0.0
  9
$PLIMCHECK
 70
     0
  9
$PEXTMIN
 10
0.0
 20
0.0
 30
0.0
  9
$PEXTMAX
 10
10.205
 20
7.764780009564798
 30
0.0
  9
$PLIMMIN
 10
-0.2079161059762549
 20
-0.2079166691697489
  9
$PLIMMAX
 10
10.79208365372785
 20
8.29208309053436
  9
$UNITMODE
 70
     0
  9
$VISRETAIN
 70
     1
  9
$PLINEGEN
 70
     0
  9
$PSLTSCALE
 70
     1
  9
$TREEDEPTH
 70
     0
  9
$CMLSTYLE
  2
STANDARD
  9
$CMLJUST
 70
     0
  9
$CMLSCALE
 40
1.0
  9
$PROXYGRAPHICS
 70
     1
  9
$MEASUREMENT
 70
     0
  9
$CELWEIGHT
370
    -1
  9
$ENDCAPS
280
     0
  9
$JOINSTYLE
280
     0
  9
$LWDISPLAY
290
     0
  9
$INSUNITS
 70
     1
  9
$HYPERLINKBASE
  1

  9
$STYLESHEET
  1
5000N-BLACK.CTB
  9
$XEDIT
290
     1
  9
$CEPSNTYPE
380
     0
  9
$PSTYLEMODE
290
     1
  9
$FINGERPRINTGUID
  2
{B3E5E9A9-FEC4-11D2-95EF-00104B2EF1F9}
  9
$VERSIONGUID
  2
{C2153F4F-7818-4048-9E19-A7312BECC10C}
  9
$EXTNAMES
290
     1
  9
$PSVPSCALE
 40
0.0
  9
$OLESTARTUP
290
     0
  0
ENDSEC
  0
SECTION
  2
CLASSES
  0
CLASS
  1
IDBUFFER
  2
AcDbIdBuffer
  3
ObjectDBX Classes
 90
    32768
280
     0
281
     0
  0
CLASS
  1
ACDBDICTIONARYWDFLT
  2
AcDbDictionaryWithDefault
  3
ObjectDBX Classes
 90
        0
280
     0
281
     0
  0
CLASS
  1
ACDBPLACEHOLDER
  2
AcDbPlaceHolder
  3
ObjectDBX Classes
 90
        0
280
     0
281
     0
  0
CLASS
  1
LAYOUT
  2
AcDbLayout
  3
ObjectDBX Classes
 90
        0
280
     0
281
     0
  0
CLASS
  1
DICTIONARYVAR
  2
AcDbDictionaryVar
  3
ObjectDBX Classes
 90
        0
280
     0
281
     0
  0
CLASS
  1
TABLESTYLE
  2
AcDbTableStyle
  3
ObjectDBX Classes
 90
     4095
280
     0
281
     0
  0
CLASS
  1
PLOTSETTINGS
  2
AcDbPlotSettings
  3
ObjectDBX Classes
 90
        0
280
     0
281
     0
  0
CLASS
  1
MATERIAL
  2
AcDbMaterial
  3
ObjectDBX Classes
 90
     1153
280
     0
281
     0
  0
CLASS
  1
VISUALSTYLE
  2
AcDbVisualStyle
  3
ObjectDBX Classes
 90
     4095
280
     0
281
     0
  0
CLASS
  1
SORTENTSTABLE
  2
AcDbSortentsTable
  3
ObjectDBX Classes
 90
        0
280
     0
281
     0
  0
CLASS
  1
FIELD
  2
AcDbField
  3
ObjectDBX Classes
 90
    33920
280
     0
281
     0
  0
CLASS
  1
FIELDLIST
  2
AcDbFieldList
  3
ObjectDBX Classes
 90
     1152
280
     0
281
     0
  0
CLASS
  1
EXACTERMXREFMAP
  2
ExAcTermXrefMap
  3
EXAC_SERVICE
 90
    33793
280
     0
281
     0
  0
CLASS
  1
NPOCOLLECTION
  2
AcDbImpNonPersistentObjectsCollection
  3
ObjectDBX Classes
 90
    33921
280
     0
281
     0
  0
CLASS
  1
EXACXREFPANELOBJECT
  2
ExAcXREFPanelObject
  3
EXAC_ESW
 90
    33793
280
     0
281
     0
  0
CLASS
  1
ACAD_EVALUATION_GRAPH
  2
AcDbEvalGraph
  3
ObjectDBX Classes
 90
    33921
280
     0
281
     0
  0
CLASS
  1
BLOCKBASEPOINTPARAMETER
  2
AcDbBlockBasepointParameter
  3
ObjectDBX Classes
 90
    33921
280
     0
281
     0
  0
CLASS
  1
BLOCKVISIBILITYPARAMETER
  2
AcDbBlockVisibilityParameter
  3
ObjectDBX Classes
 90
    33921
280
     0
281
     0
  0
CLASS
  1
BLOCKVISIBILITYGRIP
  2
AcDbBlockVisibilityGrip
  3
ObjectDBX Classes
 90
    33921
280
     0
281
     0
  0
CLASS
  1
BLOCKGRIPLOCATIONCOMPONENT
  2
AcDbBlockGripExpr
  3
ObjectDBX Classes
 90
    33921
280
     0
281
     0
  0
CLASS
  1
ACDB_DYNAMICBLOCKPURGEPREVENTER_VERSION
  2
AcDbDynamicBlockPurgePreventer
  3
ObjectDBX Classes
 90
    33921
280
     0
281
     0
  0
CLASS
  1
ACAECUSTOBJ
  2
AcAeEditorObj
  3
AcAeEditorObj
 90
    33792
280
     0
281
     0
  0
CLASS
  1
BASEPOINTPARAMETERENTITY
  2
AcDbBlockBasepointParameterEntity
  3
ObjectDBX Classes
 90
    33793
280
     0
281
     1
  0
CLASS
  1
ACAEEEMGROBJ
  2
AcAeEEMgrObj
  3
AcAeEEMgrObj
 90
    33792
280
     0
281
     0
  0
CLASS
  1
VISIBILITYPARAMETERENTITY
  2
AcDbBlockVisibilityParameterEntity
  3
ObjectDBX Classes
 90
    33793
280
     0
281
     1
  0
CLASS
  1
VISIBILITYGRIPENTITY
  2
AcDbBlockVisibilityGripEntity
  3
ObjectDBX Classes
 90
    33793
280
     0
281
     1
  0
CLASS
  1
ACDB_BLOCKREPRESENTATION_DATA
  2
AcDbBlockRepresentationData
  3
ObjectDBX Classes
 90
    33921
280
     0
281
     0
  0
CLASS
  1
DIMASSOC
  2
AcDbDimAssoc
  3
"AcDbDimAssoc|Product Desc:     AcDim ARX App For Dimension|Company:          Autodesk, Inc.|WEB Address:      www.autodesk.com"
 90
    32768
280
     0
281
     0
  0
CLASS
  1
SCALE
  2
AcDbScale
  3
ObjectDBX Classes
 90
     1153
280
     0
281
     0
  0
CLASS
  1
MLEADERSTYLE
  2
AcDbMLeaderStyle
  3
ACDB_MLEADERSTYLE_CLASS
 90
     4095
280
     0
281
     0
  0
CLASS
  1
CELLSTYLEMAP
  2
AcDbCellStyleMap
  3
ObjectDBX Classes
 90
     1152
280
     0
281
     0
  0
ENDSEC
  0
SECTION
  2
TABLES
  0
TABLE
  2
VPORT
  5
1A
102
{ACAD_XDICTIONARY
360
139C
102
}
330
0
100
AcDbSymbolTable
 70
     1
  0
VPORT
  5
882
330
1A
100
AcDbSymbolTableRecord
100
AcDbViewportTableRecord
  2
*Active
 70
     0
 10
0.0
 20
0.0
 11
1.0
 21
1.0
 12
484.2846619423863
 22
354.5939969308687
 13
0.0
 23
0.0
 14
0.5
 24
0.5
 15
0.5
 25
0.5
 16
0.0
 26
0.0
 36
1.0
 17
0.0
 27
0.0
 37
0.0
 40
57.57748156250852
 41
2.570469798657718
 42
50.0
 43
0.0
 44
0.0
 50
0.0
 51
0.0
 71
     0
 72
   100
 73
     1
 74
     1
 75
     0
 76
     0
 77
     0
 78
     1
281
     0
 65
     1
110
0.0
120
0.0
130
0.0
111
1.0
121
0.0
131
0.0
112
0.0
122
1.0
132
0.0
 79
     0
146
0.0
1001
ACAD_NAV_VCDISPLAY
1070
     3
  0
ENDTAB
  0
TABLE
  2
LTYPE
  5
15
330
0
100
AcDbSymbolTable
 70
     3
  0
LTYPE
  5
16
330
15
100
AcDbSymbolTableRecord
100
AcDbLinetypeTableRecord
  2
BYBLOCK
 70
     0
  3

 72
    65
 73
     0
 40
0.0
  0
LTYPE
  5
17
330
15
100
AcDbSymbolTableRecord
100
AcDbLinetypeTableRecord
  2
BYLAYER
 70
     0
  3

 72
    65
 73
     0
 40
0.0
  0
LTYPE
  5
8
330
15
100
AcDbSymbolTableRecord
100
AcDbLinetypeTableRecord
  2
CONTINUOUS
 70
     0
  3
Solid line
 72
    65
 73
     0
 40
0.0
  0
LTYPE
  5
1A5D
330
15
100
AcDbSymbolTableRecord
100
AcDbLinetypeTableRecord
  2
PHANTOM
 70
     0
  3
Phantom ______  __  __  ______  __  __  ______
 72
    65
 73
     6
 40
2.5
 49
1.25
 74
     0
 49
-0.25
 74
     0
 49
0.25
 74
     0
 49
-0.25
 74
     0
 49
0.25
 74
     0
 49
-0.25
 74
     0
  0
LTYPE
  5
1A5E
330
15
100
AcDbSymbolTableRecord
100
AcDbLinetypeTableRecord
  2
PHANTOM2
 70
     0
  3
Phantom (.5x) ___ _ _ ___ _ _ ___ _ _ ___ _ _
 72
    65
 73
     6
 40
1.25
 49
0.625
 74
     0
 49
-0.125
 74
     0
 49
0.125
 74
     0
 49
-0.125
 74
     0
 49
0.125
 74
     0
 49
-0.125
 74
     0
  0
ENDTAB
  0
TABLE
  2
LAYER
  5
11
102
{ACAD_XDICTIONARY
360
899
102
}
330
0
100
AcDbSymbolTable
 70
     7
  0
LAYER
  5
4
102
{ACAD_XDICTIONARY
360
37C4E
102
}
330
11
100
AcDbSymbolTableRecord
100
AcDbLayerTableRecord
  2
0
 70
     0
 62
     7
  6
CONTINUOUS
370
    -3
390
5
1001
RAK
1000
{ACET-LAYISO
1070
     0
1070
     7
1000
CONTINUOUS
1071
       -3
1071
        1
1005
5
1000
ACET-LAYISO}
  0
LAYER
  5
32
102
{ACAD_XDICTIONARY
360
37C50
102
}
330
11
100
AcDbSymbolTableRecord
100
AcDbLayerTableRecord
  2
TEXT
 70
     0
 62
     3
  6
CONTINUOUS
370
    -3
390
5
1001
RAK
1000
{ACET-LAYISO
1070
     0
1070
     3
1000
CONTINUOUS
1071
       -3
1071
        1
1005
5
1000
ACET-LAYISO}
  0
LAYER
  5
73
330
11
100
AcDbSymbolTableRecord
100
AcDbLayerTableRecord
  2
Defpoints
 70
     0
 62
   252
  6
CONTINUOUS
290
     0
370
    -3
390
5
  0
LAYER
  5
1A61
102
{ACAD_XDICTIONARY
360
1A62
102
}
330
11
100
AcDbSymbolTableRecord
100
AcDbLayerTableRecord
  2
DIM
 70
     0
 62
     1
  6
CONTINUOUS
370
    -3
390
5
  0
LAYER
  5
1A7C
102
{ACAD_XDICTIONARY
360
1A7D
102
}
330
11
100
AcDbSymbolTableRecord
100
AcDbLayerTableRecord
  2
SECTION
 70
     0
 62
   253
  6
PHANTOM
370
    -3
390
5
  0
LAYER
  5
1A7F
102
{ACAD_XDICTIONARY
360
1A80
102
}
330
11
100
AcDbSymbolTableRecord
100
AcDbLayerTableRecord
  2
DETAIL
 70
     0
 62
     1
  6
CONTINUOUS
370
    -3
390
5
  0
LAYER
  5
1A91
102
{ACAD_XDICTIONARY
360
1A92
102
}
330
11
100
AcDbSymbolTableRecord
100
AcDbLayerTableRecord
  2
PANEL
 70
     0
 62
    60
  6
CONTINUOUS
370
    -3
390
5
1001
AcAecLayerStandard
1000

1000

  0
ENDTAB
  0
TABLE
  2
STYLE
  5
12
330
0
100
AcDbSymbolTable
 70
     2
  0
STYLE
  5
13
330
12
100
AcDbSymbolTableRecord
100
AcDbTextStyleTableRecord
  2
STANDARD
 70
     0
 40
0.0
 41
1.0
 50
0.0
 71
     0
 42
0.2
  3
arial.ttf
  4

1001
ACAD
1000
Arial CYR
1071
    52258
  0
STYLE
  5
20
330
12
100
AcDbSymbolTableRecord
100
AcDbTextStyleTableRecord
  2
STD
 70
     0
 40
0.0
 41
1.0
 50
0.0
 71
     0
 42
1.125
  3
arial.ttf
  4

1001
ACAD
1000
Arial CYR
1071
    52258
  0
ENDTAB
  0
TABLE
  2
VIEW
  5
18
330
0
100
AcDbSymbolTable
 70
     0
  0
ENDTAB
  0
TABLE
  2
UCS
  5
19
330
0
100
AcDbSymbolTable
 70
     0
  0
ENDTAB
  0
TABLE
  2
APPID
  5
1C
330
0
100
AcDbSymbolTable
 70
    25
  0
APPID
  5
1D
330
1C
100
AcDbSymbolTableRecord
100
AcDbRegAppTableRecord
  2
ACAD
 70
     0
  0
APPID
  5
9
330
1C
100
AcDbSymbolTableRecord
100
AcDbRegAppTableRecord
  2
RAK
 70
     0
  0
APPID
  5
3A
330
1C
100
AcDbSymbolTableRecord
100
AcDbRegAppTableRecord
  2
DCO15
 70
     0
  0
APPID
  5
126
330
1C
100
AcDbSymbolTableRecord
100
AcDbRegAppTableRecord
  2
ABNSLEADERTOOLS
 70
     0
  0
APPID
  5
895
330
1C
100
AcDbSymbolTableRecord
100
AcDbRegAppTableRecord
  2
ACAD_PSEXT
 70
     0
  0
APPID
  5
A2A
330
1C
100
AcDbSymbolTableRecord
100
AcDbRegAppTableRecord
  2
ACAD_DSTYLE_DIMTEXT_FILL
 70
     0
  0
APPID
  5
10A5
330
1C
100
AcDbSymbolTableRecord
100
AcDbRegAppTableRecord
  2
AcAecLayerStandard
 70
     0
  0
APPID
  5
198C
330
1C
100
AcDbSymbolTableRecord
100
AcDbRegAppTableRecord
  2
AcDbBlockRepETag
 70
     0
  0
APPID
  5
198D
330
1C
100
AcDbSymbolTableRecord
100
AcDbRegAppTableRecord
  2
AcLayerTools
 70
     0
  0
APPID
  5
1A37
330
1C
100
AcDbSymbolTableRecord
100
AcDbRegAppTableRecord
  2
ACAD_DSTYLE_DIMJAG
 70
     0
  0
APPID
  5
1A38
330
1C
100
AcDbSymbolTableRecord
100
AcDbRegAppTableRecord
  2
ACAD_DSTYLE_DIMBREAK
 70
     0
  0
APPID
  5
1A39
330
1C
100
AcDbSymbolTableRecord
100
AcDbRegAppTableRecord
  2
AcadAnnotative
 70
     0
  0
APPID
  5
1A3A
330
1C
100
AcDbSymbolTableRecord
100
AcDbRegAppTableRecord
  2
ACAD_DSTYLE_DIMTALN
 70
     0
  0
APPID
  5
1A3B
330
1C
100
AcDbSymbolTableRecord
100
AcDbRegAppTableRecord
  2
AcadAnnoAV
 70
     0
  0
APPID
  5
1D4C
330
1C
100
AcDbSymbolTableRecord
100
AcDbRegAppTableRecord
  2
ACAD_MLEADERVER
 70
     0
  0
APPID
  5
1D4D
330
1C
100
AcDbSymbolTableRecord
100
AcDbRegAppTableRecord
  2
AcadAnnoPO
 70
     0
  0
APPID
  5
1D4E
330
1C
100
AcDbSymbolTableRecord
100
AcDbRegAppTableRecord
  2
ACAD_DSTYLE_DIMRADIAL_EXTENSION
 70
     0
  0
APPID
  5
8637
330
1C
100
AcDbSymbolTableRecord
100
AcDbRegAppTableRecord
  2
AcDbDynamicBlockTrueName
 70
     0
  0
APPID
  5
8638
330
1C
100
AcDbSymbolTableRecord
100
AcDbRegAppTableRecord
  2
AcDbDynamicBlockGUID
 70
     0
  0
APPID
  5
EECA
330
1C
100
AcDbSymbolTableRecord
100
AcDbRegAppTableRecord
  2
ACAUTHENVIRON
 70
     0
  0
APPID
  5
EED2
330
1C
100
AcDbSymbolTableRecord
100
AcDbRegAppTableRecord
  2
AcDbBlockRepBTag
 70
     0
  0
APPID
  5
31EA1
330
1C
100
AcDbSymbolTableRecord
100
AcDbRegAppTableRecord
  2
ACAD_EXEMPT_FROM_CAD_STANDARDS
 70
     0
  0
APPID
  5
37C31
330
1C
100
AcDbSymbolTableRecord
100
AcDbRegAppTableRecord
  2
GradientColor1ACI
 70
     0
  0
APPID
  5
37C32
330
1C
100
AcDbSymbolTableRecord
100
AcDbRegAppTableRecord
  2
GradientColor2ACI
 70
     0
  0
APPID
  5
37D13
330
1C
100
AcDbSymbolTableRecord
100
AcDbRegAppTableRecord
  2
ACAD_NAV_VCDISPLAY
 70
     0
  0
ENDTAB
  0
TABLE
  2
DIMSTYLE
  5
1E
330
0
100
AcDbSymbolTable
 70
     1
100
AcDbDimStyleTable
 71
     0
  0
DIMSTYLE
105
172
330
1E
100
AcDbSymbolTableRecord
100
AcDbDimStyleTableRecord
  2
Standard
 70
     0
340
13
  0
ENDTAB
  0
TABLE
  2
BLOCK_RECORD
  5
1
330
0
100
AcDbSymbolTable
 70
     0
  0
BLOCK_RECORD
  5
2
102
{ACAD_XDICTIONARY
360
31E97
102
}
330
1
100
AcDbSymbolTableRecord
100
AcDbBlockTableRecord
  2
*MODEL_SPACE
340
B
  0
BLOCK_RECORD
  5
D
102
{ACAD_XDICTIONARY
360
1D72
102
}
330
1
100
AcDbSymbolTableRecord
100
AcDbBlockTableRecord
  2
*PAPER_SPACE
340
10
  0
ENDTAB
  0
ENDSEC
  0
SECTION
  2
BLOCKS
  0
BLOCK
  5
3
330
2
100
AcDbEntity
  8
0
100
AcDbBlockBegin
  2
*MODEL_SPACE
 70
     0
 10
0.0
 20
0.0
 30
0.0
  3
*MODEL_SPACE
  1

  0
ENDBLK
  5
A
330
2
100
AcDbEntity
  8
0
100
AcDbBlockEnd
  0
BLOCK
  5
E
330
D
100
AcDbEntity
 67
     1
  8
0
100
AcDbBlockBegin
  2
*PAPER_SPACE
 70
     0
 10
0.0
 20
0.0
 30
0.0
  3
*PAPER_SPACE
  1

  0
ENDBLK
  5
F
330
D
100
AcDbEntity
 67
     1
  8
0
100
AcDbBlockEnd
  0
ENDSEC
  0
SECTION
  2
ENTITIES
  0
ELLIPSE
  5
3636A
330
2
100
AcDbEntity
  8
DETAIL
100
AcDbEllipse
 10
492.9533329871631
 20
349.3597646222992
 30
0.0
 11
0.019595916799995
 21
0.0339411200000304
 31
0.0
210
0.0
220
0.0
230
1.0
 40
0.5773502699996551
 41
-0.7858426535900779
 42
0.7849536732053754
  0
ELLIPSE
  5
3636B
330
2
100
AcDbEntity
  8
DETAIL
100
AcDbEllipse
 10
492.9533329871631
 20
349.3597646222992
 30
0.0
 11
0.0391918336000003
 21
0.0678822400000202
 31
0.0
210
0.0
220
0.0
230
1.0
 40
0.577350269999849
 41
-0.7858426535901325
 42
0.7849536732056373
  0
LINE
  5
3636C
330
2
100
AcDbEntity
  8
DETAIL
100
AcDbLine
 10
492.1427332092208
 20
348.9237646222992
 30
0.0
 11
492.1427332092208
 21
348.9557646222992
 31
0.0
  0
LINE
  5
3636D
330
2
100
AcDbEntity
  8
DETAIL
100
AcDbLine
 10
492.9533329871631
 20
349.3917646222992
 30
0.0
 11
492.1427332092208
 21
348.9237646222992
 31
0.0
  0
LINE
  5
3636E
330
2
100
AcDbEntity
  8
DETAIL
100
AcDbLine
 10
492.1427332092208
 20
348.9557646222992
 30
0.0
 11
492.9533329871631
 21
349.4237646222992
 31
0.0
  0
ELLIPSE
  5
3636F
330
2
100
AcDbEntity
  8
DETAIL
100
AcDbEllipse
 10
492.9533329871631
 20
347.4877646222992
 30
0.0
 11
0.0195959168000349
 21
0.0339411200001002
 31
0.0
210
0.0
220
0.0
230
0.9999999999999998
 40
0.5773502699972948
 41
3.9265463267972
 42
5.497342653586913
  0
ELLIPSE
  5
36370
330
2
100
AcDbEntity
  8
DETAIL
100
AcDbEllipse
 10
492.9533329871631
 20
347.4877646222992
 30
0.0
 11
0.0391918335997994
 21
0.0678822399999512
 31
0.0
210
0.0
220
0.0
230
0.9999999999999998
 40
0.5773502700010253
 41
3.926546326792355
 42
5.497342653589549
  0
LINE
  5
36371
330
2
100
AcDbEntity
  8
DETAIL
100
AcDbLine
 10
492.9810458000843
 20
347.5037646222992
 30
0.0
 11
492.9810458000843
 21
349.3757646222992
 31
0.0
  0
LINE
  5
36372
330
2
100
AcDbEntity
  8
DETAIL
100
AcDbLine
 10
493.0087586130054
 20
349.3917646222992
 30
0.0
 11
493.0087586130054
 21
347.5197646222992
 31
0.0
  0
ELLIPSE
  5
36374
330
2
100
AcDbEntity
  8
DETAIL
100
AcDbEllipse
 10
430.7103551663678
 20
361.4237646222992
 30
0.0
 11
0.0391918335999985
 21
0.0678822399999949
 31
0.0
210
0.0
220
0.0
230
1.0
 40
0.5773502700000539
 41
0.7849536732049823
 42
2.35575000000003
  0
LINE
  5
36375
330
2
100
AcDbEntity
  8
DETAIL
100
AcDbLine
 10
430.7103551663678
 20
361.4877646222992
 30
0.0
 11
431.5209549443102
 21
361.9557646222992
 31
0.0
  0
ELLIPSE
  5
36376
330
2
100
AcDbEntity
  8
DETAIL
100
AcDbEllipse
 10
430.7103551663678
 20
359.5517646222992
 30
0.0
 11
0.0391918335999989
 21
0.0678822399999998
 31
0.0
210
0.0
220
0.0
230
1.0
 40
0.5773502700000065
 41
2.355749999999904
 42
3.141592679506038
  0
LINE
  5
36377
330
2
100
AcDbEntity
  8
DETAIL
100
AcDbLine
 10
472.2403827154368
 20
335.4838823817128
 30
0.0
 11
430.671163332768
 21
359.4838823822992
 31
0.0
  0
LINE
  5
36378
330
2
100
AcDbEntity
  8
DETAIL
100
AcDbLine
 10
430.6549295405256
 20
359.5197646222992
 30
0.0
 11
430.6549295405256
 21
361.3917646222992
 31
0.0
  0
LINE
  5
36379
330
2
100
AcDbEntity
  8
DETAIL
100
AcDbLine
 10
472.2795745569586
 20
337.4877646171392
 30
0.0
 11
430.7103551663678
 21
361.4877646222992
 31
0.0
  0
LINE
  5
3637A
330
2
100
AcDbEntity
  8
DETAIL
100
AcDbLine
 10
472.2241489221787
 20
337.3917646222992
 30
0.0
 11
430.6549295405256
 21
361.3917646222992
 31
0.0
  0
LINE
  5
3637B
330
2
100
AcDbEntity
  8
DETAIL
100
AcDbLine
 10
473.0901743259633
 20
337.955764616534
 30
0.0
 11
472.576565883364
 21
338.2522965892533
 31
0.0
  0
LINE
  5
3637C
330
2
100
AcDbEntity
  8
DETAIL
100
AcDbLine
 10
472.2005786748138
 20
338.469372905414
 30
0.0
 11
431.5209549443105
 21
361.9557646222994
 31
0.0
  0
LINE
  5
3637D
330
2
100
AcDbEntity
  8
DETAIL
100
AcDbLine
 10
473.0901743259633
 20
337.9557646222992
 30
0.0
 11
473.0901743259633
 21
337.9237646222992
 31
0.0
  0
ELLIPSE
  5
3637E
330
2
100
AcDbEntity
  8
DETAIL
100
AcDbEllipse
 10
472.279574548021
 20
337.4237646222992
 30
0.0
 11
0.0391918335999915
 21
0.0678822400000259
 31
0.0
210
0.0
220
0.0
230
1.0
 40
0.5773502699999299
 41
0.7849536732054144
 42
2.355749999999508
  0
ELLIPSE
  5
3637F
330
2
100
AcDbEntity
  8
DETAIL
100
AcDbEllipse
 10
472.279574548021
 20
337.4237646222992
 30
0.0
 11
0.0195959168000413
 21
0.0339411200000858
 31
0.0
210
0.0
220
0.0
230
0.9999999999999998
 40
0.5773502699973526
 41
0.7849536732077334
 42
2.35574999999739
  0
ELLIPSE
  5
36380
330
2
100
AcDbEntity
  8
DETAIL
100
AcDbEllipse
 10
472.279574548021
 20
335.5517646222992
 30
0.0
 11
0.0195959167999925
 21
0.0339411200000204
 31
0.0
210
0.0
220
0.0
230
1.0
 40
0.5773502699999017
 41
2.355749999999261
 42
3.926546326795037
  0
ELLIPSE
  5
36381
330
2
100
AcDbEntity
  8
DETAIL
100
AcDbEllipse
 10
472.279574548021
 20
335.5517646222992
 30
0.0
 11
0.0391918335999932
 21
0.0678822400000288
 31
0.0
210
0.0
220
0.0
230
0.9999999999999998
 40
0.5773502699998802
 41
2.355749999999464
 42
3.92654632679525
  0
LINE
  5
36382
330
2
100
AcDbEntity
  8
DETAIL
100
AcDbLine
 10
472.2241489221787
 20
335.5197646222992
 30
0.0
 11
472.2241489221787
 21
337.3917646222992
 31
0.0
  0
LINE
  5
36384
330
2
100
AcDbEntity
  8
DETAIL
100
AcDbLine
 10
472.279574548021
 20
337.4877646222992
 30
0.0
 11
473.0901743259633
 21
337.9557646222992
 31
0.0
  0
LINE
  5
36385
330
2
100
AcDbEntity
  8
DETAIL
100
AcDbLine
 10
473.0901743259633
 20
337.9237646222992
 30
0.0
 11
472.279574548021
 21
337.4557646222992
 31
0.0
  0
LINE
  5
36386
330
2
100
AcDbEntity
  8
DETAIL
100
AcDbLine
 10
492.9533083481856
 20
347.423750413623
 30
0.0
 11
472.279574548021
 21
335.4877646222992
 31
0.0
  0
LINE
  5
36388
330
2
100
AcDbEntity
  8
DETAIL
100
AcDbLine
 10
434.3632503195307
 20
360.3147646222992
 30
0.0
 11
449.2842638660484
 21
368.9294158099633
 31
0.0
  0
LINE
  5
36389
330
2
100
AcDbEntity
  8
DETAIL
100
AcDbLine
 10
434.3909631324518
 20
360.2987646222993
 30
0.0
 11
449.3088732981649
 21
368.9116240722204
 31
0.0
  0
LINE
  5
3638A
330
2
100
AcDbEntity
  8
DETAIL
100
AcDbLine
 10
452.2778394940759
 20
371.0037717399538
 30
0.0
 11
449.0356516500608
 21
369.1318937154485
 31
0.0
  0
LINE
  5
3638B
330
2
100
AcDbEntity
  8
DETAIL
100
AcDbLine
 10
452.2778394940759
 20
370.9717717399538
 30
0.0
 11
449.0567831293667
 21
369.112093980714
 31
0.0
  0
LINE
  5
3638C
330
2
100
AcDbEntity
  8
DETAIL
100
AcDbLine
 10
431.5973691430829
 20
361.911646864049
 30
0.0
 11
450.622215213436
 21
372.8956468640585
 31
0.0
  0
LINE
  5
3638D
330
2
100
AcDbEntity
  8
DETAIL
100
AcDbLine
 10
450.6566522663313
 20
372.8757646222992
 30
0.0
 11
448.5524113989753
 21
371.6608805910914
 31
0.0
  0
LINE
  5
3638E
330
2
100
AcDbEntity
  8
DETAIL
100
AcDbLine
 10
492.1427332092208
 20
348.9237646222992
 30
0.0
 11
450.5735138275679
 21
372.9237646222994
 31
0.0
  0
LINE
  5
3638F
330
2
100
AcDbEntity
  8
DETAIL
100
AcDbLine
 10
492.1427332092208
 20
348.9557646222992
 30
0.0
 11
450.5735138275679
 21
372.9557646222994
 31
0.0
  0
LINE
  5
36390
330
2
100
AcDbEntity
  8
DETAIL
100
AcDbLine
 10
492.9925076941175
 20
349.4276567417355
 30
0.0
 11
492.4308542488703
 21
349.7519275093219
 31
0.0
  0
LINE
  5
36391
330
2
100
AcDbEntity
  8
DETAIL
100
AcDbLine
 10
492.1689122164322
 20
349.9031598121602
 30
0.0
 11
451.4233299712999
 21
373.4276326808887
 31
0.0
  0
LINE
  5
36392
330
2
100
AcDbEntity
  8
DETAIL
100
AcDbLine
 10
452.2501143688733
 20
370.9557646314548
 30
0.0
 11
468.7585598304621
 21
361.4246092003042
 31
0.0
  0
LINE
  5
36393
330
2
100
AcDbEntity
  8
DETAIL
100
AcDbLine
 10
471.2476434642221
 20
359.9875360943173
 30
0.0
 11
488.4482503751939
 21
350.0567610640429
 31
0.0
  0
LINE
  5
36395
330
2
100
AcDbEntity
  8
DETAIL
100
AcDbLine
 10
471.2476434642221
 20
360.0515503113157
 30
0.0
 11
488.5036883133178
 21
350.088768172542
 31
0.0
  0
LINE
  5
36396
330
2
100
AcDbEntity
  8
DETAIL
100
AcDbLine
 10
472.2795622285095
 20
335.519757517948
 30
0.0
 11
492.9533206676743
 21
347.455757517961
 31
0.0
  0
LINE
  5
36397
330
2
100
AcDbEntity
  8
DETAIL
100
AcDbLine
 10
470.2894420165274
 20
339.572768170004
 30
0.0
 11
489.3142880912598
 21
350.556768172542
 31
0.0
  0
LINE
  5
36398
330
2
100
AcDbEntity
  8
DETAIL
100
AcDbLine
 10
473.0718776555553
 20
337.9663282041239
 30
0.0
 11
492.0967237308807
 21
348.9503282070042
 31
0.0
  0
LINE
  5
36399
330
2
100
AcDbEntity
  8
DETAIL
100
AcDbLine
 10
472.2795745546939
 20
337.3168917955618
 30
0.0
 11
492.9810458000843
 21
349.2688917917092
 31
0.0
  0
LINE
  5
3639B
330
2
100
AcDbEntity
  8
DETAIL
100
AcDbLine
 10
472.2795745546939
 20
335.5197646344738
 30
0.0
 11
472.2795745546939
 21
337.3437717266373
 31
0.0
  0
LINE
  5
3639C
330
2
100
AcDbEntity
  8
DETAIL
100
AcDbLine
 10
472.2518617351
 20
337.4077646222992
 30
0.0
 11
472.2518617417726
 21
335.5357482240561
 31
0.0
  0
ELLIPSE
  5
3639D
330
2
100
AcDbEntity
  8
DETAIL
100
AcDbEllipse
 10
472.1964361159304
 20
337.3917717266373
 30
0.0
 11
0.0587877504000022
 21
-0.1018233600000038
 31
0.0
210
0.0
220
0.0
230
0.9999999999999998
 40
0.5773502700000001
 41
0.7852500000000925
 42
1.567974822258416
  0
ELLIPSE
  5
3639E
330
2
100
AcDbEntity
  8
DETAIL
100
AcDbEllipse
 10
431.6361941911654
 20
361.6603134618991
 30
0.0
 11
-0.2251369247301384
 21
0.0000000000000001
 31
0.0
210
0.0
220
0.0
230
-1.0
 40
0.5773502700000086
 41
-0.2797717200095433
 42
3.421364373599335
  0
ARC
  5
3639F
330
2
100
AcDbEntity
  8
DETAIL
100
AcDbCircle
 10
430.8973190162872
 20
361.2990992284453
 30
0.0
 40
0.4604043006961624
100
AcDbArc
 50
9.159730305432816
 51
40.63245097252866
  0
ARC
  5
363A0
330
2
100
AcDbEntity
  8
DETAIL
100
AcDbCircle
 10
431.7012544437809
 20
361.5032514992547
 30
0.0
 40
0.4604043006961624
100
AcDbArc
 50
189.1597303054329
 51
220.6324509725286
  0
LINE
  5
363A1
330
2
100
AcDbEntity
  8
DETAIL
100
AcDbLine
 10
431.2467210382741
 20
361.5989164179641
 30
0.0
 11
431.2467210382741
 21
361.4299609584072
 31
0.0
  0
ELLIPSE
  5
363A2
330
2
100
AcDbEntity
  8
DETAIL
100
AcDbEllipse
 10
431.6361941911654
 20
361.5896074754632
 30
0.0
 11
0.2648669702707556
 21
0.0000000000000017
 31
0.0
210
0.0
220
0.0
230
1.0
 40
0.577350269999994
 41
2.581494390247421
 42
4.712388980384687
  0
ELLIPSE
  5
363A3
330
2
100
AcDbEntity
  8
DETAIL
100
AcDbEllipse
 10
431.6361941911654
 20
361.5896074754632
 30
0.0
 11
-0.2648669702707556
 21
0.0000000000000017
 31
0.0
210
0.0
220
0.0
230
-1.0
 40
0.577350269999994
 41
2.581494390247421
 42
4.712388980384687
  0
ELLIPSE
  5
363A4
330
2
100
AcDbEntity
  8
DETAIL
100
AcDbEllipse
 10
431.8878202271845
 20
361.0796698928147
 30
0.0
 11
0.2179605090179307
 21
0.3775181146268486
 31
0.0
210
0.0
220
0.0
230
1.0
 40
0.5773502691893042
 41
0.3007402093805636
 42
1.270057603529928
  0
LINE
  5
363A5
330
2
100
AcDbEntity
  8
DETAIL
100
AcDbLine
 10
432.031432367808
 20
361.4775211528129
 30
0.0
 11
432.031432367808
 21
361.308565693256
 31
0.0
  0
ARC
  5
363A6
330
2
100
AcDbEntity
  8
DETAIL
100
AcDbCircle
 10
431.6192209412857
 20
361.6332693289662
 30
0.0
 40
0.5062055599969426
100
AcDbArc
 50
238.1173174147851
 51
284.294728811219
  0
ARC
  5
363A7
330
2
100
AcDbEntity
  8
DETAIL
100
AcDbCircle
 10
431.4768395670695
 20
360.8818571174869
 30
0.0
 40
0.5062055599969426
100
AcDbArc
 50
58.11731741478513
 51
104.2947288112189
  0
LINE
  5
363A8
330
2
100
AcDbEntity
  8
DETAIL
100
AcDbLine
 10
431.3518524217942
 20
361.3723897692929
 30
0.0
 11
431.3518524217942
 21
361.2034343097358
 31
0.0
  0
LINE
  5
363A9
330
2
100
AcDbEntity
  8
DETAIL
100
AcDbLine
 10
431.7442080865609
 20
361.3116921367172
 30
0.0
 11
431.7442080865609
 21
361.1427366771603
 31
0.0
  0
ELLIPSE
  5
363AA
330
2
100
AcDbEntity
  8
DETAIL
100
AcDbEllipse
 10
431.8878202271845
 20
361.5405879371583
 30
0.0
 11
0.217960508873126
 21
0.3775181146573753
 31
0.0
210
0.0
220
0.0
230
1.0
 40
0.5773502691893185
 41
3.442332862444162
 42
4.411650256900757
  0
ELLIPSE
  5
363AB
330
2
100
AcDbEntity
  8
DETAIL
100
AcDbEllipse
 10
431.6361941911654
 20
361.6603134618991
 30
0.0
 11
0.2251369247301384
 21
0.0000000000000001
 31
0.0
210
0.0
220
0.0
230
1.0
 40
0.5773502700000086
 41
2.861820933580247
 42
6.562957027189128
  0
LINE
  5
363AC
330
2
100
AcDbEntity
  8
DETAIL
100
AcDbLine
 10
431.4110572664351
 20
361.6603134618991
 30
0.0
 11
431.4110572664351
 21
361.5090513312363
 31
0.0
  0
LINE
  5
363AD
330
2
100
AcDbEntity
  8
DETAIL
100
AcDbLine
 10
431.8613311158953
 20
361.6603134618991
 30
0.0
 11
431.8613311158953
 21
361.5090513312363
 31
0.0
  0
ARC
  5
363AE
330
2
100
AcDbEntity
  8
DETAIL
100
AcDbCircle
 10
431.5768989623007
 20
361.4042306119653
 30
0.0
 40
0.4604043006963863
100
AcDbArc
 50
9.15973030544622
 51
40.63245097252866
  0
ARC
  5
363AF
330
2
100
AcDbEntity
  8
DETAIL
100
AcDbCircle
 10
431.5751205369839
 20
361.3617698332098
 30
0.0
 40
0.4050737382422295
100
AcDbArc
 50
102.8213528199153
 51
144.1658823347701
  0
ARC
  5
363C2
330
2
100
AcDbEntity
  8
DETAIL
100
AcDbCircle
 10
431.6588583576633
 20
361.2737337462153
 30
0.0
 40
0.5066515022160788
100
AcDbArc
 50
58.13881431004668
 51
79.38373661744847
  0
ARC
  5
363C5
330
2
100
AcDbEntity
  8
DETAIL
100
AcDbCircle
 10
451.5824646402331
 20
372.9778929869046
 30
0.0
 40
0.4604043006962483
100
AcDbArc
 50
189.1597303054329
 51
220.6324509725286
  0
LINE
  5
363C6
330
2
100
AcDbEntity
  8
DETAIL
100
AcDbLine
 10
451.6254182830131
 20
372.7863336243672
 30
0.0
 11
451.6254182830131
 21
372.6173781648102
 31
0.0
  0
LINE
  5
363C7
330
2
100
AcDbEntity
  8
DETAIL
100
AcDbLine
 10
451.2330626182463
 20
372.8470312569428
 30
0.0
 11
451.2330626182463
 21
372.6780757973858
 31
0.0
  0
ELLIPSE
  5
363C8
330
2
100
AcDbEntity
  8
DETAIL
100
AcDbEllipse
 10
451.7690304236366
 20
373.0152294248084
 30
0.0
 11
0.217960508873185
 21
0.3775181146574305
 31
0.0
210
0.0
220
0.0
230
1.0
 40
0.5773502691893274
 41
3.44233286244424
 42
4.411650256900783
  0
LINE
  5
363C9
330
2
100
AcDbEntity
  8
DETAIL
100
AcDbLine
 10
451.2922674628795
 20
371.3387609526431
 30
0.0
 11
448.8019436748636
 21
369.900971843263
 31
0.0
  0
LINE
  5
363CA
330
2
100
AcDbEntity
  8
DETAIL
100
AcDbLine
 10
451.2922674628796
 20
371.4667514624368
 30
0.0
 11
448.8234154780079
 21
370.0413591043818
 31
0.0
  0
LINE
  5
363CB
330
2
100
AcDbEntity
  8
DETAIL
100
AcDbLine
 10
451.7425413123397
 20
372.2488262892761
 30
0.0
 11
451.7425413123398
 21
371.0323360223775
 31
0.0
  0
LINE
  5
363CC
330
2
100
AcDbEntity
  8
DETAIL
100
AcDbLine
 10
451.2922674628796
 20
372.508792017471
 30
0.0
 11
451.2922674628796
 21
371.0323360223772
 31
0.0
  0
ARC
  5
363E2
330
2
100
AcDbEntity
  8
DETAIL
100
AcDbCircle
 10
451.5004311377379
 20
373.1079108166162
 30
0.0
 40
0.5062055599970372
100
AcDbArc
 50
238.1173174147851
 51
284.294728811219
  0
LINE
  5
363E3
330
2
100
AcDbEntity
  8
DETAIL
100
AcDbLine
 10
452.2778394940759
 20
370.9717717399538
 30
0.0
 11
452.2778394940759
 21
371.0037717399538
 31
0.0
  0
LINE
  5
363E4
330
2
100
AcDbEntity
  8
DETAIL
100
AcDbLine
 10
468.8139977685859
 20
361.4566163088034
 30
0.0
 11
451.7425413123397
 21
371.3128262892759
 31
0.0
  0
LINE
  5
363E5
330
2
100
AcDbEntity
  8
DETAIL
100
AcDbLine
 10
450.5735138275678
 20
372.9557646222992
 30
0.0
 11
451.38411360551
 21
373.4237646222992
 31
0.0
  0
ARC
  5
363E6
330
2
100
AcDbEntity
  8
DETAIL
100
AcDbCircle
 10
451.4563307334359
 20
372.8364113208598
 30
0.0
 40
0.4050737382423053
100
AcDbArc
 50
102.8213528199153
 51
144.1658823347701
  0
ARC
  5
363E7
330
2
100
AcDbEntity
  8
DETAIL
100
AcDbCircle
 10
450.778529212739
 20
372.7737407160952
 30
0.0
 40
0.4604043006962483
100
AcDbArc
 50
9.159730305432816
 51
40.63245097252866
  0
LINE
  5
363E8
330
2
100
AcDbEntity
  8
DETAIL
100
AcDbLine
 10
451.127931234726
 20
373.0735579056141
 30
0.0
 11
451.127931234726
 21
372.904602446057
 31
0.0
  0
ELLIPSE
  5
363E9
330
2
100
AcDbEntity
  8
DETAIL
100
AcDbEllipse
 10
451.5174043876172
 20
373.1349549495491
 30
0.0
 11
0.1913663860206173
 21
0.0
 31
0.0
210
0.0
220
0.0
230
-1.0
 40
0.5773502700000486
 41
2.861820933580285
 42
6.562957027189092
  0
ELLIPSE
  5
363EA
330
2
100
AcDbEntity
  8
DETAIL
100
AcDbEllipse
 10
451.5174043876172
 20
373.1349549495491
 30
0.0
 11
0.1913663860206193
 21
0.0000000000000001
 31
0.0
210
0.0
220
0.0
230
0.9999999999999998
 40
0.5773502699999682
 41
2.861820933580248
 42
6.562957027189128
  0
LINE
  5
363EB
330
2
100
AcDbEntity
  8
DETAIL
100
AcDbLine
 10
451.2922674628872
 20
373.1349549495491
 30
0.0
 11
451.2922674628872
 21
372.9836928188863
 31
0.0
  0
LINE
  5
363EC
330
2
100
AcDbEntity
  8
DETAIL
100
AcDbLine
 10
451.7425413123477
 20
373.1349549495491
 30
0.0
 11
451.7425413123477
 21
372.9836928188863
 31
0.0
  0
ELLIPSE
  5
363ED
330
2
100
AcDbEntity
  8
DETAIL
100
AcDbEllipse
 10
451.5174043876172
 20
373.1349549495491
 30
0.0
 11
0.2251369247301834
 21
0.0
 31
0.0
210
0.0
220
0.0
230
-1.0
 40
0.5773502699999879
 41
2.861820933580238
 42
6.562957027189137
  0
ELLIPSE
  5
363EE
330
2
100
AcDbEntity
  8
DETAIL
100
AcDbEllipse
 10
451.5174043876172
 20
373.1349549495491
 30
0.0
 11
-0.2251369247301834
 21
0.0
 31
0.0
210
0.0
220
0.0
230
1.0
 40
0.5773502699999879
 41
-0.2797717200095531
 42
3.421364373599345
  0
ARC
  5
363EF
330
2
100
AcDbEntity
  8
DETAIL
100
AcDbCircle
 10
451.5400685541155
 20
372.7483752338653
 30
0.0
 40
0.5066515022161734
100
AcDbArc
 50
58.13881431004668
 51
79.38373661744148
  0
LINE
  5
363F0
330
2
100
AcDbEntity
  8
DETAIL
100
AcDbLine
 10
451.9126425642602
 20
372.9521626404629
 30
0.0
 11
451.9126425642602
 21
372.7832071809058
 31
0.0
  0
ARC
  5
363F1
330
2
100
AcDbEntity
  8
DETAIL
100
AcDbCircle
 10
451.3580497635216
 20
372.3564986051368
 30
0.0
 40
0.5062055599970372
100
AcDbArc
 50
58.11731741478513
 51
104.2947288112189
  0
ELLIPSE
  5
363F2
330
2
100
AcDbEntity
  8
DETAIL
100
AcDbEllipse
 10
451.7690304236366
 20
372.5543113804645
 30
0.0
 11
0.217960509017982
 21
0.3775181146269295
 31
0.0
210
0.0
220
0.0
230
1.0
 40
0.577350269189287
 41
0.3007402093806015
 42
1.270057603529948
  0
ARC
  5
363F3
330
2
100
AcDbEntity
  8
DETAIL
100
AcDbCircle
 10
451.4581091587529
 20
372.8788720996153
 30
0.0
 40
0.4604043006964722
100
AcDbArc
 50
9.15973030544622
 51
40.63245097252866
  0
ELLIPSE
  5
363F4
330
2
100
AcDbEntity
  8
DETAIL
100
AcDbEllipse
 10
451.5174043876172
 20
373.0642489631132
 30
0.0
 11
-0.264866970270805
 21
0.0000000000000018
 31
0.0
210
0.0
220
0.0
230
1.0
 40
0.5773502699999666
 41
-0.560098263342371
 42
1.5707963267949
  0
ELLIPSE
  5
363F5
330
2
100
AcDbEntity
  8
DETAIL
100
AcDbEllipse
 10
451.5174043876172
 20
373.0642489631132
 30
0.0
 11
0.264866970270805
 21
0.0000000000000018
 31
0.0
210
0.0
220
0.0
230
-1.0
 40
0.5773502699999666
 41
-0.560098263342371
 42
1.5707963267949
  0
LINE
  5
363F6
330
2
100
AcDbEntity
  8
DETAIL
100
AcDbLine
 10
450.5735138275678
 20
372.9557646222992
 30
0.0
 11
450.5735138275678
 21
372.9237646222994
 31
0.0
  0
ELLIPSE
  5
363F7
330
2
100
AcDbEntity
  8
DETAIL
100
AcDbEllipse
 10
451.38411360551
 20
373.3597646222992
 30
0.0
 11
0.0391918336000064
 21
0.0678822400000118
 31
0.0
210
0.0
220
0.0
230
1.0
 40
0.5773502699998812
 41
-0.0006261475085132
 42
0.7849536732057505
  0
SPLINE
  5
363F8
330
2
100
AcDbEntity
  8
DETAIL
  6
Continuous
100
AcDbSpline
210
0.0
220
0.0
230
1.0
 70
     8
 71
     3
 72
    11
 73
     7
 74
     0
 42
0.0000000001
 43
0.0000000001
 40
0.3951355017811419
 40
0.3951355017811419
 40
0.3951355017811419
 40
0.3951355017811419
 40
0.7527818840921637
 40
1.729814074456597
 40
2.672839507816417
 40
3.473041413488911
 40
3.473041413488911
 40
3.473041413488911
 40
3.473041413488911
 10
448.5664754327706
 20
371.7087649483075
 30
0.0
 10
448.5304528449334
 20
371.5937699950258
 30
0.0
 10
448.4551353007876
 20
371.1686958000795
 30
0.0
 10
449.0438162624258
 20
370.492644623706
 30
0.0
 10
448.6008542285501
 20
369.4847058087682
 30
0.0
 10
449.0668066025714
 20
369.0855680508379
 30
0.0
 10
449.3088732981651
 20
368.9116240722204
 30
0.0
  0
LINE
  5
363F9
330
2
100
AcDbEntity
  8
DETAIL
100
AcDbLine
 10
453.2439850196103
 20
372.0543040468978
 30
0.0
 11
452.9192254931913
 21
371.8668040468978
 31
0.0
  0
LINE
  5
363FA
330
2
100
AcDbEntity
  8
DETAIL
100
AcDbLine
 10
452.9192254931913
 20
372.0543040468978
 30
0.0
 11
453.2439850196103
 21
371.8668040468978
 31
0.0
  0
ELLIPSE
  5
363FC
330
2
100
AcDbEntity
  8
DETAIL
100
AcDbEllipse
 10
472.2075669744038
 20
338.3394526751597
 30
0.0
 11
0.2251369247301398
 21
0.0
 31
0.0
210
0.0
220
0.0
230
-1.0
 40
0.5773502700000001
 41
2.861820933580241
 42
6.562957027189137
  0
ARC
  5
363FD
330
2
100
AcDbEntity
  8
DETAIL
100
AcDbCircle
 10
471.4686917995257
 20
337.9782384417059
 30
0.0
 40
0.4604043006961624
100
AcDbArc
 50
9.159730305432816
 51
40.63245097252866
  0
ARC
  5
363FE
330
2
100
AcDbEntity
  8
DETAIL
100
AcDbCircle
 10
472.2726272270196
 20
338.1823907125153
 30
0.0
 40
0.4604043006961624
100
AcDbArc
 50
189.1597303054329
 51
220.6324509725286
  0
LINE
  5
363FF
330
2
100
AcDbEntity
  8
DETAIL
100
AcDbLine
 10
471.8180938215126
 20
338.2780556312247
 30
0.0
 11
471.8180938215126
 21
338.1091001716677
 31
0.0
  0
ELLIPSE
  5
36400
330
2
100
AcDbEntity
  8
DETAIL
100
AcDbEllipse
 10
472.2075669744038
 20
338.2687466887237
 30
0.0
 11
0.2648669702707527
 21
0.0
 31
0.0
210
0.0
220
0.0
230
1.0
 40
0.5773502700000001
 41
2.581494390247443
 42
4.712388980384688
  0
ELLIPSE
  5
36401
330
2
100
AcDbEntity
  8
DETAIL
100
AcDbEllipse
 10
472.2075669744038
 20
338.2687466887237
 30
0.0
 11
-0.2648669702707527
 21
0.0
 31
0.0
210
0.0
220
0.0
230
-1.0
 40
0.5773502700000001
 41
2.581494390247443
 42
4.712388980384688
  0
ELLIPSE
  5
36402
330
2
100
AcDbEntity
  8
DETAIL
100
AcDbEllipse
 10
472.4591930104231
 20
337.7588091060752
 30
0.0
 11
0.2179605090179453
 21
0.3775181146268528
 31
0.0
210
0.0
220
0.0
230
1.0
 40
0.5773502691892954
 41
0.300740209380618
 42
1.270057603529946
  0
LINE
  5
36403
330
2
100
AcDbEntity
  8
DETAIL
100
AcDbLine
 10
472.6028051510466
 20
338.1566603660735
 30
0.0
 11
472.6028051510466
 21
337.9877049065165
 31
0.0
  0
ARC
  5
36404
330
2
100
AcDbEntity
  8
DETAIL
100
AcDbCircle
 10
472.1905937245243
 20
338.3124085422267
 30
0.0
 40
0.5062055599969426
100
AcDbArc
 50
238.1173174147851
 51
284.294728811219
  0
ARC
  5
36405
330
2
100
AcDbEntity
  8
DETAIL
100
AcDbCircle
 10
472.0482123503082
 20
337.5609963307475
 30
0.0
 40
0.5062055599969426
100
AcDbArc
 50
58.11731741478513
 51
104.2947288112189
  0
LINE
  5
36406
330
2
100
AcDbEntity
  8
DETAIL
100
AcDbLine
 10
471.9232252050327
 20
338.0515289825535
 30
0.0
 11
471.9232252050327
 21
337.8825735229964
 31
0.0
  0
LINE
  5
36407
330
2
100
AcDbEntity
  8
DETAIL
100
AcDbLine
 10
472.3155808697996
 20
337.9908313499778
 30
0.0
 11
472.3155808697996
 21
337.8218758904209
 31
0.0
  0
ELLIPSE
  5
36408
330
2
100
AcDbEntity
  8
DETAIL
100
AcDbEllipse
 10
472.4591930104231
 20
338.219727150419
 30
0.0
 11
0.2179605088731445
 21
0.3775181146573731
 31
0.0
210
0.0
220
0.0
230
1.0
 40
0.5773502691893208
 41
3.442332862444229
 42
4.411650256900776
  0
ELLIPSE
  5
36409
330
2
100
AcDbEntity
  8
DETAIL
100
AcDbEllipse
 10
472.2075669744038
 20
338.3394526751597
 30
0.0
 11
0.2251369247301398
 21
0.0
 31
0.0
210
0.0
220
0.0
230
1.0
 40
0.5773502700000001
 41
2.861820933580241
 42
6.562957027189137
  0
LINE
  5
3640A
330
2
100
AcDbEntity
  8
DETAIL
100
AcDbLine
 10
471.9824300496736
 20
338.3394526751597
 30
0.0
 11
471.9824300496736
 21
338.1881905444969
 31
0.0
  0
LINE
  5
3640B
330
2
100
AcDbEntity
  8
DETAIL
100
AcDbLine
 10
472.4327038991339
 20
338.3394526751597
 30
0.0
 11
472.4327038991339
 21
338.1881905444969
 31
0.0
  0
ARC
  5
3640C
330
2
100
AcDbEntity
  8
DETAIL
100
AcDbCircle
 10
472.1482717455393
 20
338.0833698252259
 30
0.0
 40
0.4604043006963863
100
AcDbArc
 50
9.15973030544622
 51
40.63245097252614
  0
ARC
  5
3640D
330
2
100
AcDbEntity
  8
DETAIL
100
AcDbCircle
 10
472.1464933202224
 20
338.0409090464703
 30
0.0
 40
0.4050737382422295
100
AcDbArc
 50
102.8213528199153
 51
144.1658823347701
  0
ARC
  5
36420
330
2
100
AcDbEntity
  8
DETAIL
100
AcDbCircle
 10
472.2302311409018
 20
337.9528729594759
 30
0.0
 40
0.5066515022160788
100
AcDbArc
 50
58.13881431004668
 51
79.38373661744847
  0
ELLIPSE
  5
36422
330
2
100
AcDbEntity
  8
DETAIL
100
AcDbEllipse
 10
492.0892731276132
 20
349.7815809618429
 30
0.0
 11
0.2251369247301398
 21
0.0
 31
0.0
210
0.0
220
0.0
230
-1.0
 40
0.5773502700000001
 41
2.861820933580241
 42
6.562957027189137
  0
ARC
  5
36423
330
2
100
AcDbEntity
  8
DETAIL
100
AcDbCircle
 10
491.3503979527349
 20
349.420366728389
 30
0.0
 40
0.4604043006961624
100
AcDbArc
 50
9.159730305432816
 51
40.63245097252866
  0
ARC
  5
36424
330
2
100
AcDbEntity
  8
DETAIL
100
AcDbCircle
 10
492.1543333802288
 20
349.6245189991983
 30
0.0
 40
0.4604043006961624
100
AcDbArc
 50
189.1597303054329
 51
220.6324509725286
  0
LINE
  5
36425
330
2
100
AcDbEntity
  8
DETAIL
100
AcDbLine
 10
491.6997999747218
 20
349.7201839179078
 30
0.0
 11
491.6997999747218
 21
349.5512284583508
 31
0.0
  0
ELLIPSE
  5
36426
330
2
100
AcDbEntity
  8
DETAIL
100
AcDbEllipse
 10
492.0892731276132
 20
349.710874975407
 30
0.0
 11
0.2648669702707527
 21
0.0
 31
0.0
210
0.0
220
0.0
230
1.0
 40
0.5773502700000001
 41
2.581494390247443
 42
4.712388980384688
  0
ELLIPSE
  5
36427
330
2
100
AcDbEntity
  8
DETAIL
100
AcDbEllipse
 10
492.0892731276132
 20
349.710874975407
 30
0.0
 11
-0.2648669702707527
 21
0.0
 31
0.0
210
0.0
220
0.0
230
-1.0
 40
0.5773502700000001
 41
2.581494390247443
 42
4.712388980384688
  0
ELLIPSE
  5
36428
330
2
100
AcDbEntity
  8
DETAIL
100
AcDbEllipse
 10
492.3408991636322
 20
349.2009373927584
 30
0.0
 11
0.2179605090179453
 21
0.3775181146268528
 31
0.0
210
0.0
220
0.0
230
1.0
 40
0.5773502691892954
 41
0.300740209380618
 42
1.270057603529946
  0
LINE
  5
36429
330
2
100
AcDbEntity
  8
DETAIL
100
AcDbLine
 10
492.4845113042557
 20
349.5987886527566
 30
0.0
 11
492.4845113042557
 21
349.4298331931997
 31
0.0
  0
ARC
  5
3642A
330
2
100
AcDbEntity
  8
DETAIL
100
AcDbCircle
 10
492.0722998777335
 20
349.7545368289099
 30
0.0
 40
0.5062055599969426
100
AcDbArc
 50
238.1173174147851
 51
284.294728811219
  0
ARC
  5
3642B
330
2
100
AcDbEntity
  8
DETAIL
100
AcDbCircle
 10
491.9299185035172
 20
349.0031246174307
 30
0.0
 40
0.5062055599969426
100
AcDbArc
 50
58.11731741478513
 51
104.2947288112189
  0
LINE
  5
3642C
330
2
100
AcDbEntity
  8
DETAIL
100
AcDbLine
 10
491.804931358242
 20
349.4936572692366
 30
0.0
 11
491.804931358242
 21
349.3247018096797
 31
0.0
  0
LINE
  5
3642D
330
2
100
AcDbEntity
  8
DETAIL
100
AcDbLine
 10
492.1972870230089
 20
349.4329596366608
 30
0.0
 11
492.1972870230089
 21
349.264004177104
 31
0.0
  0
ELLIPSE
  5
3642E
330
2
100
AcDbEntity
  8
DETAIL
100
AcDbEllipse
 10
492.3408991636322
 20
349.6618554371021
 30
0.0
 11
0.2179605088731445
 21
0.3775181146573731
 31
0.0
210
0.0
220
0.0
230
1.0
 40
0.5773502691893208
 41
3.442332862444229
 42
4.411650256900776
  0
ELLIPSE
  5
3642F
330
2
100
AcDbEntity
  8
DETAIL
100
AcDbEllipse
 10
492.0892731276132
 20
349.7815809618429
 30
0.0
 11
0.2251369247301398
 21
0.0
 31
0.0
210
0.0
220
0.0
230
1.0
 40
0.5773502700000001
 41
2.861820933580241
 42
6.562957027189137
  0
LINE
  5
36430
330
2
100
AcDbEntity
  8
DETAIL
100
AcDbLine
 10
491.864136202883
 20
349.7815809618429
 30
0.0
 11
491.864136202883
 21
349.63031883118
 31
0.0
  0
LINE
  5
36431
330
2
100
AcDbEntity
  8
DETAIL
100
AcDbLine
 10
492.3144100523431
 20
349.7815809618429
 30
0.0
 11
492.3144100523431
 21
349.63031883118
 31
0.0
  0
ARC
  5
36432
330
2
100
AcDbEntity
  8
DETAIL
100
AcDbCircle
 10
492.0299778987486
 20
349.525498111909
 30
0.0
 40
0.4604043006963863
100
AcDbArc
 50
9.15973030544622
 51
40.63245097252614
  0
ARC
  5
36433
330
2
100
AcDbEntity
  8
DETAIL
100
AcDbCircle
 10
492.0281994734317
 20
349.4830373331536
 30
0.0
 40
0.4050737382422295
100
AcDbArc
 50
102.8213528199153
 51
144.1658823347701
  0
ARC
  5
36446
330
2
100
AcDbEntity
  8
DETAIL
100
AcDbCircle
 10
492.111937294111
 20
349.3950012461592
 30
0.0
 40
0.5066515022160788
100
AcDbArc
 50
58.13881431004668
 51
79.38373661744847
  0
LINE
  5
3644A
330
2
100
AcDbEntity
  8
DETAIL
100
AcDbLine
 10
453.6585531797264
 20
349.1746163188517
 30
0.0
 11
471.6529310226902
 21
359.5636752103867
 31
0.0
  0
LINE
  5
3644B
330
2
100
AcDbEntity
  8
DETAIL
100
AcDbLine
 10
453.6862659926442
 20
349.1586163188499
 30
0.0
 11
471.6529310226902
 21
359.5316752103867
 31
0.0
  0
LINE
  5
3644C
330
2
100
AcDbEntity
  8
DETAIL
100
AcDbLine
 10
453.1978400031161
 20
349.4406091954497
 30
0.0
 11
471.2476434575495
 21
359.8616680786867
 31
0.0
  0
LINE
  5
3644D
330
2
100
AcDbEntity
  8
DETAIL
100
AcDbLine
 10
453.3086912547873
 20
349.3766091954422
 30
0.0
 11
471.3030690833917
 21
359.7656680786867
 31
0.0
  0
LINE
  5
3644E
330
2
100
AcDbEntity
  8
DETAIL
100
AcDbLine
 10
452.3318022813035
 20
349.9406163073847
 30
0.0
 11
471.3566483684154
 21
360.92461631707
 31
0.0
  0
LINE
  5
3644F
330
2
100
AcDbEntity
  8
DETAIL
100
AcDbLine
 10
452.3595150942211
 20
349.9246163073828
 30
0.0
 11
471.3843611813365
 21
360.90861631707
 31
0.0
  0
LINE
  5
36450
330
2
100
AcDbEntity
  8
DETAIL
100
AcDbLine
 10
450.5997514739391
 20
350.9406163075028
 30
0.0
 11
469.6245975608465
 21
361.92461631707
 31
0.0
  0
ARC
  5
3645E
330
2
100
AcDbEntity
  8
DETAIL
100
AcDbCircle
 10
471.3972409664641
 20
361.4402522006979
 30
0.0
 40
0.1586456038630306
100
AcDbArc
 50
18.38362174873326
 51
161.6163782512594
  0
ARC
  5
3646C
330
2
100
AcDbEntity
  8
DETAIL
100
AcDbCircle
 10
470.3442108494758
 20
362.0482194222058
 30
0.0
 40
0.1586456038630306
100
AcDbArc
 50
18.38362174873326
 51
161.6163782512594
  0
ELLIPSE
  5
3646D
330
2
100
AcDbEntity
  8
DETAIL
100
AcDbEllipse
 10
471.3030690833917
 20
359.8296680786867
 30
0.0
 11
-0.0391918336000432
 21
0.067882240000062
 31
0.0
210
0.0
220
0.0
230
1.0
 40
0.5773502699995098
 41
0.7852500000003624
 42
2.356046326793687
  0
LINE
  5
3646E
330
2
100
AcDbEntity
  8
DETAIL
100
AcDbLine
 10
471.2476434642221
 20
359.8616775539278
 30
0.0
 11
471.2476434642221
 21
360.829682306291
 31
0.0
  0
LINE
  5
3646F
330
2
100
AcDbEntity
  8
DETAIL
100
AcDbLine
 10
471.652931008372
 20
359.5636752021201
 30
0.0
 11
471.652931008372
 21
359.5316752021201
 31
0.0
  0
LINE
  5
36470
330
2
100
AcDbEntity
  8
DETAIL
100
AcDbLine
 10
471.3030690833917
 20
359.7656680786867
 30
0.0
 11
471.652931008372
 21
359.5636752021201
 31
0.0
  0
ARC
  5
3647E
330
2
100
AcDbEntity
  8
DETAIL
100
AcDbCircle
 10
451.60341645764
 20
349.9198386315633
 30
0.0
 40
0.1586456038630306
100
AcDbArc
 50
18.38362174873326
 51
161.6163782512594
  0
ARC
  5
3648C
330
2
100
AcDbEntity
  8
DETAIL
100
AcDbCircle
 10
450.5503863406516
 20
350.5278058530714
 30
0.0
 40
0.1586456038630306
100
AcDbArc
 50
18.38362174873326
 51
161.6163782512594
  0
LINE
  5
36493
330
2
100
AcDbEntity
  8
PANEL
100
AcDbLine
 10
523.1394615049524
 20
374.9632993026659
 30
0.0
 11
523.1394615049524
 21
362.579299302666
 31
0.0
  0
LINE
  5
36494
330
2
100
AcDbEntity
  8
DETAIL
100
AcDbLine
 10
520.8274930648509
 20
363.149299302666
 30
0.0
 11
520.8274930648504
 21
374.3932993026659
 31
0.0
  0
LINE
  5
36495
330
2
100
AcDbEntity
  8
DETAIL
100
AcDbLine
 10
519.4512164951913
 20
363.149299302666
 30
0.0
 11
519.4512164951921
 21
374.3932993026659
 31
0.0
  0
LINE
  5
36496
330
2
100
AcDbEntity
  8
PANEL
100
AcDbLine
 10
523.1394615049524
 20
362.7712993026658
 30
0.0
 11
497.5346815673993
 21
362.7712993026658
 31
0.0
  0
LINE
  5
36497
330
2
100
AcDbEntity
  8
PANEL
100
AcDbLine
 10
523.1394615049524
 20
362.579299302666
 30
0.0
 11
497.5346815673993
 21
362.579299302666
 31
0.0
  0
LINE
  5
36499
330
2
100
AcDbEntity
  8
DETAIL
100
AcDbLine
 10
519.661802564367
 20
362.35769285547
 30
0.0
 11
519.6618025643671
 21
362.1991571894894
 31
0.0
  0
LINE
  5
3649A
330
2
100
AcDbEntity
  8
DETAIL
100
AcDbLine
 10
519.1842503487428
 20
362.3576928554699
 30
0.0
 11
519.1842503487428
 21
362.1991571894894
 31
0.0
  0
LINE
  5
3649B
330
2
100
AcDbEntity
  8
DETAIL
100
AcDbLine
 10
519.3122100792685
 20
362.1244517311296
 30
0.0
 11
519.1842503487428
 21
362.1991571894894
 31
0.0
  0
ARC
  5
3649C
330
2
100
AcDbEntity
  8
DETAIL
100
AcDbCircle
 10
519.423026456555
 20
362.5433965883387
 30
0.0
 40
0.4189448572091227
100
AcDbArc
 50
235.2535127434491
 51
304.7464872565509
  0
LINE
  5
3649D
330
2
100
AcDbEntity
  8
DETAIL
100
AcDbLine
 10
519.3122100792683
 20
362.4323983138298
 30
0.0
 11
519.1842503487428
 21
362.35769285547
 31
0.0
  0
ARC
  5
3649E
330
2
100
AcDbEntity
  8
DETAIL
100
AcDbCircle
 10
519.4230264565549
 20
362.0134534566207
 30
0.0
 40
0.4189448572091227
100
AcDbArc
 50
55.25351274344906
 51
124.7464872565509
  0
LINE
  5
3649F
330
2
100
AcDbEntity
  8
DETAIL
100
AcDbLine
 10
519.5393547800313
 20
360.5092517311297
 30
0.0
 11
519.6689547800316
 21
360.6244517311296
 31
0.0
  0
LINE
  5
364A0
330
2
100
AcDbEntity
  8
DETAIL
100
AcDbLine
 10
519.6689547800316
 20
360.6244517311296
 30
0.0
 11
519.5393547800313
 21
360.7444517311295
 31
0.0
  0
LINE
  5
364A1
330
2
100
AcDbEntity
  8
DETAIL
100
AcDbLine
 10
521.0944592113199
 20
362.3576928554702
 30
0.0
 11
521.0944592113202
 21
362.1991571894893
 31
0.0
  0
LINE
  5
364A2
330
2
100
AcDbEntity
  8
DETAIL
100
AcDbLine
 10
520.6169069956755
 20
362.1991571894893
 30
0.0
 11
520.6169069956753
 21
362.35769285547
 31
0.0
  0
LINE
  5
364A3
330
2
100
AcDbEntity
  8
DETAIL
100
AcDbLine
 10
520.9664994807946
 20
362.1244517311295
 30
0.0
 11
521.0944592113202
 21
362.1991571894893
 31
0.0
  0
ARC
  5
364A4
330
2
100
AcDbEntity
  8
DETAIL
100
AcDbCircle
 10
520.8556831034876
 20
362.5433965883387
 30
0.0
 40
0.4189448572091227
100
AcDbArc
 50
235.2535127434491
 51
304.7464872565509
  0
LINE
  5
364A5
330
2
100
AcDbEntity
  8
DETAIL
100
AcDbLine
 10
520.9664994807943
 20
362.43239831383
 30
0.0
 11
521.0944592113199
 21
362.3576928554701
 31
0.0
  0
ARC
  5
364A6
330
2
100
AcDbEntity
  8
DETAIL
100
AcDbCircle
 10
520.8556831034874
 20
362.0134534566207
 30
0.0
 40
0.4189448572091227
100
AcDbArc
 50
55.25351274344906
 51
124.7464872565509
  0
LINE
  5
364A7
330
2
100
AcDbEntity
  8
DETAIL
100
AcDbLine
 10
520.7393547800316
 20
360.6244517311296
 30
0.0
 11
520.6097547800315
 21
360.7444517311297
 31
0.0
  0
LINE
  5
364A8
330
2
100
AcDbEntity
  8
DETAIL
100
AcDbLine
 10
520.6097547800315
 20
360.5092517311297
 30
0.0
 11
520.7393547800316
 21
360.6244517311296
 31
0.0
  0
LINE
  5
364A9
330
2
100
AcDbEntity
  8
DETAIL
100
AcDbLine
 10
519.6529450945563
 20
362.1244517311119
 30
0.0
 11
519.5504575054582
 21
361.9594517311119
 31
0.0
  0
ARC
  5
364AA
330
2
100
AcDbEntity
  8
DETAIL
100
AcDbCircle
 10
519.265483596596
 20
361.7532930600463
 30
0.0
 40
0.3517264937244202
100
AcDbArc
 50
35.88310505405374
 51
129.132882267155
  0
ARC
  5
364AB
330
2
100
AcDbEntity
  8
DETAIL
100
AcDbCircle
 10
521.0132259634669
 20
361.7532930600463
 30
0.0
 40
0.3517264937244202
100
AcDbArc
 50
50.86711773284498
 51
144.1168949459461
  0
ARC
  5
364AC
330
2
100
AcDbEntity
  8
DETAIL
100
AcDbCircle
 10
520.1393547800314
 20
360.8410383240181
 30
0.0
 40
1.263981229752666
100
AcDbArc
 50
62.23108460215321
 51
117.7689153978468
  0
LINE
  5
364AD
330
2
100
AcDbEntity
  8
DETAIL
100
AcDbLine
 10
520.6257644655066
 20
362.1244517311119
 30
0.0
 11
520.7282520546049
 21
361.9594517311119
 31
0.0
  0
LINE
  5
364AE
330
2
100
AcDbEntity
  8
DETAIL
100
AcDbLine
 10
519.1643547800315
 20
362.1244517311119
 30
0.0
 11
518.9615602308847
 21
361.9594517311119
 31
0.0
  0
LINE
  5
364AF
330
2
100
AcDbEntity
  8
DETAIL
100
AcDbLine
 10
518.9615602308847
 20
361.9594517311119
 30
0.0
 11
518.9615602308847
 21
361.3594517311119
 31
0.0
  0
LINE
  5
364B0
330
2
100
AcDbEntity
  8
DETAIL
100
AcDbLine
 10
519.5504575054582
 20
361.9594517311119
 30
0.0
 11
519.5504575054582
 21
361.3594517311119
 31
0.0
  0
LINE
  5
364B1
330
2
100
AcDbEntity
  8
DETAIL
100
AcDbLine
 10
520.7282520546049
 20
361.9594517311119
 30
0.0
 11
520.7282520546049
 21
361.3594517311119
 31
0.0
  0
LINE
  5
364B2
330
2
100
AcDbEntity
  8
DETAIL
100
AcDbLine
 10
521.3171493291784
 20
361.9594517311119
 30
0.0
 11
521.3171493291784
 21
361.3594517311119
 31
0.0
  0
LINE
  5
364B3
330
2
100
AcDbEntity
  8
DETAIL
100
AcDbLine
 10
521.1143547800315
 20
362.1244517311119
 30
0.0
 11
521.3171493291784
 21
361.9594517311119
 31
0.0
  0
ARC
  5
364B4
330
2
100
AcDbEntity
  8
DETAIL
100
AcDbCircle
 10
519.265483596596
 20
361.5656104021774
 30
0.0
 40
0.3517264937244202
100
AcDbArc
 50
230.867117732845
 51
324.1168949459462
  0
LINE
  5
364B5
330
2
100
AcDbEntity
  8
DETAIL
100
AcDbLine
 10
519.6529450945563
 20
361.1944517311119
 30
0.0
 11
519.5504575054582
 21
361.3594517311119
 31
0.0
  0
LINE
  5
364B6
330
2
100
AcDbEntity
  8
DETAIL
100
AcDbLine
 10
520.6257644655066
 20
361.1944517311119
 30
0.0
 11
520.7282520546049
 21
361.3594517311119
 31
0.0
  0
ARC
  5
364B7
330
2
100
AcDbEntity
  8
DETAIL
100
AcDbCircle
 10
520.1393547800314
 20
362.4778651382058
 30
0.0
 40
1.263981229752666
100
AcDbArc
 50
242.2310846021532
 51
297.7689153978497
  0
ARC
  5
364B8
330
2
100
AcDbEntity
  8
DETAIL
100
AcDbCircle
 10
521.0132259634669
 20
361.5656104021774
 30
0.0
 40
0.3517264937244202
100
AcDbArc
 50
215.8831050540538
 51
309.132882267155
  0
LINE
  5
364B9
330
2
100
AcDbEntity
  8
DETAIL
100
AcDbLine
 10
519.1643547800315
 20
361.1944517311119
 30
0.0
 11
518.9615602308847
 21
361.3594517311119
 31
0.0
  0
LINE
  5
364BA
330
2
100
AcDbEntity
  8
DETAIL
100
AcDbLine
 10
521.1143547800315
 20
361.1944517311119
 30
0.0
 11
521.3171493291784
 21
361.3594517311119
 31
0.0
  0
LINE
  5
364BB
330
2
100
AcDbEntity
  8
DETAIL
100
AcDbLine
 10
519.3893547800314
 20
360.7444517311119
 30
0.0
 11
519.783715103281
 21
360.7444517311119
 31
0.0
  0
LINE
  5
364BC
330
2
100
AcDbEntity
  8
DETAIL
100
AcDbLine
 10
519.8356766275078
 20
360.7444517311119
 30
0.0
 11
520.4430329325552
 21
360.7444517311119
 31
0.0
  0
LINE
  5
364BD
330
2
100
AcDbEntity
  8
DETAIL
100
AcDbLine
 10
520.494994456782
 20
360.7444517311119
 30
0.0
 11
520.8893547800314
 21
360.7444517311119
 31
0.0
  0
LINE
  5
364BE
330
2
100
AcDbEntity
  8
DETAIL
100
AcDbLine
 10
519.1643547800315
 20
361.1944517311119
 30
0.0
 11
521.1143547800315
 21
361.1944517311119
 31
0.0
  0
LINE
  5
364BF
330
2
100
AcDbEntity
  8
DETAIL
100
AcDbLine
 10
519.1643547800315
 20
362.1244517311119
 30
0.0
 11
521.1143547800315
 21
362.1244517311119
 31
0.0
  0
ARC
  5
364C0
330
2
100
AcDbEntity
  8
DETAIL
100
AcDbCircle
 10
519.3893547800314
 20
360.9694517311119
 30
0.0
 40
0.2250000000000085
100
AcDbArc
 50
180.0
 51
270.0
  0
LINE
  5
364C1
330
2
100
AcDbEntity
  8
DETAIL
100
AcDbLine
 10
519.1643547800315
 20
361.1944517311119
 30
0.0
 11
519.1643547800315
 21
360.9694517311119
 31
0.0
  0
LINE
  5
364C2
330
2
100
AcDbEntity
  8
DETAIL
100
AcDbLine
 10
521.1143547800315
 20
361.1944517311119
 30
0.0
 11
521.1143547800315
 21
360.9694517311119
 31
0.0
  0
ARC
  5
364C3
330
2
100
AcDbEntity
  8
DETAIL
100
AcDbCircle
 10
520.8893547800314
 20
360.9694517311119
 30
0.0
 40
0.2250000000000085
100
AcDbArc
 50
270.0
 51
0.0
  0
ARC
  5
36500
330
2
100
AcDbEntity
  8
DETAIL
100
AcDbCircle
 10
520.1393547800213
 20
363.6881729722522
 30
0.0
 40
1.56372124114031
100
AcDbArc
 50
252.2180870290693
 51
287.7819129709306
  0
ARC
  5
36503
330
2
100
AcDbEntity
  8
DETAIL
100
AcDbCircle
 10
520.1393547800212
 20
360.8686770727072
 30
0.0
 40
1.56372124114031
100
AcDbArc
 50
72.2180870290693
 51
107.7819129709307
  0
LINE
  5
36504
330
2
100
AcDbEntity
  8
DETAIL
100
AcDbLine
 10
520.9664994807943
 20
362.43239831383
 30
0.0
 11
519.3122100792683
 21
362.4323983138298
 31
0.0
  0
LINE
  5
36505
330
2
100
AcDbEntity
  8
DETAIL
100
AcDbLine
 10
520.6097547800315
 20
360.5092517311297
 30
0.0
 11
519.5393547800313
 21
360.5092517311297
 31
0.0
  0
LINE
  5
36506
330
2
100
AcDbEntity
  8
DETAIL
100
AcDbLine
 10
520.6097547800315
 20
360.5092517311297
 30
0.0
 11
519.6689547800316
 21
360.6292517311296
 31
0.0
  0
LINE
  5
36508
330
2
100
AcDbEntity
  8
DETAIL
100
AcDbLine
 10
519.6689547800315
 20
377.0789468742021
 30
0.0
 11
519.5393547800313
 21
377.1989468742021
 31
0.0
  0
LINE
  5
36509
330
2
100
AcDbEntity
  8
DETAIL
100
AcDbLine
 10
520.7393547800315
 20
377.0789468742021
 30
0.0
 11
520.6097547800314
 21
377.1989468742021
 31
0.0
  0
LINE
  5
3650A
330
2
100
AcDbEntity
  8
PANEL
100
AcDbLine
 10
523.1394615049524
 20
374.7712993026659
 30
0.0
 11
497.5346815673993
 21
374.7712993026659
 31
0.0
  0
LINE
  5
3650B
330
2
100
AcDbEntity
  8
PANEL
100
AcDbLine
 10
523.1394615049524
 20
374.9632993026659
 30
0.0
 11
497.5346815673993
 21
374.9632993026661
 31
0.0
  0
LINE
  5
3650D
330
2
100
AcDbEntity
  8
DETAIL
100
AcDbLine
 10
519.5393547800313
 20
376.4885468742022
 30
0.0
 11
519.6689547800315
 21
376.6037468742021
 31
0.0
  0
LINE
  5
3650E
330
2
100
AcDbEntity
  8
DETAIL
100
AcDbLine
 10
519.6689547800315
 20
376.3685468742022
 30
0.0
 11
519.5393547800313
 21
376.4885468742022
 31
0.0
  0
LINE
  5
3650F
330
2
100
AcDbEntity
  8
DETAIL
100
AcDbLine
 10
519.5393547800313
 20
376.2485468742022
 30
0.0
 11
519.6689547800315
 21
376.3685468742022
 31
0.0
  0
LINE
  5
36510
330
2
100
AcDbEntity
  8
DETAIL
100
AcDbLine
 10
519.6689547800315
 20
375.8933468742022
 30
0.0
 11
519.5393547800313
 21
376.0133468742022
 31
0.0
  0
LINE
  5
36511
330
2
100
AcDbEntity
  8
DETAIL
100
AcDbLine
 10
519.5393547800313
 20
375.7733468742022
 30
0.0
 11
519.6689547800315
 21
375.8933468742022
 31
0.0
  0
LINE
  5
36512
330
2
100
AcDbEntity
  8
DETAIL
100
AcDbLine
 10
519.5393547800313
 20
376.0133468742022
 30
0.0
 11
519.6689547800315
 21
376.1285468742024
 31
0.0
  0
LINE
  5
36513
330
2
100
AcDbEntity
  8
DETAIL
100
AcDbLine
 10
519.6689547800315
 20
376.1285468742024
 30
0.0
 11
519.5393547800313
 21
376.2485468742022
 31
0.0
  0
LINE
  5
36514
330
2
100
AcDbEntity
  8
DETAIL
100
AcDbLine
 10
519.5393547800313
 20
376.7237468742024
 30
0.0
 11
519.6689547800315
 21
376.8437468742022
 31
0.0
  0
LINE
  5
36515
330
2
100
AcDbEntity
  8
DETAIL
100
AcDbLine
 10
519.6689547800315
 20
376.6037468742021
 30
0.0
 11
519.5393547800313
 21
376.7237468742024
 31
0.0
  0
LINE
  5
36516
330
2
100
AcDbEntity
  8
DETAIL
100
AcDbLine
 10
519.5393547800313
 20
376.9637468742022
 30
0.0
 11
519.6689547800315
 21
377.0789468742021
 31
0.0
  0
LINE
  5
36517
330
2
100
AcDbEntity
  8
DETAIL
100
AcDbLine
 10
519.6689547800315
 20
376.8437468742022
 30
0.0
 11
519.5393547800313
 21
376.9637468742022
 31
0.0
  0
LINE
  5
36518
330
2
100
AcDbEntity
  8
DETAIL
100
AcDbLine
 10
520.6097547800314
 20
376.4885468742022
 30
0.0
 11
520.7393547800315
 21
376.6037468742021
 31
0.0
  0
LINE
  5
36519
330
2
100
AcDbEntity
  8
DETAIL
100
AcDbLine
 10
520.7393547800315
 20
376.3685468742022
 30
0.0
 11
520.6097547800314
 21
376.4885468742022
 31
0.0
  0
LINE
  5
3651A
330
2
100
AcDbEntity
  8
DETAIL
100
AcDbLine
 10
520.6097547800314
 20
376.2485468742022
 30
0.0
 11
520.7393547800315
 21
376.3685468742022
 31
0.0
  0
LINE
  5
3651B
330
2
100
AcDbEntity
  8
DETAIL
100
AcDbLine
 10
520.7393547800315
 20
375.8933468742022
 30
0.0
 11
520.6097547800314
 21
376.0133468742022
 31
0.0
  0
LINE
  5
3651C
330
2
100
AcDbEntity
  8
DETAIL
100
AcDbLine
 10
520.6097547800314
 20
375.7733468742022
 30
0.0
 11
520.7393547800315
 21
375.8933468742022
 31
0.0
  0
LINE
  5
3651D
330
2
100
AcDbEntity
  8
DETAIL
100
AcDbLine
 10
520.6097547800314
 20
376.0133468742022
 30
0.0
 11
520.7393547800315
 21
376.1285468742024
 31
0.0
  0
LINE
  5
3651E
330
2
100
AcDbEntity
  8
DETAIL
100
AcDbLine
 10
520.7393547800315
 20
376.1285468742024
 30
0.0
 11
520.6097547800314
 21
376.2485468742022
 31
0.0
  0
LINE
  5
3651F
330
2
100
AcDbEntity
  8
DETAIL
100
AcDbLine
 10
520.6097547800314
 20
376.7237468742024
 30
0.0
 11
520.7393547800315
 21
376.8437468742022
 31
0.0
  0
LINE
  5
36520
330
2
100
AcDbEntity
  8
DETAIL
100
AcDbLine
 10
520.7393547800315
 20
376.6037468742021
 30
0.0
 11
520.6097547800314
 21
376.7237468742024
 31
0.0
  0
LINE
  5
36521
330
2
100
AcDbEntity
  8
DETAIL
100
AcDbLine
 10
520.6097547800314
 20
376.9637468742022
 30
0.0
 11
520.7393547800315
 21
377.0789468742021
 31
0.0
  0
LINE
  5
36522
330
2
100
AcDbEntity
  8
DETAIL
100
AcDbLine
 10
520.7393547800315
 20
376.8437468742022
 30
0.0
 11
520.6097547800314
 21
376.9637468742022
 31
0.0
  0
LINE
  5
36523
330
2
100
AcDbEntity
  8
DETAIL
100
AcDbLine
 10
520.6097547800314
 20
376.4885468742022
 30
0.0
 11
519.6689547800315
 21
376.6085468742022
 31
0.0
  0
LINE
  5
36524
330
2
100
AcDbEntity
  8
DETAIL
100
AcDbLine
 10
520.6097547800314
 20
376.2485468742022
 30
0.0
 11
519.6689547800315
 21
376.3685468742022
 31
0.0
  0
LINE
  5
36525
330
2
100
AcDbEntity
  8
DETAIL
100
AcDbLine
 10
520.6097547800314
 20
375.7733468742022
 30
0.0
 11
519.6689547800315
 21
375.8933468742022
 31
0.0
  0
LINE
  5
36526
330
2
100
AcDbEntity
  8
DETAIL
100
AcDbLine
 10
520.6097547800314
 20
376.0133468742022
 30
0.0
 11
519.6689547800315
 21
376.1333468742023
 31
0.0
  0
LINE
  5
36527
330
2
100
AcDbEntity
  8
DETAIL
100
AcDbLine
 10
520.6097547800314
 20
376.7237468742024
 30
0.0
 11
519.6689547800315
 21
376.8437468742022
 31
0.0
  0
LINE
  5
36528
330
2
100
AcDbEntity
  8
DETAIL
100
AcDbLine
 10
520.6097547800314
 20
376.9637468742022
 30
0.0
 11
519.6689547800315
 21
377.0837468742022
 31
0.0
  0
LINE
  5
36529
330
2
100
AcDbEntity
  8
DETAIL
100
AcDbLine
 10
519.6689547800315
 20
375.4181468742022
 30
0.0
 11
519.5393547800313
 21
375.5381468742024
 31
0.0
  0
LINE
  5
3652A
330
2
100
AcDbEntity
  8
DETAIL
100
AcDbLine
 10
519.5393547800313
 20
375.5381468742024
 30
0.0
 11
519.6689547800315
 21
375.6533468742022
 31
0.0
  0
LINE
  5
3652B
330
2
100
AcDbEntity
  8
DETAIL
100
AcDbLine
 10
519.1842503487428
 20
375.184905749862
 30
0.0
 11
519.1842503487428
 21
375.3434414158423
 31
0.0
  0
LINE
  5
3652C
330
2
100
AcDbEntity
  8
DETAIL
100
AcDbLine
 10
519.661802564367
 20
375.1849057498619
 30
0.0
 11
519.661802564367
 21
375.3434414158423
 31
0.0
  0
ARC
  5
3652D
330
2
100
AcDbEntity
  8
DETAIL
100
AcDbCircle
 10
519.4230264565549
 20
374.9992020169931
 30
0.0
 40
0.4189448572091227
100
AcDbArc
 50
55.25351274344906
 51
124.7464872565509
  0
LINE
  5
3652E
330
2
100
AcDbEntity
  8
DETAIL
100
AcDbLine
 10
519.3122100792683
 20
375.4181468742022
 30
0.0
 11
519.1842503487428
 21
375.3434414158423
 31
0.0
  0
ARC
  5
3652F
330
2
100
AcDbEntity
  8
DETAIL
100
AcDbCircle
 10
519.4230264565549
 20
375.5291451487112
 30
0.0
 40
0.4189448572091227
100
AcDbArc
 50
235.2535127434491
 51
304.7464872565509
  0
LINE
  5
36530
330
2
100
AcDbEntity
  8
DETAIL
100
AcDbLine
 10
519.3122100792683
 20
375.1102002915022
 30
0.0
 11
519.1842503487428
 21
375.1849057498619
 31
0.0
  0
LINE
  5
36531
330
2
100
AcDbEntity
  8
DETAIL
100
AcDbLine
 10
520.9664994807943
 20
375.4181468742022
 30
0.0
 11
521.0944592113199
 21
375.3434414158423
 31
0.0
  0
LINE
  5
36532
330
2
100
AcDbEntity
  8
DETAIL
100
AcDbLine
 10
521.0944592113199
 20
375.1849057498617
 30
0.0
 11
521.0944592113199
 21
375.3434414158423
 31
0.0
  0
LINE
  5
36533
330
2
100
AcDbEntity
  8
DETAIL
100
AcDbLine
 10
520.6169069956753
 20
375.3434414158423
 30
0.0
 11
520.6169069956753
 21
375.1849057498619
 31
0.0
  0
LINE
  5
36534
330
2
100
AcDbEntity
  8
DETAIL
100
AcDbLine
 10
520.6097547800314
 20
375.5381468742024
 30
0.0
 11
520.7393547800315
 21
375.6533468742022
 31
0.0
  0
LINE
  5
36535
330
2
100
AcDbEntity
  8
DETAIL
100
AcDbLine
 10
520.7393547800315
 20
375.4181468742022
 30
0.0
 11
520.6097547800314
 21
375.5381468742024
 31
0.0
  0
ARC
  5
36536
330
2
100
AcDbEntity
  8
DETAIL
100
AcDbCircle
 10
520.8556831034874
 20
374.9992020169931
 30
0.0
 40
0.4189448572091227
100
AcDbArc
 50
55.25351274344906
 51
124.7464872565509
  0
LINE
  5
36537
330
2
100
AcDbEntity
  8
DETAIL
100
AcDbLine
 10
520.9664994807943
 20
375.1102002915018
 30
0.0
 11
521.0944592113199
 21
375.1849057498619
 31
0.0
  0
ARC
  5
36538
330
2
100
AcDbEntity
  8
DETAIL
100
AcDbCircle
 10
520.8556831034874
 20
375.5291451487112
 30
0.0
 40
0.4189448572091227
100
AcDbArc
 50
235.2535127434491
 51
304.7464872565509
  0
LINE
  5
3653A
330
2
100
AcDbEntity
  8
DETAIL
100
AcDbLine
 10
520.6097547800314
 20
375.5381468742024
 30
0.0
 11
519.6689547800315
 21
375.6581468742021
 31
0.0
  0
ARC
  5
3653B
330
2
100
AcDbEntity
  8
DETAIL
100
AcDbCircle
 10
520.1393547800212
 20
373.8544256330795
 30
0.0
 40
1.56372124114031
100
AcDbArc
 50
72.2180870290693
 51
107.7819129709307
  0
LINE
  5
3653C
330
2
100
AcDbEntity
  8
DETAIL
100
AcDbLine
 10
520.9664994807943
 20
375.4181468742022
 30
0.0
 11
519.3122100792683
 21
375.4181468742022
 31
0.0
  0
LINE
  5
3653D
330
2
100
AcDbEntity
  8
DETAIL
100
AcDbLine
 10
520.9664994807943
 20
375.1102002915018
 30
0.0
 11
519.3122100792683
 21
375.1102002915022
 31
0.0
  0
ARC
  5
3653E
330
2
100
AcDbEntity
  8
DETAIL
100
AcDbCircle
 10
520.1393547800212
 20
376.6739215326247
 30
0.0
 40
1.56372124114031
100
AcDbArc
 50
252.2180870290693
 51
287.7819129709306
  0
LINE
  5
36540
330
2
100
AcDbEntity
  8
DETAIL
100
AcDbLine
 10
519.6689547800315
 20
375.6533468742022
 30
0.0
 11
519.5393547800313
 21
375.7733468742022
 31
0.0
  0
LINE
  5
36541
330
2
100
AcDbEntity
  8
DETAIL
100
AcDbLine
 10
520.7393547800315
 20
375.6533468742022
 30
0.0
 11
520.6097547800314
 21
375.7733468742022
 31
0.0
  0
LINE
  5
36542
330
2
100
AcDbEntity
  8
DETAIL
100
AcDbLine
 10
519.5393547800313
 20
381.2405468742022
 30
0.0
 11
519.6689547800315
 21
381.3557468742022
 31
0.0
  0
LINE
  5
36543
330
2
100
AcDbEntity
  8
DETAIL
100
AcDbLine
 10
519.5393547800313
 20
381.0005468742021
 30
0.0
 11
519.6689547800315
 21
381.1205468742021
 31
0.0
  0
LINE
  5
36544
330
2
100
AcDbEntity
  8
DETAIL
100
AcDbLine
 10
519.6689547800315
 20
381.1205468742021
 30
0.0
 11
519.5393547800313
 21
381.2405468742022
 31
0.0
  0
LINE
  5
36545
330
2
100
AcDbEntity
  8
DETAIL
100
AcDbLine
 10
519.6689547800315
 20
382.0709468742022
 30
0.0
 11
519.5393547800313
 21
382.1909468742022
 31
0.0
  0
LINE
  5
36546
330
2
100
AcDbEntity
  8
DETAIL
100
AcDbLine
 10
519.5393547800313
 20
381.4757468742022
 30
0.0
 11
519.6689547800315
 21
381.5957468742021
 31
0.0
  0
LINE
  5
36547
330
2
100
AcDbEntity
  8
DETAIL
100
AcDbLine
 10
519.6689547800315
 20
381.3557468742022
 30
0.0
 11
519.5393547800313
 21
381.4757468742022
 31
0.0
  0
LINE
  5
36548
330
2
100
AcDbEntity
  8
DETAIL
100
AcDbLine
 10
519.6689547800315
 20
381.8309468742021
 30
0.0
 11
519.5393547800313
 21
381.9509468742022
 31
0.0
  0
LINE
  5
36549
330
2
100
AcDbEntity
  8
DETAIL
100
AcDbLine
 10
519.5393547800313
 20
381.7157468742021
 30
0.0
 11
519.6689547800315
 21
381.8309468742021
 31
0.0
  0
LINE
  5
3654A
330
2
100
AcDbEntity
  8
DETAIL
100
AcDbLine
 10
519.6689547800315
 20
381.5957468742021
 30
0.0
 11
519.5393547800313
 21
381.7157468742021
 31
0.0
  0
LINE
  5
3654B
330
2
100
AcDbEntity
  8
DETAIL
100
AcDbLine
 10
519.5393547800313
 20
381.9509468742022
 30
0.0
 11
519.6689547800315
 21
382.0709468742022
 31
0.0
  0
LINE
  5
3654C
330
2
100
AcDbEntity
  8
DETAIL
100
AcDbLine
 10
519.6689547800315
 20
382.3061468742022
 30
0.0
 11
519.5393547800313
 21
382.4261468742021
 31
0.0
  0
LINE
  5
3654D
330
2
100
AcDbEntity
  8
DETAIL
100
AcDbLine
 10
519.5393547800313
 20
382.1909468742022
 30
0.0
 11
519.6689547800315
 21
382.3061468742022
 31
0.0
  0
LINE
  5
3654E
330
2
100
AcDbEntity
  8
DETAIL
100
AcDbLine
 10
519.5393547800313
 20
382.9013468742021
 30
0.0
 11
519.6689547800315
 21
383.021346874202
 31
0.0
  0
LINE
  5
3654F
330
2
100
AcDbEntity
  8
DETAIL
100
AcDbLine
 10
519.6689547800315
 20
383.021346874202
 30
0.0
 11
519.5393547800313
 21
383.1413468742022
 31
0.0
  0
LINE
  5
36550
330
2
100
AcDbEntity
  8
DETAIL
100
AcDbLine
 10
519.6689547800315
 20
382.5461468742022
 30
0.0
 11
519.5393547800313
 21
382.6661468742022
 31
0.0
  0
LINE
  5
36551
330
2
100
AcDbEntity
  8
DETAIL
100
AcDbLine
 10
519.5393547800313
 20
382.6661468742022
 30
0.0
 11
519.6689547800315
 21
382.7813468742021
 31
0.0
  0
LINE
  5
36552
330
2
100
AcDbEntity
  8
DETAIL
100
AcDbLine
 10
519.6689547800315
 20
382.7813468742021
 30
0.0
 11
519.5393547800313
 21
382.9013468742021
 31
0.0
  0
LINE
  5
36553
330
2
100
AcDbEntity
  8
DETAIL
100
AcDbLine
 10
519.5393547800313
 20
382.4261468742021
 30
0.0
 11
519.6689547800315
 21
382.5461468742022
 31
0.0
  0
LINE
  5
36554
330
2
100
AcDbEntity
  8
DETAIL
100
AcDbLine
 10
520.7393547800315
 20
381.5957468742021
 30
0.0
 11
520.6097547800314
 21
381.7157468742021
 31
0.0
  0
LINE
  5
36555
330
2
100
AcDbEntity
  8
DETAIL
100
AcDbLine
 10
520.6097547800314
 20
381.9509468742022
 30
0.0
 11
520.7393547800315
 21
382.0709468742022
 31
0.0
  0
LINE
  5
36556
330
2
100
AcDbEntity
  8
DETAIL
100
AcDbLine
 10
520.6097547800314
 20
381.2405468742022
 30
0.0
 11
520.7393547800315
 21
381.3557468742022
 31
0.0
  0
LINE
  5
36557
330
2
100
AcDbEntity
  8
DETAIL
100
AcDbLine
 10
520.6097547800314
 20
381.0005468742021
 30
0.0
 11
520.7393547800315
 21
381.1205468742021
 31
0.0
  0
LINE
  5
36558
330
2
100
AcDbEntity
  8
DETAIL
100
AcDbLine
 10
520.7393547800315
 20
381.1205468742021
 30
0.0
 11
520.6097547800314
 21
381.2405468742022
 31
0.0
  0
LINE
  5
36559
330
2
100
AcDbEntity
  8
DETAIL
100
AcDbLine
 10
520.7393547800315
 20
382.0709468742022
 30
0.0
 11
520.6097547800314
 21
382.1909468742022
 31
0.0
  0
LINE
  5
3655A
330
2
100
AcDbEntity
  8
DETAIL
100
AcDbLine
 10
520.6097547800314
 20
381.4757468742022
 30
0.0
 11
520.7393547800315
 21
381.5957468742021
 31
0.0
  0
LINE
  5
3655B
330
2
100
AcDbEntity
  8
DETAIL
100
AcDbLine
 10
520.7393547800315
 20
381.3557468742022
 30
0.0
 11
520.6097547800314
 21
381.4757468742022
 31
0.0
  0
LINE
  5
3655C
330
2
100
AcDbEntity
  8
DETAIL
100
AcDbLine
 10
520.7393547800315
 20
381.8309468742021
 30
0.0
 11
520.6097547800314
 21
381.9509468742022
 31
0.0
  0
LINE
  5
3655D
330
2
100
AcDbEntity
  8
DETAIL
100
AcDbLine
 10
520.6097547800314
 20
381.7157468742021
 30
0.0
 11
520.7393547800315
 21
381.8309468742021
 31
0.0
  0
LINE
  5
3655E
330
2
100
AcDbEntity
  8
DETAIL
100
AcDbLine
 10
520.7393547800315
 20
383.021346874202
 30
0.0
 11
520.6097547800314
 21
383.1413468742022
 31
0.0
  0
LINE
  5
3655F
330
2
100
AcDbEntity
  8
DETAIL
100
AcDbLine
 10
520.6097547800314
 20
382.9013468742021
 30
0.0
 11
520.7393547800315
 21
383.021346874202
 31
0.0
  0
LINE
  5
36560
330
2
100
AcDbEntity
  8
DETAIL
100
AcDbLine
 10
520.6097547800314
 20
382.4261468742021
 30
0.0
 11
520.7393547800315
 21
382.5461468742022
 31
0.0
  0
LINE
  5
36561
330
2
100
AcDbEntity
  8
DETAIL
100
AcDbLine
 10
520.6097547800314
 20
382.6661468742022
 30
0.0
 11
520.7393547800315
 21
382.7813468742021
 31
0.0
  0
LINE
  5
36562
330
2
100
AcDbEntity
  8
DETAIL
100
AcDbLine
 10
520.7393547800315
 20
382.5461468742022
 30
0.0
 11
520.6097547800314
 21
382.6661468742022
 31
0.0
  0
LINE
  5
36563
330
2
100
AcDbEntity
  8
DETAIL
100
AcDbLine
 10
520.7393547800315
 20
382.7813468742021
 30
0.0
 11
520.6097547800314
 21
382.9013468742021
 31
0.0
  0
LINE
  5
36564
330
2
100
AcDbEntity
  8
DETAIL
100
AcDbLine
 10
520.7393547800315
 20
382.3061468742022
 30
0.0
 11
520.6097547800314
 21
382.4261468742021
 31
0.0
  0
LINE
  5
36565
330
2
100
AcDbEntity
  8
DETAIL
100
AcDbLine
 10
520.6097547800314
 20
382.1909468742022
 30
0.0
 11
520.7393547800315
 21
382.3061468742022
 31
0.0
  0
LINE
  5
36566
330
2
100
AcDbEntity
  8
DETAIL
100
AcDbLine
 10
520.6097547800314
 20
381.2405468742022
 30
0.0
 11
519.6689547800315
 21
381.3605468742021
 31
0.0
  0
LINE
  5
36567
330
2
100
AcDbEntity
  8
DETAIL
100
AcDbLine
 10
520.6097547800314
 20
381.0005468742021
 30
0.0
 11
519.6689547800315
 21
381.1205468742021
 31
0.0
  0
LINE
  5
36568
330
2
100
AcDbEntity
  8
DETAIL
100
AcDbLine
 10
520.6097547800314
 20
381.7157468742021
 30
0.0
 11
519.6689547800315
 21
381.8357468742021
 31
0.0
  0
LINE
  5
36569
330
2
100
AcDbEntity
  8
DETAIL
100
AcDbLine
 10
520.6097547800314
 20
381.4757468742022
 30
0.0
 11
519.6689547800315
 21
381.5957468742021
 31
0.0
  0
LINE
  5
3656A
330
2
100
AcDbEntity
  8
DETAIL
100
AcDbLine
 10
520.6097547800314
 20
381.9509468742022
 30
0.0
 11
519.6689547800315
 21
382.0709468742022
 31
0.0
  0
LINE
  5
3656B
330
2
100
AcDbEntity
  8
DETAIL
100
AcDbLine
 10
520.6097547800314
 20
382.9013468742021
 30
0.0
 11
519.6689547800315
 21
383.021346874202
 31
0.0
  0
LINE
  5
3656C
330
2
100
AcDbEntity
  8
DETAIL
100
AcDbLine
 10
520.6097547800314
 20
382.6661468742022
 30
0.0
 11
519.6689547800315
 21
382.7861468742022
 31
0.0
  0
LINE
  5
3656D
330
2
100
AcDbEntity
  8
DETAIL
100
AcDbLine
 10
520.6097547800314
 20
382.1909468742022
 30
0.0
 11
519.6689547800315
 21
382.3109468742021
 31
0.0
  0
LINE
  5
3656E
330
2
100
AcDbEntity
  8
DETAIL
100
AcDbLine
 10
520.6097547800314
 20
382.4261468742021
 30
0.0
 11
519.6689547800315
 21
382.5461468742022
 31
0.0
  0
LINE
  5
3656F
330
2
100
AcDbEntity
  8
DETAIL
100
AcDbLine
 10
519.5393547800313
 20
380.7653468742022
 30
0.0
 11
519.6689547800315
 21
380.8805468742022
 31
0.0
  0
LINE
  5
36571
330
2
100
AcDbEntity
  8
DETAIL
100
AcDbLine
 10
519.5393547800313
 20
380.0501468742022
 30
0.0
 11
519.6689547800315
 21
380.1701468742022
 31
0.0
  0
LINE
  5
36572
330
2
100
AcDbEntity
  8
DETAIL
100
AcDbLine
 10
519.6689547800315
 20
379.9301468742022
 30
0.0
 11
519.5393547800313
 21
380.0501468742022
 31
0.0
  0
LINE
  5
36573
330
2
100
AcDbEntity
  8
DETAIL
100
AcDbLine
 10
519.5393547800313
 20
379.8149468742022
 30
0.0
 11
519.6689547800315
 21
379.9301468742022
 31
0.0
  0
LINE
  5
36574
330
2
100
AcDbEntity
  8
DETAIL
100
AcDbLine
 10
519.5393547800313
 20
379.5749468742022
 30
0.0
 11
519.6689547800315
 21
379.6949468742021
 31
0.0
  0
LINE
  5
36575
330
2
100
AcDbEntity
  8
DETAIL
100
AcDbLine
 10
519.6689547800315
 20
379.6949468742021
 30
0.0
 11
519.5393547800313
 21
379.8149468742022
 31
0.0
  0
LINE
  5
36576
330
2
100
AcDbEntity
  8
DETAIL
100
AcDbLine
 10
519.6689547800315
 20
379.2197468742024
 30
0.0
 11
519.5393547800313
 21
379.3397468742023
 31
0.0
  0
LINE
  5
36577
330
2
100
AcDbEntity
  8
DETAIL
100
AcDbLine
 10
519.5393547800313
 20
379.3397468742023
 30
0.0
 11
519.6689547800315
 21
379.4549468742022
 31
0.0
  0
LINE
  5
36578
330
2
100
AcDbEntity
  8
DETAIL
100
AcDbLine
 10
519.6689547800315
 20
379.4549468742022
 30
0.0
 11
519.5393547800313
 21
379.5749468742022
 31
0.0
  0
LINE
  5
36579
330
2
100
AcDbEntity
  8
DETAIL
100
AcDbLine
 10
519.6689547800315
 20
380.6453468742022
 30
0.0
 11
519.5393547800313
 21
380.7653468742022
 31
0.0
  0
LINE
  5
3657A
330
2
100
AcDbEntity
  8
DETAIL
100
AcDbLine
 10
519.6689547800315
 20
380.4053468742022
 30
0.0
 11
519.5393547800313
 21
380.5253468742021
 31
0.0
  0
LINE
  5
3657B
330
2
100
AcDbEntity
  8
DETAIL
100
AcDbLine
 10
519.5393547800313
 20
380.5253468742021
 30
0.0
 11
519.6689547800315
 21
380.6453468742022
 31
0.0
  0
LINE
  5
3657C
330
2
100
AcDbEntity
  8
DETAIL
100
AcDbLine
 10
519.5393547800313
 20
380.2901468742022
 30
0.0
 11
519.6689547800315
 21
380.4053468742022
 31
0.0
  0
LINE
  5
3657D
330
2
100
AcDbEntity
  8
DETAIL
100
AcDbLine
 10
519.6689547800315
 20
380.1701468742022
 30
0.0
 11
519.5393547800313
 21
380.2901468742022
 31
0.0
  0
LINE
  5
3657E
330
2
100
AcDbEntity
  8
DETAIL
100
AcDbLine
 10
519.6689547800315
 20
378.9797468742021
 30
0.0
 11
519.5393547800313
 21
379.0997468742022
 31
0.0
  0
LINE
  5
3657F
330
2
100
AcDbEntity
  8
DETAIL
100
AcDbLine
 10
519.5393547800313
 20
378.8645468742022
 30
0.0
 11
519.6689547800315
 21
378.9797468742021
 31
0.0
  0
LINE
  5
36580
330
2
100
AcDbEntity
  8
DETAIL
100
AcDbLine
 10
519.6689547800315
 20
378.7445468742022
 30
0.0
 11
519.5393547800313
 21
378.8645468742022
 31
0.0
  0
LINE
  5
36581
330
2
100
AcDbEntity
  8
DETAIL
100
AcDbLine
 10
519.6689547800315
 20
378.5045468742022
 30
0.0
 11
519.5393547800313
 21
378.6245468742023
 31
0.0
  0
LINE
  5
36582
330
2
100
AcDbEntity
  8
DETAIL
100
AcDbLine
 10
519.5393547800313
 20
378.6245468742023
 30
0.0
 11
519.6689547800315
 21
378.7445468742022
 31
0.0
  0
LINE
  5
36583
330
2
100
AcDbEntity
  8
DETAIL
100
AcDbLine
 10
519.5393547800313
 20
379.0997468742022
 30
0.0
 11
519.6689547800315
 21
379.2197468742024
 31
0.0
  0
LINE
  5
36584
330
2
100
AcDbEntity
  8
DETAIL
100
AcDbLine
 10
519.5393547800313
 20
377.9141468742022
 30
0.0
 11
519.6689547800315
 21
378.0293468742024
 31
0.0
  0
LINE
  5
36585
330
2
100
AcDbEntity
  8
DETAIL
100
AcDbLine
 10
519.5393547800313
 20
377.6741468742022
 30
0.0
 11
519.6689547800315
 21
377.7941468742022
 31
0.0
  0
LINE
  5
36586
330
2
100
AcDbEntity
  8
DETAIL
100
AcDbLine
 10
519.5393547800313
 20
377.4389468742024
 30
0.0
 11
519.6689547800315
 21
377.5541468742022
 31
0.0
  0
LINE
  5
36587
330
2
100
AcDbEntity
  8
DETAIL
100
AcDbLine
 10
519.6689547800315
 20
377.5541468742022
 30
0.0
 11
519.5393547800313
 21
377.6741468742022
 31
0.0
  0
LINE
  5
36588
330
2
100
AcDbEntity
  8
DETAIL
100
AcDbLine
 10
519.6689547800315
 20
377.3189468742022
 30
0.0
 11
519.5393547800313
 21
377.4389468742024
 31
0.0
  0
LINE
  5
36589
330
2
100
AcDbEntity
  8
DETAIL
100
AcDbLine
 10
519.5393547800313
 20
377.1989468742021
 30
0.0
 11
519.6689547800315
 21
377.3189468742022
 31
0.0
  0
LINE
  5
3658A
330
2
100
AcDbEntity
  8
DETAIL
100
AcDbLine
 10
519.6689547800315
 20
377.7941468742022
 30
0.0
 11
519.5393547800313
 21
377.9141468742022
 31
0.0
  0
LINE
  5
3658B
330
2
100
AcDbEntity
  8
DETAIL
100
AcDbLine
 10
519.5393547800313
 20
378.1493468742022
 30
0.0
 11
519.6689547800315
 21
378.2693468742022
 31
0.0
  0
LINE
  5
3658C
330
2
100
AcDbEntity
  8
DETAIL
100
AcDbLine
 10
519.6689547800315
 20
378.0293468742024
 30
0.0
 11
519.5393547800313
 21
378.1493468742022
 31
0.0
  0
LINE
  5
3658D
330
2
100
AcDbEntity
  8
DETAIL
100
AcDbLine
 10
519.6689547800315
 20
378.2693468742022
 30
0.0
 11
519.5393547800313
 21
378.3893468742022
 31
0.0
  0
LINE
  5
3658E
330
2
100
AcDbEntity
  8
DETAIL
100
AcDbLine
 10
519.5393547800313
 20
378.3893468742022
 30
0.0
 11
519.6689547800315
 21
378.5045468742022
 31
0.0
  0
LINE
  5
3658F
330
2
100
AcDbEntity
  8
DETAIL
100
AcDbLine
 10
520.6097547800314
 20
380.7653468742022
 30
0.0
 11
520.7393547800315
 21
380.8805468742022
 31
0.0
  0
LINE
  5
36590
330
2
100
AcDbEntity
  8
DETAIL
100
AcDbLine
 10
520.6097547800314
 20
380.0501468742022
 30
0.0
 11
520.7393547800315
 21
380.1701468742022
 31
0.0
  0
LINE
  5
36591
330
2
100
AcDbEntity
  8
DETAIL
100
AcDbLine
 10
520.7393547800315
 20
379.9301468742022
 30
0.0
 11
520.6097547800314
 21
380.0501468742022
 31
0.0
  0
LINE
  5
36592
330
2
100
AcDbEntity
  8
DETAIL
100
AcDbLine
 10
520.6097547800314
 20
379.8149468742022
 30
0.0
 11
520.7393547800315
 21
379.9301468742022
 31
0.0
  0
LINE
  5
36593
330
2
100
AcDbEntity
  8
DETAIL
100
AcDbLine
 10
520.6097547800314
 20
379.5749468742022
 30
0.0
 11
520.7393547800315
 21
379.6949468742021
 31
0.0
  0
LINE
  5
36594
330
2
100
AcDbEntity
  8
DETAIL
100
AcDbLine
 10
520.7393547800315
 20
379.6949468742021
 30
0.0
 11
520.6097547800314
 21
379.8149468742022
 31
0.0
  0
LINE
  5
36595
330
2
100
AcDbEntity
  8
DETAIL
100
AcDbLine
 10
520.6097547800314
 20
379.3397468742023
 30
0.0
 11
520.7393547800315
 21
379.4549468742022
 31
0.0
  0
LINE
  5
36596
330
2
100
AcDbEntity
  8
DETAIL
100
AcDbLine
 10
520.7393547800315
 20
379.2197468742024
 30
0.0
 11
520.6097547800314
 21
379.3397468742023
 31
0.0
  0
LINE
  5
36597
330
2
100
AcDbEntity
  8
DETAIL
100
AcDbLine
 10
520.7393547800315
 20
379.4549468742022
 30
0.0
 11
520.6097547800314
 21
379.5749468742022
 31
0.0
  0
LINE
  5
36598
330
2
100
AcDbEntity
  8
DETAIL
100
AcDbLine
 10
520.7393547800315
 20
380.6453468742022
 30
0.0
 11
520.6097547800314
 21
380.7653468742022
 31
0.0
  0
LINE
  5
36599
330
2
100
AcDbEntity
  8
DETAIL
100
AcDbLine
 10
520.7393547800315
 20
380.4053468742022
 30
0.0
 11
520.6097547800314
 21
380.5253468742021
 31
0.0
  0
LINE
  5
3659A
330
2
100
AcDbEntity
  8
DETAIL
100
AcDbLine
 10
520.6097547800314
 20
380.5253468742021
 30
0.0
 11
520.7393547800315
 21
380.6453468742022
 31
0.0
  0
LINE
  5
3659B
330
2
100
AcDbEntity
  8
DETAIL
100
AcDbLine
 10
520.7393547800315
 20
380.1701468742022
 30
0.0
 11
520.6097547800314
 21
380.2901468742022
 31
0.0
  0
LINE
  5
3659C
330
2
100
AcDbEntity
  8
DETAIL
100
AcDbLine
 10
520.6097547800314
 20
380.2901468742022
 30
0.0
 11
520.7393547800315
 21
380.4053468742022
 31
0.0
  0
LINE
  5
3659D
330
2
100
AcDbEntity
  8
DETAIL
100
AcDbLine
 10
520.7393547800315
 20
378.9797468742021
 30
0.0
 11
520.6097547800314
 21
379.0997468742022
 31
0.0
  0
LINE
  5
3659E
330
2
100
AcDbEntity
  8
DETAIL
100
AcDbLine
 10
520.6097547800314
 20
378.8645468742022
 30
0.0
 11
520.7393547800315
 21
378.9797468742021
 31
0.0
  0
LINE
  5
3659F
330
2
100
AcDbEntity
  8
DETAIL
100
AcDbLine
 10
520.7393547800315
 20
378.7445468742022
 30
0.0
 11
520.6097547800314
 21
378.8645468742022
 31
0.0
  0
LINE
  5
365A0
330
2
100
AcDbEntity
  8
DETAIL
100
AcDbLine
 10
520.7393547800315
 20
378.5045468742022
 30
0.0
 11
520.6097547800314
 21
378.6245468742023
 31
0.0
  0
LINE
  5
365A1
330
2
100
AcDbEntity
  8
DETAIL
100
AcDbLine
 10
520.6097547800314
 20
378.6245468742023
 30
0.0
 11
520.7393547800315
 21
378.7445468742022
 31
0.0
  0
LINE
  5
365A2
330
2
100
AcDbEntity
  8
DETAIL
100
AcDbLine
 10
520.6097547800314
 20
379.0997468742022
 30
0.0
 11
520.7393547800315
 21
379.2197468742024
 31
0.0
  0
LINE
  5
365A3
330
2
100
AcDbEntity
  8
DETAIL
100
AcDbLine
 10
520.6097547800314
 20
377.9141468742022
 30
0.0
 11
520.7393547800315
 21
378.0293468742024
 31
0.0
  0
LINE
  5
365A4
330
2
100
AcDbEntity
  8
DETAIL
100
AcDbLine
 10
520.7393547800315
 20
377.3189468742022
 30
0.0
 11
520.6097547800314
 21
377.4389468742024
 31
0.0
  0
LINE
  5
365A5
330
2
100
AcDbEntity
  8
DETAIL
100
AcDbLine
 10
520.6097547800314
 20
377.6741468742022
 30
0.0
 11
520.7393547800315
 21
377.7941468742022
 31
0.0
  0
LINE
  5
365A6
330
2
100
AcDbEntity
  8
DETAIL
100
AcDbLine
 10
520.6097547800314
 20
377.4389468742024
 30
0.0
 11
520.7393547800315
 21
377.5541468742022
 31
0.0
  0
LINE
  5
365A7
330
2
100
AcDbEntity
  8
DETAIL
100
AcDbLine
 10
520.7393547800315
 20
377.5541468742022
 30
0.0
 11
520.6097547800314
 21
377.6741468742022
 31
0.0
  0
LINE
  5
365A8
330
2
100
AcDbEntity
  8
DETAIL
100
AcDbLine
 10
520.6097547800314
 20
377.2037468742023
 30
0.0
 11
520.7393547800315
 21
377.3189468742022
 31
0.0
  0
LINE
  5
365A9
330
2
100
AcDbEntity
  8
DETAIL
100
AcDbLine
 10
520.7393547800315
 20
377.7941468742022
 30
0.0
 11
520.6097547800314
 21
377.9141468742022
 31
0.0
  0
LINE
  5
365AA
330
2
100
AcDbEntity
  8
DETAIL
100
AcDbLine
 10
520.6097547800314
 20
378.1493468742022
 30
0.0
 11
520.7393547800315
 21
378.2693468742022
 31
0.0
  0
LINE
  5
365AB
330
2
100
AcDbEntity
  8
DETAIL
100
AcDbLine
 10
520.7393547800315
 20
378.0293468742024
 30
0.0
 11
520.6097547800314
 21
378.1493468742022
 31
0.0
  0
LINE
  5
365AC
330
2
100
AcDbEntity
  8
DETAIL
100
AcDbLine
 10
520.7393547800315
 20
378.2693468742022
 30
0.0
 11
520.6097547800314
 21
378.3893468742022
 31
0.0
  0
LINE
  5
365AD
330
2
100
AcDbEntity
  8
DETAIL
100
AcDbLine
 10
520.6097547800314
 20
378.3893468742022
 30
0.0
 11
520.7393547800315
 21
378.5045468742022
 31
0.0
  0
LINE
  5
365AE
330
2
100
AcDbEntity
  8
DETAIL
100
AcDbLine
 10
520.6097547800314
 20
380.7653468742022
 30
0.0
 11
519.6689547800315
 21
380.8853468742022
 31
0.0
  0
LINE
  5
365AF
330
2
100
AcDbEntity
  8
DETAIL
100
AcDbLine
 10
520.6097547800314
 20
380.2901468742022
 30
0.0
 11
519.6689547800315
 21
380.4101468742022
 31
0.0
  0
LINE
  5
365B0
330
2
100
AcDbEntity
  8
DETAIL
100
AcDbLine
 10
520.6097547800314
 20
380.5253468742021
 30
0.0
 11
519.6689547800315
 21
380.6453468742022
 31
0.0
  0
LINE
  5
365B1
330
2
100
AcDbEntity
  8
DETAIL
100
AcDbLine
 10
520.6097547800314
 20
380.0501468742022
 30
0.0
 11
519.6689547800315
 21
380.1701468742022
 31
0.0
  0
LINE
  5
365B2
330
2
100
AcDbEntity
  8
DETAIL
100
AcDbLine
 10
520.6097547800314
 20
379.8149468742022
 30
0.0
 11
519.6689547800315
 21
379.9349468742022
 31
0.0
  0
LINE
  5
365B3
330
2
100
AcDbEntity
  8
DETAIL
100
AcDbLine
 10
520.6097547800314
 20
379.5749468742022
 30
0.0
 11
519.6689547800315
 21
379.6949468742021
 31
0.0
  0
LINE
  5
365B4
330
2
100
AcDbEntity
  8
DETAIL
100
AcDbLine
 10
520.6097547800314
 20
379.3397468742023
 30
0.0
 11
519.6689547800315
 21
379.4597468742022
 31
0.0
  0
LINE
  5
365B5
330
2
100
AcDbEntity
  8
DETAIL
100
AcDbLine
 10
520.6097547800314
 20
378.8645468742022
 30
0.0
 11
519.6689547800315
 21
378.9845468742022
 31
0.0
  0
LINE
  5
365B6
330
2
100
AcDbEntity
  8
DETAIL
100
AcDbLine
 10
520.6097547800314
 20
378.6245468742023
 30
0.0
 11
519.6689547800315
 21
378.7445468742022
 31
0.0
  0
LINE
  5
365B7
330
2
100
AcDbEntity
  8
DETAIL
100
AcDbLine
 10
520.6097547800314
 20
379.0997468742022
 30
0.0
 11
519.6689547800315
 21
379.2197468742024
 31
0.0
  0
LINE
  5
365B8
330
2
100
AcDbEntity
  8
DETAIL
100
AcDbLine
 10
520.6097547800314
 20
378.1493468742022
 30
0.0
 11
519.6689547800315
 21
378.2693468742022
 31
0.0
  0
LINE
  5
365B9
330
2
100
AcDbEntity
  8
DETAIL
100
AcDbLine
 10
520.6097547800314
 20
377.6741468742022
 30
0.0
 11
519.6689547800315
 21
377.7941468742022
 31
0.0
  0
LINE
  5
365BA
330
2
100
AcDbEntity
  8
DETAIL
100
AcDbLine
 10
520.6097547800314
 20
377.4389468742024
 30
0.0
 11
519.6689547800315
 21
377.5589468742022
 31
0.0
  0
LINE
  5
365BB
330
2
100
AcDbEntity
  8
DETAIL
100
AcDbLine
 10
520.6097547800314
 20
377.1989468742021
 30
0.0
 11
519.6689547800315
 21
377.3189468742022
 31
0.0
  0
LINE
  5
365BC
330
2
100
AcDbEntity
  8
DETAIL
100
AcDbLine
 10
520.6097547800314
 20
377.9141468742022
 30
0.0
 11
519.6689547800315
 21
378.0341468742022
 31
0.0
  0
LINE
  5
365BD
330
2
100
AcDbEntity
  8
DETAIL
100
AcDbLine
 10
520.6097547800314
 20
378.3893468742022
 30
0.0
 11
519.6689547800315
 21
378.5093468742022
 31
0.0
  0
LINE
  5
365BE
330
2
100
AcDbEntity
  8
DETAIL
100
AcDbLine
 10
519.6689547800315
 20
380.8805468742022
 30
0.0
 11
519.5393547800313
 21
381.0005468742021
 31
0.0
  0
LINE
  5
365BF
330
2
100
AcDbEntity
  8
DETAIL
100
AcDbLine
 10
520.7393547800315
 20
380.8805468742022
 30
0.0
 11
520.6097547800314
 21
381.0005468742021
 31
0.0
  0
LINE
  5
365D1
330
2
100
AcDbEntity
  8
DETAIL
100
AcDbLine
 10
520.6097547800314
 20
383.1413468742022
 30
0.0
 11
519.5393547800313
 21
383.1413468742022
 31
0.0
  0
ARC
  5
365D2
330
2
100
AcDbEntity
  8
DETAIL
100
AcDbCircle
 10
520.3098333425756
 20
360.7444517311119
 30
0.0
 40
0.185161114206965
100
AcDbArc
 50
0.0000000001986702
 51
2.821403287325042
  0
ARC
  5
365D3
330
2
100
AcDbEntity
  8
DETAIL
100
AcDbCircle
 10
520.4674436040614
 20
360.9694517311113
 30
0.0
 40
0.1851611142070122
100
AcDbArc
 50
0.0000000001856426
 51
8.811026168379427
  0
ARC
  5
365D4
330
2
100
AcDbEntity
  8
DETAIL
100
AcDbCircle
 10
520.546591789786
 20
360.9817201146304
 30
0.0
 40
0.1050677403383317
100
AcDbArc
 50
8.81102616829375
 51
20.5166408108112
  0
ARC
  5
365D5
330
2
100
AcDbEntity
  8
DETAIL
100
AcDbCircle
 10
520.5961598022364
 20
361.0002692457091
 30
0.0
 40
0.0521427167478123
100
AcDbArc
 50
20.5166408108112
 51
42.09581736879175
  0
ARC
  5
365D6
330
2
100
AcDbEntity
  8
DETAIL
100
AcDbCircle
 10
520.6266239561547
 20
361.0277916817612
 30
0.0
 40
0.0110872766673265
100
AcDbArc
 50
42.09581736946038
 51
137.9041803860066
  0
ARC
  5
365D8
330
2
100
AcDbEntity
  8
DETAIL
100
AcDbCircle
 10
520.6570881100724
 20
361.0002692457095
 30
0.0
 40
0.0521427167470577
100
AcDbArc
 50
137.904182631199
 51
159.483359189565
  0
ARC
  5
365D9
330
2
100
AcDbEntity
  8
DETAIL
100
AcDbCircle
 10
520.7066561225233
 20
360.9817201146309
 30
0.0
 40
0.1050677403379686
100
AcDbArc
 50
159.483359189565
 51
171.1889738321014
  0
ARC
  5
365DA
330
2
100
AcDbEntity
  8
DETAIL
100
AcDbCircle
 10
520.7858043082483
 20
360.9694517311124
 30
0.0
 40
0.1851611142069019
100
AcDbArc
 50
171.1889738320061
 51
180.0000000001985
  0
ARC
  5
365DB
330
2
100
AcDbEntity
  8
DETAIL
100
AcDbCircle
 10
519.8112659560015
 20
360.9694517311113
 30
0.0
 40
0.1851611142070122
100
AcDbArc
 50
171.1889738316205
 51
179.9999999998143
  0
ARC
  5
365DC
330
2
100
AcDbEntity
  8
DETAIL
100
AcDbCircle
 10
519.7321177702771
 20
360.9817201146304
 30
0.0
 40
0.1050677403383317
100
AcDbArc
 50
159.4833591891888
 51
171.1889738317062
  0
ARC
  5
365DD
330
2
100
AcDbEntity
  8
DETAIL
100
AcDbCircle
 10
519.6825497578267
 20
361.0002692457091
 30
0.0
 40
0.0521427167478123
100
AcDbArc
 50
137.9041826312082
 51
159.4833591891888
  0
ARC
  5
365DF
330
2
100
AcDbEntity
  8
DETAIL
100
AcDbCircle
 10
519.6520856039081
 20
361.0277916817614
 30
0.0
 40
0.0110872766671415
100
AcDbArc
 50
42.09581736873873
 51
137.9041803860066
  0
ARC
  5
365E0
330
2
100
AcDbEntity
  8
DETAIL
100
AcDbCircle
 10
519.6216214499904
 20
361.0002692457095
 30
0.0
 40
0.0521427167470577
100
AcDbArc
 50
20.51664081043496
 51
42.09581736880092
  0
ARC
  5
365E1
330
2
100
AcDbEntity
  8
DETAIL
100
AcDbCircle
 10
519.5720534375396
 20
360.9817201146309
 30
0.0
 40
0.1050677403379686
100
AcDbArc
 50
8.811026167898557
 51
20.51664081043496
  0
ARC
  5
365E2
330
2
100
AcDbEntity
  8
DETAIL
100
AcDbCircle
 10
519.4929052518147
 20
360.9694517311124
 30
0.0
 40
0.1851611142069019
100
AcDbArc
 50
359.9999999998013
 51
8.811026167993889
  0
ARC
  5
365E3
330
2
100
AcDbEntity
  8
DETAIL
100
AcDbCircle
 10
519.9688762174875
 20
360.7444517311119
 30
0.0
 40
0.185161114206965
100
AcDbArc
 50
177.1785967126749
 51
179.9999999998013
  0
LINE
  5
36621
330
2
100
AcDbEntity
  8
DETAIL
100
AcDbLine
 10
508.1609267593528
 20
373.5920602733496
 30
0.0
 11
509.3822790368705
 21
373.5920602733496
 31
0.0
1001
AcDbBlockRepETag
1070
     1
1071
        0
1005
346EB
  0
LINE
  5
36622
330
2
100
AcDbEntity
  8
DETAIL
100
AcDbLine
 10
508.0503433486661
 20
373.6654629635475
 30
0.0
 11
509.4928624475572
 21
373.6654629635475
 31
0.0
1001
AcDbBlockRepETag
1070
     1
1071
        1
1005
346EC
  0
LINE
  5
36623
330
2
100
AcDbEntity
  8
DETAIL
100
AcDbLine
 10
508.0503433486661
 20
374.3198966124694
 30
0.0
 11
509.4928624475572
 21
374.3198966124694
 31
0.0
1001
AcDbBlockRepETag
1070
     1
1071
        2
1005
346ED
  0
LINE
  5
36624
330
2
100
AcDbEntity
  8
DETAIL
100
AcDbLine
 10
508.1609267593528
 20
374.3932993026667
 30
0.0
 11
509.3822790368705
 21
374.3932993026667
 31
0.0
1001
AcDbBlockRepETag
1070
     1
1071
        3
1005
346EE
  0
LINE
  5
36625
330
2
100
AcDbEntity
  8
DETAIL
100
AcDbLine
 10
508.0216028981117
 20
374.963299302666
 30
0.0
 11
509.5216028981117
 21
374.963299302666
 31
0.0
1001
AcDbBlockRepETag
1070
     1
1071
        4
1005
346EF
  0
LINE
  5
36626
330
2
100
AcDbEntity
  8
DETAIL
100
AcDbLine
 10
508.0216028981117
 20
375.0309236077258
 30
0.0
 11
509.5216028981117
 21
375.0309236077258
 31
0.0
1001
AcDbBlockRepETag
1070
     1
1071
        5
1005
346F0
  0
LINE
  5
36627
330
2
100
AcDbEntity
  8
DETAIL
100
AcDbLine
 10
508.4020318512187
 20
375.1564597046745
 30
0.0
 11
509.1411739450045
 21
375.1564597046745
 31
0.0
1001
AcDbBlockRepETag
1070
     1
1071
        6
1005
346F1
  0
ARC
  5
36628
330
2
100
AcDbEntity
  8
DETAIL
100
AcDbCircle
 10
508.1609267593528
 20
373.7120602733494
 30
0.0
 40
0.1199999999998966
100
AcDbArc
 50
202.8494403555896
 51
270.0
1001
AcDbBlockRepETag
1070
     1
1071
        7
1005
346F2
  0
ARC
  5
36629
330
2
100
AcDbEntity
  8
DETAIL
100
AcDbCircle
 10
509.3822790368705
 20
373.7120602733494
 30
0.0
 40
0.1199999999998966
100
AcDbArc
 50
270.0
 51
337.1505596444105
1001
AcDbBlockRepETag
1070
     1
1071
        8
1005
346F3
  0
ARC
  5
3662A
330
2
100
AcDbEntity
  8
DETAIL
100
AcDbCircle
 10
508.716320783747
 20
373.9926797880087
 30
0.0
 40
0.8426670788894179
100
AcDbArc
 50
337.1505596443959
 51
22.8494403555545
1001
AcDbBlockRepETag
1070
     1
1071
        9
1005
346F4
  0
ARC
  5
3662B
330
2
100
AcDbEntity
  8
DETAIL
100
AcDbCircle
 10
508.8268850124763
 20
373.9926797880087
 30
0.0
 40
0.8426670788894178
100
AcDbArc
 50
157.150559644466
 51
202.8494403556186
1001
AcDbBlockRepETag
1070
     1
1071
       10
1005
346F5
  0
ARC
  5
3662C
330
2
100
AcDbEntity
  8
DETAIL
100
AcDbCircle
 10
508.1609267593528
 20
374.2732993026668
 30
0.0
 40
0.1199999999999465
100
AcDbArc
 50
90.0
 51
157.1505596444104
1001
AcDbBlockRepETag
1070
     1
1071
       11
1005
346F6
  0
ARC
  5
3662D
330
2
100
AcDbEntity
  8
DETAIL
100
AcDbCircle
 10
509.3822790368705
 20
374.2732993026668
 30
0.0
 40
0.1199999999999465
100
AcDbArc
 50
22.84944035558957
 51
90.0
1001
AcDbBlockRepETag
1070
     1
1071
       12
1005
346F7
  0
ARC
  5
3662E
330
2
100
AcDbEntity
  8
DETAIL
100
AcDbCircle
 10
508.7716028981117
 20
373.8603820480469
 30
0.0
 40
0.3750000000000893
100
AcDbArc
 50
225.6862194131788
 51
314.3137805866967
1001
AcDbBlockRepETag
1070
     1
1071
       13
1005
346F8
  0
LINE
  5
3662F
330
2
100
AcDbEntity
  8
DETAIL
100
AcDbLine
 10
509.5216028981117
 20
375.0309236077258
 30
0.0
 11
509.5216028981117
 21
374.963299302666
 31
0.0
1001
AcDbBlockRepETag
1070
     1
1071
       14
1005
346F9
  0
LINE
  5
36630
330
2
100
AcDbEntity
  8
DETAIL
100
AcDbLine
 10
508.0216028981117
 20
375.0309236077258
 30
0.0
 11
508.0216028981117
 21
374.963299302666
 31
0.0
1001
AcDbBlockRepETag
1070
     1
1071
       15
1005
346FA
  0
ARC
  5
36631
330
2
100
AcDbEntity
  8
DETAIL
100
AcDbCircle
 10
508.4020318512187
 20
374.5172590926592
 30
0.0
 40
0.6392006120156913
100
AcDbArc
 50
90.0
 51
126.5242974059618
1001
AcDbBlockRepETag
1070
     1
1071
       16
1005
346FB
  0
ARC
  5
36632
330
2
100
AcDbEntity
  8
DETAIL
100
AcDbCircle
 10
509.1411739450045
 20
374.5172590926592
 30
0.0
 40
0.6392006120156913
100
AcDbArc
 50
53.47570259403815
 51
90.0
1001
AcDbBlockRepETag
1070
     1
1071
       17
1005
346FC
  0
ARC
  5
366A0
330
2
100
AcDbEntity
  8
DETAIL
100
AcDbCircle
 10
450.4502633869076
 20
350.561621282097
 30
0.0
 40
0.0529701551799448
100
AcDbArc
 50
160.5048995672383
 51
215.6571314953374
  0
ARC
  5
366A2
330
2
100
AcDbEntity
  8
DETAIL
100
AcDbCircle
 10
450.4979841402398
 20
350.5958580085553
 30
0.0
 40
0.1117019501224425
100
AcDbArc
 50
215.6571298247216
 51
239.9999999999989
  0
ARC
  5
366A3
330
2
100
AcDbEntity
  8
DETAIL
100
AcDbCircle
 10
450.5296049796767
 20
350.6506269090378
 30
0.0
 40
0.1749436289960846
100
AcDbArc
 50
240.0000000000259
 51
256.5505244738666
  0
ARC
  5
366A4
330
2
100
AcDbEntity
  8
DETAIL
100
AcDbCircle
 10
450.5503863406518
 20
350.7375250126465
 30
0.0
 40
0.2642920781978579
100
AcDbArc
 50
256.5505244738184
 51
283.4494978152164
  0
ARC
  5
366A6
330
2
100
AcDbEntity
  8
DETAIL
100
AcDbCircle
 10
450.5711677016269
 20
350.6506269090378
 30
0.0
 40
0.1749436289960087
100
AcDbArc
 50
283.4494755261015
 51
299.9999999999673
  0
ARC
  5
366A7
330
2
100
AcDbEntity
  8
DETAIL
100
AcDbCircle
 10
450.6027885410635
 20
350.5958580085553
 30
0.0
 40
0.1117019501224832
100
AcDbArc
 50
299.9999999999865
 51
324.3428701752546
  0
ARC
  5
366A8
330
2
100
AcDbEntity
  8
DETAIL
100
AcDbCircle
 10
450.6505092943958
 20
350.561621282097
 30
0.0
 40
0.0529701551798462
100
AcDbArc
 50
324.3428701752556
 51
19.49510056235043
  0
ARC
  5
366AA
330
2
100
AcDbEntity
  8
DETAIL
100
AcDbCircle
 10
451.5032935038957
 20
349.953654060589
 30
0.0
 40
0.052970155179765
100
AcDbArc
 50
160.5048995672347
 51
215.6571314953374
  0
ARC
  5
366AC
330
2
100
AcDbEntity
  8
DETAIL
100
AcDbCircle
 10
451.5510142572281
 20
349.9878907870473
 30
0.0
 40
0.1117019501223963
100
AcDbArc
 50
215.6571298247386
 51
240.0000000000241
  0
ARC
  5
366AD
330
2
100
AcDbEntity
  8
DETAIL
100
AcDbCircle
 10
451.5826350966651
 20
350.0426596875299
 30
0.0
 40
0.1749436289961491
100
AcDbArc
 50
239.9999999999521
 51
256.5505244737941
  0
ARC
  5
366AE
330
2
100
AcDbEntity
  8
DETAIL
100
AcDbCircle
 10
451.6034164576399
 20
350.1295577911386
 30
0.0
 40
0.2642920781977918
100
AcDbArc
 50
256.5505244738784
 51
283.4494978152164
  0
ARC
  5
366B0
330
2
100
AcDbEntity
  8
DETAIL
100
AcDbCircle
 10
451.6241978186148
 20
350.0426596875298
 30
0.0
 40
0.1749436289960616
100
AcDbArc
 50
283.449475526174
 51
300.0000000000411
  0
ARC
  5
366B1
330
2
100
AcDbEntity
  8
DETAIL
100
AcDbCircle
 10
451.6558186580517
 20
349.9878907870473
 30
0.0
 40
0.1117019501225116
100
AcDbArc
 50
300.0000000000118
 51
324.3428701752716
  0
ARC
  5
366B2
330
2
100
AcDbEntity
  8
DETAIL
100
AcDbCircle
 10
451.7035394113841
 20
349.953654060589
 30
0.0
 40
0.0529701551798462
100
AcDbArc
 50
324.3428701752556
 51
19.49510056235043
  0
ARC
  5
366B4
330
2
100
AcDbEntity
  8
DETAIL
100
AcDbCircle
 10
470.2440878957318
 20
362.0820348512314
 30
0.0
 40
0.0529701551799448
100
AcDbArc
 50
160.5048995672383
 51
215.6571314953374
  0
ARC
  5
366B6
330
2
100
AcDbEntity
  8
DETAIL
100
AcDbCircle
 10
470.291808649064
 20
362.1162715776896
 30
0.0
 40
0.1117019501224094
100
AcDbArc
 50
215.657129824698
 51
239.9999999999843
  0
ARC
  5
366B7
330
2
100
AcDbEntity
  8
DETAIL
100
AcDbCircle
 10
470.3234294885008
 20
362.1710404781723
 30
0.0
 40
0.1749436289962607
100
AcDbArc
 50
240.0000000000377
 51
256.5505244738795
  0
ARC
  5
366B8
330
2
100
AcDbEntity
  8
DETAIL
100
AcDbCircle
 10
470.3442108494758
 20
362.2579385817809
 30
0.0
 40
0.2642920781977918
100
AcDbArc
 50
256.5505244738784
 51
283.4494978152164
  0
ARC
  5
366BA
330
2
100
AcDbEntity
  8
DETAIL
100
AcDbCircle
 10
470.3649922104509
 20
362.1710404781723
 30
0.0
 40
0.1749436289962299
100
AcDbArc
 50
283.4494755260842
 51
299.9999999999462
  0
ARC
  5
366BB
330
2
100
AcDbEntity
  8
DETAIL
100
AcDbCircle
 10
470.3966130498876
 20
362.1162715776896
 30
0.0
 40
0.1117019501224624
100
AcDbArc
 50
300.0000000000263
 51
324.3428701752953
  0
ARC
  5
366BC
330
2
100
AcDbEntity
  8
DETAIL
100
AcDbCircle
 10
470.4443338032199
 20
362.0820348512313
 30
0.0
 40
0.0529701551798131
100
AcDbArc
 50
324.3428701753056
 51
19.49510056235043
  0
ARC
  5
366BE
330
2
100
AcDbEntity
  8
DETAIL
100
AcDbCircle
 10
471.29711801272
 20
361.4740676297234
 30
0.0
 40
0.052970155179784
100
AcDbArc
 50
160.5048995671767
 51
215.6571314953374
  0
ARC
  5
366C0
330
2
100
AcDbEntity
  8
DETAIL
100
AcDbCircle
 10
471.3448387660522
 20
361.5083043561817
 30
0.0
 40
0.1117019501223632
100
AcDbArc
 50
215.657129824715
 51
240.0000000000096
  0
ARC
  5
366C1
330
2
100
AcDbEntity
  8
DETAIL
100
AcDbCircle
 10
471.3764596054893
 20
361.5630732566645
 30
0.0
 40
0.174943628996346
100
AcDbArc
 50
239.9999999999893
 51
256.5505244738296
  0
ARC
  5
366C2
330
2
100
AcDbEntity
  8
DETAIL
100
AcDbCircle
 10
471.3972409664641
 20
361.6499713602729
 30
0.0
 40
0.2642920781978471
100
AcDbArc
 50
256.5505244738812
 51
283.4494978152164
  0
ARC
  5
366C4
330
2
100
AcDbEntity
  8
DETAIL
100
AcDbCircle
 10
471.4180223274391
 20
361.5630732566645
 30
0.0
 40
0.1749436289963248
100
AcDbArc
 50
283.4494755261342
 51
299.9999999999945
  0
ARC
  5
366C5
330
2
100
AcDbEntity
  8
DETAIL
100
AcDbCircle
 10
471.4496431668761
 20
361.5083043561817
 30
0.0
 40
0.1117019501224339
100
AcDbArc
 50
300.0000000000011
 51
324.3428701752784
  0
ARC
  5
366C6
330
2
100
AcDbEntity
  8
DETAIL
100
AcDbCircle
 10
471.4973639202082
 20
361.4740676297234
 30
0.0
 40
0.0529701551798131
100
AcDbArc
 50
324.3428701753056
 51
19.49510056235043
  0
ARC
  5
366C9
330
2
100
AcDbEntity
  8
DETAIL
100
AcDbCircle
 10
492.0632964263941
 20
349.6703239281671
 30
0.0
 40
0.2186795362448267
100
AcDbArc
 50
103.4494755261399
 51
120.0000000000016
  0
ARC
  5
366CA
330
2
100
AcDbEntity
  8
DETAIL
100
AcDbCircle
 10
492.0237703770983
 20
349.7387850537702
 30
0.0
 40
0.1396274376529265
100
AcDbArc
 50
120.0000000000353
 51
144.3428701753331
  0
ARC
  5
366CB
330
2
100
AcDbEntity
  8
DETAIL
100
AcDbCircle
 10
491.9641194354329
 20
349.7815809618427
 30
0.0
 40
0.0662126939747322
100
AcDbArc
 50
144.3428701750725
 51
215.6571314953374
  0
ARC
  5
366CD
330
2
100
AcDbEntity
  8
DETAIL
100
AcDbCircle
 10
492.0237703770983
 20
349.824376869916
 30
0.0
 40
0.1396274376532136
100
AcDbArc
 50
215.6571298247534
 51
240.0000000000347
  0
ARC
  5
366CE
330
2
100
AcDbEntity
  8
DETAIL
100
AcDbCircle
 10
492.0632964263943
 20
349.8928379955188
 30
0.0
 40
0.2186795362449236
100
AcDbArc
 50
239.9999999999597
 51
256.5505244738201
  0
ARC
  5
366CF
330
2
100
AcDbEntity
  8
DETAIL
100
AcDbCircle
 10
492.0892731276132
 20
350.0014606250299
 30
0.0
 40
0.3303650977474077
100
AcDbArc
 50
256.5505244738625
 51
283.4494978152164
  0
ARC
  5
366D1
330
2
100
AcDbEntity
  8
DETAIL
100
AcDbCircle
 10
492.1152498288318
 20
349.892837995519
 30
0.0
 40
0.2186795362451717
100
AcDbArc
 50
283.4494755261336
 51
300.0000000000031
  0
ARC
  5
366D2
330
2
100
AcDbEntity
  8
DETAIL
100
AcDbCircle
 10
492.1547758781279
 20
349.8243768699158
 30
0.0
 40
0.1396274376531802
100
AcDbArc
 50
300.000000000029
 51
324.3428701752656
  0
ARC
  5
366D3
330
2
100
AcDbEntity
  8
DETAIL
100
AcDbCircle
 10
492.2144268197931
 20
349.7815809618428
 30
0.0
 40
0.0662126939748637
100
AcDbArc
 50
324.3428701753357
 51
35.65709404740069
  0
ARC
  5
366D5
330
2
100
AcDbEntity
  8
DETAIL
100
AcDbCircle
 10
492.1547758781277
 20
349.7387850537699
 30
0.0
 40
0.1396274376532728
100
AcDbArc
 50
35.65712982470722
 51
59.99999999994219
  0
ARC
  5
366D6
330
2
100
AcDbEntity
  8
DETAIL
100
AcDbCircle
 10
492.1152498288318
 20
349.6703239281668
 30
0.0
 40
0.2186795362451697
100
AcDbArc
 50
59.99999999999689
 51
76.55052447386641
  0
ARC
  5
366D7
330
2
100
AcDbEntity
  8
DETAIL
100
AcDbCircle
 10
492.0892731276133
 20
349.5617012986563
 30
0.0
 40
0.33036509774701
100
AcDbArc
 50
76.5505244738967
 51
103.4494779673736
  0
ARC
  5
366E5
330
2
100
AcDbEntity
  8
DETAIL
100
AcDbCircle
 10
490.2975128348503
 20
350.4072874038789
 30
0.0
 40
0.1586456038630306
100
AcDbArc
 50
18.38362174873329
 51
161.6163782512595
  0
ARC
  5
366E7
330
2
100
AcDbEntity
  8
DETAIL
100
AcDbCircle
 10
472.1815902731852
 20
338.2281956414839
 30
0.0
 40
0.2186795362449217
100
AcDbArc
 50
103.4494755261798
 51
120.0000000000403
  0
ARC
  5
366E8
330
2
100
AcDbEntity
  8
DETAIL
100
AcDbCircle
 10
472.1420642238891
 20
338.2966567670871
 30
0.0
 40
0.1396274376528772
100
AcDbArc
 50
120.000000000047
 51
144.3428701753521
  0
ARC
  5
366E9
330
2
100
AcDbEntity
  8
DETAIL
100
AcDbCircle
 10
472.0824132822236
 20
338.3394526751597
 30
0.0
 40
0.0662126939746991
100
AcDbArc
 50
144.3428701751124
 51
215.6571314953374
  0
ARC
  5
366EB
330
2
100
AcDbEntity
  8
DETAIL
100
AcDbCircle
 10
472.1420642238888
 20
338.3822485832328
 30
0.0
 40
0.1396274376531212
100
AcDbArc
 50
215.6571298247806
 51
240.0000000000634
  0
ARC
  5
366EC
330
2
100
AcDbEntity
  8
DETAIL
100
AcDbCircle
 10
472.1815902731852
 20
338.4507097088356
 30
0.0
 40
0.2186795362449236
100
AcDbArc
 50
239.9999999999597
 51
256.5505244738201
  0
ARC
  5
366ED
330
2
100
AcDbEntity
  8
DETAIL
100
AcDbCircle
 10
472.2075669744038
 20
338.5593323383467
 30
0.0
 40
0.3303650977473524
100
AcDbArc
 50
256.5505244738602
 51
283.4494978152164
  0
ARC
  5
366EF
330
2
100
AcDbEntity
  8
DETAIL
100
AcDbCircle
 10
472.2335436756226
 20
338.4507097088359
 30
0.0
 40
0.2186795362451717
100
AcDbArc
 50
283.4494755261336
 51
300.0000000000031
  0
ARC
  5
366F0
330
2
100
AcDbEntity
  8
DETAIL
100
AcDbCircle
 10
472.2730697249184
 20
338.3822485832327
 30
0.0
 40
0.1396274376531802
100
AcDbArc
 50
300.000000000029
 51
324.3428701752656
  0
ARC
  5
366F1
330
2
100
AcDbEntity
  8
DETAIL
100
AcDbCircle
 10
472.3327206665838
 20
338.3394526751597
 30
0.0
 40
0.0662126939748637
100
AcDbArc
 50
324.3428701753357
 51
35.65715134318026
  0
ARC
  5
366F3
330
2
100
AcDbEntity
  8
DETAIL
100
AcDbCircle
 10
472.2730697249184
 20
338.2966567670869
 30
0.0
 40
0.1396274376531804
100
AcDbArc
 50
35.65712982473441
 51
59.99999999997093
  0
ARC
  5
366F4
330
2
100
AcDbEntity
  8
DETAIL
100
AcDbCircle
 10
472.2335436756226
 20
338.2281956414836
 30
0.0
 40
0.2186795362451697
100
AcDbArc
 50
59.99999999999689
 51
76.55052447386641
  0
ARC
  5
366F5
330
2
100
AcDbEntity
  8
DETAIL
100
AcDbCircle
 10
472.207566974404
 20
338.1195730119731
 30
0.0
 40
0.33036509774701
100
AcDbArc
 50
76.5505244738967
 51
103.4494779673736
  0
ARC
  5
36703
330
2
100
AcDbEntity
  8
DETAIL
100
AcDbCircle
 10
470.4158066816411
 20
338.9651591171957
 30
0.0
 40
0.1586456038630306
100
AcDbArc
 50
18.38362174873329
 51
161.6163782512595
  0
ARC
  5
36704
330
2
100
AcDbEntity
  8
DETAIL
100
AcDbCircle
 10
451.6675888182263
 20
371.0267037610098
 30
0.0
 40
0.0794552327693192
100
AcDbArc
 50
11.61715779634886
 51
19.38149870876737
  0
ARC
  5
36705
330
2
100
AcDbEntity
  8
DETAIL
100
AcDbCircle
 10
451.3672199569938
 20
371.02670376101
 30
0.0
 40
0.0794552327698535
100
AcDbArc
 50
160.6185012914981
 51
168.3828422040229
  0
ARC
  5
36706
330
2
100
AcDbEntity
  8
DETAIL
100
AcDbCircle
 10
451.3672199569938
 20
371.0587037610097
 30
0.0
 40
0.0794552327699319
100
AcDbArc
 50
160.618501291214
 51
215.6571314953374
  0
ARC
  5
36708
330
2
100
AcDbEntity
  8
DETAIL
100
AcDbCircle
 10
451.4388010869923
 20
371.1100588506976
 30
0.0
 40
0.1675529251841432
100
AcDbArc
 50
215.6571298247834
 51
240.0000000000177
  0
ARC
  5
36709
330
2
100
AcDbEntity
  8
DETAIL
100
AcDbCircle
 10
451.4862323461471
 20
371.1922122014207
 30
0.0
 40
0.2624154434938742
100
AcDbArc
 50
239.9999999999725
 51
256.5505244738341
  0
ARC
  5
3670A
330
2
100
AcDbEntity
  8
DETAIL
100
AcDbCircle
 10
451.5174043876094
 20
371.3225593568339
 30
0.0
 40
0.3964381172966127
100
AcDbArc
 50
256.5505244738884
 51
283.4494978152164
  0
ARC
  5
3670C
330
2
100
AcDbEntity
  8
DETAIL
100
AcDbCircle
 10
451.5485764290722
 20
371.1922122014211
 30
0.0
 40
0.2624154434942661
100
AcDbArc
 50
283.4494755261458
 51
300.0000000000055
  0
ARC
  5
3670D
330
2
100
AcDbEntity
  8
DETAIL
100
AcDbCircle
 10
451.5960076882273
 20
371.110058850697
 30
0.0
 40
0.1675529251835951
100
AcDbArc
 50
300.0000000000458
 51
324.342870175345
  0
ARC
  5
3670E
330
2
100
AcDbEntity
  8
DETAIL
100
AcDbCircle
 10
451.6675888182258
 20
371.0587037610097
 30
0.0
 40
0.0794552327696965
100
AcDbArc
 50
324.3428701752936
 51
19.38148303157596
  0
ARC
  5
36711
330
2
100
AcDbEntity
  8
DETAIL
100
AcDbCircle
 10
431.6102174899466
 20
361.5490564282234
 30
0.0
 40
0.2186795362449217
100
AcDbArc
 50
103.4494755261798
 51
120.0000000000403
  0
ARC
  5
36712
330
2
100
AcDbEntity
  8
DETAIL
100
AcDbCircle
 10
431.5706914406504
 20
361.6175175538264
 30
0.0
 40
0.1396274376529265
100
AcDbArc
 50
120.0000000000353
 51
144.3428701753331
  0
ARC
  5
36713
330
2
100
AcDbEntity
  8
DETAIL
100
AcDbCircle
 10
431.5110404989851
 20
361.660313461899
 30
0.0
 40
0.0662126939747322
100
AcDbArc
 50
144.3428701750725
 51
215.6571314953374
  0
ARC
  5
36715
330
2
100
AcDbEntity
  8
DETAIL
100
AcDbCircle
 10
431.5706914406504
 20
361.7031093699722
 30
0.0
 40
0.1396274376532136
100
AcDbArc
 50
215.6571298247534
 51
240.0000000000347
  0
ARC
  5
36716
330
2
100
AcDbEntity
  8
DETAIL
100
AcDbCircle
 10
431.6102174899466
 20
361.771570495575
 30
0.0
 40
0.2186795362449236
100
AcDbArc
 50
239.9999999999597
 51
256.5505244738201
  0
ARC
  5
36717
330
2
100
AcDbEntity
  8
DETAIL
100
AcDbCircle
 10
431.6361941911654
 20
361.8801931250861
 30
0.0
 40
0.3303650977474077
100
AcDbArc
 50
256.5505244738625
 51
283.4494978152164
  0
ARC
  5
36719
330
2
100
AcDbEntity
  8
DETAIL
100
AcDbCircle
 10
431.6621708923841
 20
361.7715704955752
 30
0.0
 40
0.2186795362451717
100
AcDbArc
 50
283.4494755261336
 51
300.0000000000031
  0
ARC
  5
3671A
330
2
100
AcDbEntity
  8
DETAIL
100
AcDbCircle
 10
431.7016969416799
 20
361.7031093699722
 30
0.0
 40
0.1396274376531802
100
AcDbArc
 50
300.000000000029
 51
324.3428701752656
  0
ARC
  5
3671B
330
2
100
AcDbEntity
  8
DETAIL
100
AcDbCircle
 10
431.7613478833453
 20
361.6603134618991
 30
0.0
 40
0.0662126939748637
100
AcDbArc
 50
324.3428701753357
 51
35.65715134318026
  0
ARC
  5
3671D
330
2
100
AcDbEntity
  8
DETAIL
100
AcDbCircle
 10
431.7016969416799
 20
361.6175175538262
 30
0.0
 40
0.1396274376531804
100
AcDbArc
 50
35.65712982473441
 51
59.99999999997093
  0
ARC
  5
3671E
330
2
100
AcDbEntity
  8
DETAIL
100
AcDbCircle
 10
431.6621708923841
 20
361.549056428223
 30
0.0
 40
0.2186795362451697
100
AcDbArc
 50
59.99999999999689
 51
76.55052447386641
  0
ARC
  5
3671F
330
2
100
AcDbEntity
  8
DETAIL
100
AcDbCircle
 10
431.6361941911653
 20
361.4404337987125
 30
0.0
 40
0.3303650977470629
100
AcDbArc
 50
76.55052447385838
 51
103.4494779673736
  0
ARC
  5
3672D
330
2
100
AcDbEntity
  8
DETAIL
100
AcDbCircle
 10
433.4207111500997
 20
360.3880963626911
 30
0.0
 40
0.1586456038630306
100
AcDbArc
 50
18.38362174873329
 51
161.6163782512595
  0
TEXT
  5
36766
330
2
100
AcDbEntity
  8
DIM
100
AcDbText
 10
479.5059243783032
 20
348.3545379035211
 30
0.0
 40
1.5
  1
A
  7
STD
 72
     4
 11
480.2047647602949
 21
349.1045379035211
 31
0.0
100
AcDbText
  0
TEXT
  5
36767
330
2
100
AcDbEntity
  8
DIM
100
AcDbText
 10
489.8179842532417
 20
342.4008673588258
 30
0.0
 40
1.5
  1
A
  7
STD
 72
     4
 11
490.5168246352335
 21
343.1508673588258
 31
0.0
100
AcDbText
  0
SOLID
  5
37D14
330
2
100
AcDbEntity
  8
SECTION
  6
PHANTOM2
 48
0.25
100
AcDbTrace
 10
482.5219563989671
 20
349.5310442544672
 30
0.0
 11
483.9459945046439
 21
350.0645379035211
 31
0.0
 12
482.7719563989671
 22
349.098031552575
 32
0.0
 13
482.7719563989671
 23
349.098031552575
 33
0.0
  0
LWPOLYLINE
  5
37D15
330
2
100
AcDbEntity
  8
SECTION
  6
PHANTOM2
 48
0.25
100
AcDbPolyline
 90
        3
 70
     0
 43
0.0
 10
482.6469563989672
 20
349.3145379035211
 10
481.2439952448364
 20
348.5045379035212
 10
489.4775941506922
 20
343.7508673588259
  0
SOLID
  5
37D16
330
2
100
AcDbEntity
  8
SECTION
  6
PHANTOM2
 48
0.25
100
AcDbTrace
 10
490.755555304823
 20
344.777373709772
 30
0.0
 11
492.1795934104996
 21
345.3108673588259
 31
0.0
 12
491.005555304823
 22
344.3443610078797
 32
0.0
 13
491.005555304823
 23
344.3443610078797
 33
0.0
  0
LWPOLYLINE
  5
37D17
330
2
100
AcDbEntity
  8
SECTION
  6
PHANTOM2
 48
0.25
100
AcDbPolyline
 90
        2
 70
     0
 43
0.0
 10
490.880555304823
 20
344.5608673588259
 10
489.4775941506922
 20
343.7508673588259
  0
ARC
  5
37D18
330
2
100
AcDbEntity
  8
DETAIL
100
AcDbCircle
 10
433.3205881963555
 20
360.4219117917166
 30
0.0
 40
0.052970155179784
100
AcDbArc
 50
160.5048995671767
 51
215.6571314953374
  0
ARC
  5
37D1A
330
2
100
AcDbEntity
  8
DETAIL
100
AcDbCircle
 10
433.3683089496878
 20
360.4561485181749
 30
0.0
 40
0.1117019501224094
100
AcDbArc
 50
215.657129824698
 51
239.9999999999843
  0
ARC
  5
37D1B
330
2
100
AcDbEntity
  8
DETAIL
100
AcDbCircle
 10
433.3999297891248
 20
360.5109174186577
 30
0.0
 40
0.1749436289963744
100
AcDbArc
 50
239.9999999999732
 51
256.5505244738115
  0
ARC
  5
37D1C
330
2
100
AcDbEntity
  8
DETAIL
100
AcDbCircle
 10
433.4207111500997
 20
360.5978155222662
 30
0.0
 40
0.2642920781978471
100
AcDbArc
 50
256.5505244738812
 51
283.4494978152164
  0
ARC
  5
37D1E
330
2
100
AcDbEntity
  8
DETAIL
100
AcDbCircle
 10
433.4414925110746
 20
360.5109174186575
 30
0.0
 40
0.1749436289961169
100
AcDbArc
 50
283.4494755261697
 51
300.0000000000318
  0
ARC
  5
37D1F
330
2
100
AcDbEntity
  8
DETAIL
100
AcDbCircle
 10
433.4731133505115
 20
360.4561485181749
 30
0.0
 40
0.1117019501224624
100
AcDbArc
 50
300.0000000000263
 51
324.3428701752953
  0
ARC
  5
37D20
330
2
100
AcDbEntity
  8
DETAIL
100
AcDbCircle
 10
433.5208341038438
 20
360.4219117917166
 30
0.0
 40
0.0529701551798131
100
AcDbArc
 50
324.3428701753056
 51
19.49510056235043
  0
ARC
  5
37D22
330
2
100
AcDbEntity
  8
DETAIL
100
AcDbCircle
 10
470.3156837278968
 20
338.9989745462212
 30
0.0
 40
0.052970155179784
100
AcDbArc
 50
160.5048995671767
 51
215.6571314953374
  0
ARC
  5
37D24
330
2
100
AcDbEntity
  8
DETAIL
100
AcDbCircle
 10
470.3634044812291
 20
339.0332112726795
 30
0.0
 40
0.1117019501224094
100
AcDbArc
 50
215.657129824698
 51
239.9999999999843
  0
ARC
  5
37D25
330
2
100
AcDbEntity
  8
DETAIL
100
AcDbCircle
 10
470.3950253206662
 20
339.0879801731623
 30
0.0
 40
0.1749436289963744
100
AcDbArc
 50
239.9999999999732
 51
256.5505244738115
  0
ARC
  5
37D26
330
2
100
AcDbEntity
  8
DETAIL
100
AcDbCircle
 10
470.415806681641
 20
339.1748782767708
 30
0.0
 40
0.2642920781978471
100
AcDbArc
 50
256.5505244738812
 51
283.4494978152164
  0
ARC
  5
37D28
330
2
100
AcDbEntity
  8
DETAIL
100
AcDbCircle
 10
470.4365880426159
 20
339.0879801731621
 30
0.0
 40
0.1749436289961169
100
AcDbArc
 50
283.4494755261697
 51
300.0000000000318
  0
ARC
  5
37D29
330
2
100
AcDbEntity
  8
DETAIL
100
AcDbCircle
 10
470.4682088820528
 20
339.0332112726795
 30
0.0
 40
0.1117019501224624
100
AcDbArc
 50
300.0000000000263
 51
324.3428701752953
  0
ARC
  5
37D2A
330
2
100
AcDbEntity
  8
DETAIL
100
AcDbCircle
 10
470.5159296353851
 20
338.9989745462212
 30
0.0
 40
0.0529701551798131
100
AcDbArc
 50
324.3428701753056
 51
19.49510056235043
  0
ARC
  5
37D2C
330
2
100
AcDbEntity
  8
DETAIL
100
AcDbCircle
 10
490.1973898811061
 20
350.4411028329043
 30
0.0
 40
0.052970155179765
100
AcDbArc
 50
160.5048995672347
 51
215.6571314953374
  0
ARC
  5
37D2E
330
2
100
AcDbEntity
  8
DETAIL
100
AcDbCircle
 10
490.2451106344384
 20
350.4753395593628
 30
0.0
 40
0.1117019501223963
100
AcDbArc
 50
215.6571298247386
 51
240.0000000000241
  0
ARC
  5
37D2F
330
2
100
AcDbEntity
  8
DETAIL
100
AcDbCircle
 10
490.2767314738754
 20
350.5301084598453
 30
0.0
 40
0.1749436289962968
100
AcDbArc
 50
239.99999999998
 51
256.5505244738253
  0
ARC
  5
37D30
330
2
100
AcDbEntity
  8
DETAIL
100
AcDbCircle
 10
490.2975128348503
 20
350.6170065634539
 30
0.0
 40
0.2642920781977918
100
AcDbArc
 50
256.5505244738784
 51
283.4494978152164
  0
ARC
  5
37D32
330
2
100
AcDbEntity
  8
DETAIL
100
AcDbCircle
 10
490.3182941958253
 20
350.5301084598453
 30
0.0
 40
0.1749436289962695
100
AcDbArc
 50
283.4494755261385
 51
300.0000000000038
  0
ARC
  5
37D33
330
2
100
AcDbEntity
  8
DETAIL
100
AcDbCircle
 10
490.3499150352621
 20
350.4753395593628
 30
0.0
 40
0.1117019501224832
100
AcDbArc
 50
299.9999999999865
 51
324.3428701752546
  0
ARC
  5
37D34
330
2
100
AcDbEntity
  8
DETAIL
100
AcDbCircle
 10
490.3976357885944
 20
350.4411028329043
 30
0.0
 40
0.0529701551798462
100
AcDbArc
 50
324.3428701752556
 51
19.49510056235043
  0
TEXT
  5
37D36
330
2
100
AcDbEntity
  8
DIM
100
AcDbText
 10
458.1594053126992
 20
374.9151574353078
 30
0.0
 40
1.5
  1
TUNNEL MOUNT
  7
STD
100
AcDbText
  0
TEXT
  5
37D37
330
2
100
AcDbEntity
  8
DIM
100
AcDbText
 10
458.0407149989203
 20
372.4018559346257
 30
0.0
 40
1.5
  1
HARDWARE TYP
  7
STD
100
AcDbText
  0
SOLID
  5
37D38
330
2
100
AcDbEntity
  8
DIM
100
AcDbTrace
 10
452.9628099080304
 20
372.5480196134488
 30
0.0
 11
451.7425413123398
 21
371.6405811558268
 31
0.0
 12
452.6025450787643
 22
372.8947316738013
 32
0.0
 13
452.6025450787643
 23
372.8947316738013
 33
0.0
1001
ACAD
1000
DSTYLE
1002
{
1070
   147
1040
0.09
1070
    77
1070
     0
1002
}
  0
LWPOLYLINE
  5
37D39
330
2
100
AcDbEntity
  8
DIM
100
AcDbPolyline
 90
        3
 70
     0
 43
0.0
 10
452.7826774933974
 20
372.721375643625
 10
455.6285185459871
 20
375.67845893599
 10
457.1285185459871
 20
375.67845893599
1001
ACAD
1000
DSTYLE
1002
{
1070
   147
1040
0.09
1070
    77
1070
     0
1002
}
  0
TEXT
  5
37D3A
330
2
100
AcDbEntity
  8
DIM
100
AcDbText
 10
444.8078862642391
 20
360.7044630119257
 30
0.0
 40
1.5
  1
STABILIZER
  7
STD
100
AcDbText
  0
TEXT
  5
37D3B
330
2
100
AcDbEntity
  8
DIM
100
AcDbText
 10
441.9501100023018
 20
358.1783716067416
 30
0.0
 40
1.5
  1
(IF REQUIRED)
  7
STD
100
AcDbText
  0
SOLID
  5
37D3C
330
2
100
AcDbEntity
  8
DIM
100
AcDbTrace
 10
461.741564569681
 20
359.1283980259218
 30
0.0
 11
462.5434346304025
 21
357.8363049930026
 31
0.0
 12
461.3658516974219
 22
358.7984891936382
 32
0.0
 13
461.3658516974219
 23
358.7984891936382
 33
0.0
1001
ACAD
1000
DSTYLE
1002
{
1070
   147
1040
0.09
1070
    77
1070
     0
1002
}
  0
LWPOLYLINE
  5
37D3D
330
2
100
AcDbEntity
  8
DIM
100
AcDbPolyline
 90
        3
 70
     0
 43
0.0
 10
461.5537081335514
 20
358.96344360978
 10
459.3551441087138
 20
361.4672529164279
 10
457.8551441087139
 20
361.4672529164279
1001
ACAD
1000
DSTYLE
1002
{
1070
   147
1040
0.09
1070
    77
1070
     0
1002
}
  0
TEXT
  5
37D3E
330
2
100
AcDbEntity
  8
DIM
100
AcDbText
 10
428.5557949424071
 20
371.9379530367543
 30
0.0
 40
1.5
  1
J-CHANNEL
  7
STD
100
AcDbText
  0
TEXT
  5
37D3F
330
2
100
AcDbEntity
  8
DIM
100
AcDbText
 10
436.2563406449991
 20
369.4251631322523
 30
0.0
 40
1.5
  1
TYP
  7
STD
100
AcDbText
  0
SOLID
  5
37D40
330
2
100
AcDbEntity
  8
DIM
100
AcDbTrace
 10
444.4236697164022
 20
371.0724776157425
 30
0.0
 11
445.156467228347
 21
369.7399957935447
 31
0.0
 12
444.0311241260649
 22
370.7627875133713
 32
0.0
 13
444.0311241260649
 23
370.7627875133713
 33
0.0
1001
ACAD
1000
DSTYLE
1002
{
1070
   147
1040
0.09
1070
    77
1070
     0
1002
}
  0
LWPOLYLINE
  5
37D41
330
2
100
AcDbEntity
  8
DIM
100
AcDbPolyline
 90
        3
 70
     0
 43
0.0
 10
444.2273969212336
 20
370.9176325645568
 10
442.8206516954768
 20
372.7007429412564
 10
441.3206516954766
 20
372.7007429412564
1001
ACAD
1000
DSTYLE
1002
{
1070
   147
1040
0.09
1070
    77
1070
     0
1002
}
  0
TEXT
  5
37D42
330
2
100
AcDbEntity
  8
DIM
100
AcDbText
 10
499.12038988975
 20
358.201141127895
 30
0.0
 40
1.5
  1
PANEL
  7
STD
100
AcDbText
  0
TEXT
  5
37D43
330
2
100
AcDbEntity
  8
DIM
100
AcDbText
 10
500.4413312267213
 20
355.6883512233929
 30
0.0
 40
1.5
  1
FACE
  7
STD
100
AcDbText
  0
SOLID
  5
37D44
330
2
100
AcDbEntity
  8
DIM
100
AcDbTrace
 10
509.4357533172156
 20
361.3545032101793
 30
0.0
 11
510.3370715361759
 21
362.579299302666
 31
0.0
 12
509.881704386074
 22
361.1283889820025
 32
0.0
 13
509.881704386074
 23
361.1283889820025
 33
0.0
1001
ACAD
1000
DSTYLE
1002
{
1070
   147
1040
0.09
1070
    77
1070
     0
1002
}
  0
LWPOLYLINE
  5
37D45
330
2
100
AcDbEntity
  8
DIM
100
AcDbPolyline
 90
        3
 70
     0
 43
0.0
 10
509.6587288516448
 20
361.2414460960908
 10
508.4974567383174
 20
358.951141127895
 10
506.9974567383176
 20
358.951141127895
1001
ACAD
1000
DSTYLE
1002
{
1070
   147
1040
0.09
1070
    77
1070
     0
1002
}
  0
TEXT
  5
37D46
330
2
100
AcDbEntity
  8
DIM
100
AcDbText
 10
526.7306677145199
 20
356.7596417025212
 30
0.0
 40
1.5
  1
LOCK NUT
  7
STD
100
AcDbText
  0
TEXT
  5
37D47
330
2
100
AcDbEntity
  8
DIM
100
AcDbText
 10
526.7572707158841
 20
354.2335502973369
 30
0.0
 40
1.5
  1
(BY INSTALLING
  7
STD
100
AcDbText
  0
TEXT
  5
37D48
330
2
100
AcDbEntity
  8
DIM
100
AcDbText
 10
526.7797809478078
 20
351.7074588921528
 30
0.0
 40
1.5
  1
CONTRACTOR)
  7
STD
100
AcDbText
  0
SOLID
  5
37D49
330
2
100
AcDbEntity
  8
DIM
100
AcDbTrace
 10
521.9926111999192
 20
360.2970086089321
 30
0.0
 11
521.3171493291784
 21
361.6594517311119
 31
0.0
 12
522.397973192478
 22
360.5897228979388
 32
0.0
 13
522.397973192478
 23
360.5897228979388
 33
0.0
1001
ACAD
1000
DSTYLE
1002
{
1070
   147
1040
0.09
1070
    77
1070
     0
1002
}
  0
LWPOLYLINE
  5
37D4A
330
2
100
AcDbEntity
  8
DIM
100
AcDbPolyline
 90
        3
 70
     0
 43
0.0
 10
522.1952921961986
 20
360.4433657534354
 10
524.3041465685443
 20
357.5229432032033
 10
525.8041465685444
 20
357.5229432032033
1001
ACAD
1000
DSTYLE
1002
{
1070
   147
1040
0.09
1070
    77
1070
     0
1002
}
  0
TEXT
  5
37D4B
330
2
100
AcDbEntity
  8
DIM
100
AcDbText
 10
502.7554192367116
 20
367.1746621519391
 30
0.0
 40
1.5
  1
J-CHANNEL
  7
STD
100
AcDbText
  0
SOLID
  5
37D4C
330
2
100
AcDbEntity
  8
DIM
100
AcDbTrace
 10
518.0912124464494
 20
364.6653097814994
 30
0.0
 11
518.2104274961154
 21
363.1492993026658
 31
0.0
 12
517.6059774289718
 22
364.5446989286979
 32
0.0
 13
517.6059774289718
 23
364.5446989286979
 33
0.0
1001
ACAD
1000
DSTYLE
1002
{
1070
   147
1040
0.09
1070
    77
1070
     0
1002
}
  0
LWPOLYLINE
  5
37D4D
330
2
100
AcDbEntity
  8
DIM
100
AcDbPolyline
 90
        3
 70
     0
 43
0.0
 10
517.8485949377106
 20
364.6050043550987
 10
517.0202759897811
 20
367.9374520564412
 10
515.5202759897812
 20
367.9374520564412
1001
ACAD
1000
DSTYLE
1002
{
1070
   147
1040
0.09
1070
    77
1070
     0
1002
}
  0
TEXT
  5
37D4E
330
2
100
AcDbEntity
  8
DIM
100
AcDbText
 10
527.3671871871313
 20
367.8723883629086
 30
0.0
 40
1.5
  1
TUNNEL MOUNT
  7
STD
100
AcDbText
  0
TEXT
  5
37D4F
330
2
100
AcDbEntity
  8
DIM
100
AcDbText
 10
527.2484968733522
 20
365.3590868622265
 30
0.0
 40
1.5
  1
HARDWARE
  7
STD
100
AcDbText
  0
SOLID
  5
37D50
330
2
100
AcDbEntity
  8
DIM
100
AcDbTrace
 10
522.1783146218508
 20
366.334850980553
 30
0.0
 11
520.8274930648506
 21
365.6364376923463
 31
0.0
 12
521.8787848225946
 22
366.735203199677
 32
0.0
 13
521.8787848225946
 23
366.735203199677
 33
0.0
1001
ACAD
1000
DSTYLE
1002
{
1070
   147
1040
0.09
1070
    77
1070
     0
1002
}
  0
LWPOLYLINE
  5
37D51
330
2
100
AcDbEntity
  8
DIM
100
AcDbPolyline
 90
        3
 70
     0
 43
0.0
 10
522.0285497222228
 20
366.535027090115
 10
524.8363004204191
 20
368.6356898635907
 10
526.3363004204189
 20
368.6356898635907
1001
ACAD
1000
DSTYLE
1002
{
1070
   147
1040
0.09
1070
    77
1070
     0
1002
}
  0
TEXT
  5
37D52
330
2
100
AcDbEntity
  8
DIM
100
AcDbText
 10
525.7073381369108
 20
380.761091981906
 30
0.0
 40
1.5
  1
THREADED ROD
  7
STD
100
AcDbText
  0
TEXT
  5
37D53
330
2
100
AcDbEntity
  8
DIM
100
AcDbText
 10
525.6551553265425
 20
378.2344889805417
 30
0.0
 40
1.5
  1
OR BOLT
  7
STD
100
AcDbText
  0
TEXT
  5
37D54
330
2
100
AcDbEntity
  8
DIM
100
AcDbText
 10
525.6295755175385
 20
375.7083975753575
 30
0.0
 40
1.5
  1
(BY INSTALLING
  7
STD
100
AcDbText
  0
TEXT
  5
37D55
330
2
100
AcDbEntity
  8
DIM
100
AcDbText
 10
525.6520857494621
 20
373.1823061701733
 30
0.0
 40
1.5
  1
CONTRACTOR)
  7
STD
100
AcDbText
  0
SOLID
  5
37D56
330
2
100
AcDbEntity
  8
DIM
100
AcDbTrace
 10
521.9574258102157
 20
379.8901330370069
 30
0.0
 11
520.7393547800315
 21
378.9797468742021
 31
0.0
 12
521.5963237557823
 22
380.2359730379961
 32
0.0
 13
521.5963237557823
 23
380.2359730379961
 33
0.0
1001
ACAD
1000
DSTYLE
1002
{
1070
   147
1040
0.09
1070
    77
1070
     0
1002
}
  0
LWPOLYLINE
  5
37D57
330
2
100
AcDbEntity
  8
DIM
100
AcDbPolyline
 90
        3
 70
     0
 43
0.0
 10
521.7768747829991
 20
380.0630530375015
 10
523.1764513701987
 20
381.5243934825882
 10
524.6764513701987
 20
381.5243934825882
1001
ACAD
1000
DSTYLE
1002
{
1070
   147
1040
0.09
1070
    77
1070
     0
1002
}
  0
TEXT
  5
37D58
330
2
100
AcDbEntity
  8
DIM
100
AcDbText
 10
499.2348635348183
 20
377.9658858355773
 30
0.0
 40
1.5
  1
RIVET
  7
STD
100
AcDbText
  0
SOLID
  5
37D59
330
2
100
AcDbEntity
  8
DIM
100
AcDbTrace
 10
508.675317024049
 20
376.6740989999143
 30
0.0
 11
508.7716028981117
 21
375.1564597046745
 31
0.0
 12
508.1883143268934
 22
376.5608365923676
 32
0.0
 13
508.1883143268934
 23
376.5608365923676
 33
0.0
1001
ACAD
1000
DSTYLE
1002
{
1070
   147
1040
0.09
1070
    77
1070
     0
1002
}
  0
LWPOLYLINE
  5
37D5A
330
2
100
AcDbEntity
  8
DIM
100
AcDbPolyline
 90
        3
 70
     0
 43
0.0
 10
508.4318156754713
 20
376.617467796141
 10
507.9437857721988
 20
378.7158858355774
 10
506.4437857721988
 20
378.7158858355774
1001
ACAD
1000
DSTYLE
1002
{
1070
   147
1040
0.09
1070
    77
1070
     0
1002
}
  0
LINE
  5
37D5B
330
2
100
AcDbEntity
  8
SECTION
  6
Continuous
100
AcDbLine
 10
497.5346815673993
 20
361.7694415447855
 30
0.0
 11
497.5346815673993
 21
368.4672356057605
 31
0.0
  0
LINE
  5
37D5C
330
2
100
AcDbEntity
  8
SECTION
  6
Continuous
100
AcDbLine
 10
497.5346815673993
 20
368.4672356057605
 30
0.0
 11
498.1528639867766
 21
368.6922356057599
 31
0.0
  0
LINE
  5
37D5D
330
2
100
AcDbEntity
  8
SECTION
  6
Continuous
100
AcDbLine
 10
498.1528639867766
 20
368.6922356057599
 30
0.0
 11
496.9164991480218
 21
369.1422356057602
 31
0.0
  0
LINE
  5
37D5E
330
2
100
AcDbEntity
  8
SECTION
  6
Continuous
100
AcDbLine
 10
496.9164991480218
 20
369.1422356057602
 30
0.0
 11
497.5346815673993
 21
369.367235605761
 31
0.0
  0
LINE
  5
37D5F
330
2
100
AcDbEntity
  8
SECTION
  6
Continuous
100
AcDbLine
 10
497.5346815673993
 20
369.367235605761
 30
0.0
 11
497.5346815673993
 21
375.7303105664836
 31
0.0
  0
LINE
  5
37D60
330
2
100
AcDbEntity
  8
0
 62
     4
100
AcDbLine
 10
522.7614615049526
 20
363.209299302666
 30
0.0
 11
522.7614615049526
 21
374.3332993026661
 31
0.0
  0
ARC
  5
37D61
330
2
100
AcDbEntity
  8
0
 62
     4
100
AcDbCircle
 10
522.7014615049524
 20
374.3332993026659
 30
0.0
 40
0.0600000000000591
100
AcDbArc
 50
0.0000000001085629
 51
90.00000000010855
  0
LINE
  5
37D62
330
2
100
AcDbEntity
  8
0
 62
     4
100
AcDbLine
 10
522.7014615049523
 20
374.3932993026659
 30
0.0
 11
503.6994615049525
 21
374.3932993026659
 31
0.0
  0
ARC
  5
37D63
330
2
100
AcDbEntity
  8
0
 62
     4
100
AcDbCircle
 10
503.6994615049525
 20
374.4532993026659
 30
0.0
 40
0.0599999999999454
100
AcDbArc
 50
180.0
 51
270.0
  0
LINE
  5
37D64
330
2
100
AcDbEntity
  8
0
 62
     4
100
AcDbLine
 10
503.6394615049524
 20
374.4532993026659
 30
0.0
 11
503.6394615049524
 21
374.7112993026659
 31
0.0
  0
ARC
  5
37D65
330
2
100
AcDbEntity
  8
0
 62
     4
100
AcDbCircle
 10
503.6994615049525
 20
374.7112993026659
 30
0.0
 40
0.0599999999999454
100
AcDbArc
 50
90.0
 51
180.0
  0
LINE
  5
37D66
330
2
100
AcDbEntity
  8
0
 62
     4
100
AcDbLine
 10
503.6994615049525
 20
374.7712993026659
 30
0.0
 11
523.0794615049526
 21
374.7712993026659
 31
0.0
  0
ARC
  5
37D67
330
2
100
AcDbEntity
  8
0
 62
     4
100
AcDbCircle
 10
523.0794615049526
 20
374.7112993026659
 30
0.0
 40
0.0599999999999454
100
AcDbArc
 50
0.0
 51
90.0
  0
LINE
  5
37D68
330
2
100
AcDbEntity
  8
0
 62
     4
100
AcDbLine
 10
523.1394615049524
 20
374.7112993026659
 30
0.0
 11
523.1394615049524
 21
362.8312993026658
 31
0.0
  0
ARC
  5
37D69
330
2
100
AcDbEntity
  8
0
 62
     4
100
AcDbCircle
 10
523.0794615049526
 20
362.8312993026658
 30
0.0
 40
0.0599999999999454
100
AcDbArc
 50
270.0
 51
0.0000000000542815
  0
LINE
  5
37D6A
330
2
100
AcDbEntity
  8
0
 62
     4
100
AcDbLine
 10
523.0794615049526
 20
362.7712993026658
 30
0.0
 11
517.1994615049525
 21
362.7712993026658
 31
0.0
  0
ARC
  5
37D6B
330
2
100
AcDbEntity
  8
0
 62
     4
100
AcDbCircle
 10
517.1994615049525
 20
362.8312993026658
 30
0.0
 40
0.0600000000000023
100
AcDbArc
 50
179.9999999999457
 51
270.0
  0
LINE
  5
37D6C
330
2
100
AcDbEntity
  8
0
 62
     4
100
AcDbLine
 10
517.1394615049526
 20
362.8312993026658
 30
0.0
 11
517.1394615049526
 21
363.0892993026658
 31
0.0
  0
ARC
  5
37D6D
330
2
100
AcDbEntity
  8
0
 62
     4
100
AcDbCircle
 10
517.1994615049525
 20
363.0892993026658
 30
0.0
 40
0.0599999999999454
100
AcDbArc
 50
90.0
 51
180.0000000000543
  0
LINE
  5
37D6E
330
2
100
AcDbEntity
  8
0
 62
     4
100
AcDbLine
 10
517.1994615049525
 20
363.1492993026658
 30
0.0
 11
522.7014615049523
 21
363.1492993026658
 31
0.0
  0
ARC
  5
37D6F
330
2
100
AcDbEntity
  8
0
 62
     4
100
AcDbCircle
 10
522.7014615049523
 20
363.209299302666
 30
0.0
 40
0.060000000000116
100
AcDbArc
 50
270.0
 51
359.9999999999456
  0
LINE
  5
37D70
330
2
100
AcDbEntity
  8
DETAIL
100
AcDbLine
 10
521.4128499997229
 20
374.9632993026659
 30
0.0
 11
521.4128499997233
 21
375.0991274087748
 31
0.0
  0
LINE
  5
37D71
330
2
100
AcDbEntity
  8
DETAIL
100
AcDbLine
 10
521.4128499997233
 20
375.0991274087748
 30
0.0
 11
518.8660730101823
 21
375.0991274087748
 31
0.0
  0
LINE
  5
37D72
330
2
100
AcDbEntity
  8
DETAIL
100
AcDbLine
 10
518.8660730101823
 20
375.0991274087748
 30
0.0
 11
518.8660730101823
 21
374.963299302666
 31
0.0
  0
LINE
  5
37D73
330
2
100
AcDbEntity
  8
DETAIL
100
AcDbLine
 10
518.8660730101823
 20
374.963299302666
 30
0.0
 11
521.4128499997229
 21
374.9632993026659
 31
0.0
  0
LINE
  5
37D74
330
2
100
AcDbEntity
  8
DETAIL
100
AcDbLine
 10
521.4128499997229
 20
362.579299302666
 30
0.0
 11
521.4128499997233
 21
362.4434711965571
 31
0.0
  0
LINE
  5
37D75
330
2
100
AcDbEntity
  8
DETAIL
100
AcDbLine
 10
521.4128499997233
 20
362.4434711965571
 30
0.0
 11
518.8660730101823
 21
362.443471196557
 31
0.0
  0
LINE
  5
37D76
330
2
100
AcDbEntity
  8
DETAIL
100
AcDbLine
 10
518.8660730101823
 20
362.443471196557
 30
0.0
 11
518.8660730101823
 21
362.5792993026658
 31
0.0
  0
LINE
  5
37D77
330
2
100
AcDbEntity
  8
DETAIL
100
AcDbLine
 10
518.8660730101823
 20
362.5792993026658
 30
0.0
 11
521.4128499997229
 21
362.579299302666
 31
0.0
  0
LINE
  5
37D78
330
2
100
AcDbEntity
  8
DETAIL
100
AcDbLine
 10
520.6006431940415
 20
360.9694517311119
 30
0.0
 11
520.5982041271073
 21
360.9193409788851
 31
0.0
  0
LINE
  5
37D79
330
2
100
AcDbEntity
  8
DETAIL
100
AcDbLine
 10
520.5982041271073
 20
360.9193409788851
 30
0.0
 11
520.5908734443613
 21
360.8748693502889
 31
0.0
  0
LINE
  5
37D7A
330
2
100
AcDbEntity
  8
DETAIL
100
AcDbLine
 10
520.5908734443613
 20
360.8748693502889
 30
0.0
 11
520.5786309228876
 21
360.8363581052546
 31
0.0
  0
LINE
  5
37D7B
330
2
100
AcDbEntity
  8
DETAIL
100
AcDbLine
 10
520.5786309228876
 20
360.8363581052546
 30
0.0
 11
520.5614563397706
 21
360.8041285037136
 31
0.0
  0
LINE
  5
37D7C
330
2
100
AcDbEntity
  8
DETAIL
100
AcDbLine
 10
520.5614563397706
 20
360.8041285037136
 30
0.0
 11
520.5393294720947
 21
360.7785018055976
 31
0.0
  0
LINE
  5
37D7D
330
2
100
AcDbEntity
  8
DETAIL
100
AcDbLine
 10
520.5393294720947
 20
360.7785018055976
 30
0.0
 11
520.5122300969438
 21
360.7597992708376
 31
0.0
  0
LINE
  5
37D7E
330
2
100
AcDbEntity
  8
DETAIL
100
AcDbLine
 10
520.5122300969438
 20
360.7597992708376
 30
0.0
 11
520.4801379914028
 21
360.7483421593653
 31
0.0
  0
LINE
  5
37D7F
330
2
100
AcDbEntity
  8
DETAIL
100
AcDbLine
 10
520.4801379914028
 20
360.7483421593653
 30
0.0
 11
520.4430329325556
 21
360.7444517311119
 31
0.0
  0
LINE
  5
37D80
330
2
100
AcDbEntity
  8
DETAIL
100
AcDbLine
 10
520.6526047182683
 20
360.9694517311119
 30
0.0
 11
520.6501656513343
 21
360.9193409788851
 31
0.0
  0
LINE
  5
37D81
330
2
100
AcDbEntity
  8
DETAIL
100
AcDbLine
 10
520.6501656513343
 20
360.9193409788851
 30
0.0
 11
520.6428349685883
 21
360.8748693502889
 31
0.0
  0
LINE
  5
37D82
330
2
100
AcDbEntity
  8
DETAIL
100
AcDbLine
 10
520.6428349685883
 20
360.8748693502889
 30
0.0
 11
520.6305924471146
 21
360.8363581052546
 31
0.0
  0
LINE
  5
37D83
330
2
100
AcDbEntity
  8
DETAIL
100
AcDbLine
 10
520.6305924471146
 20
360.8363581052546
 30
0.0
 11
520.6134178639976
 21
360.8041285037136
 31
0.0
  0
LINE
  5
37D84
330
2
100
AcDbEntity
  8
DETAIL
100
AcDbLine
 10
520.6134178639976
 20
360.8041285037136
 30
0.0
 11
520.5912909963216
 21
360.7785018055976
 31
0.0
  0
LINE
  5
37D85
330
2
100
AcDbEntity
  8
DETAIL
100
AcDbLine
 10
520.5912909963216
 20
360.7785018055976
 30
0.0
 11
520.564191621171
 21
360.7597992708376
 31
0.0
  0
LINE
  5
37D86
330
2
100
AcDbEntity
  8
DETAIL
100
AcDbLine
 10
520.564191621171
 20
360.7597992708376
 30
0.0
 11
520.5320995156298
 21
360.7483421593653
 31
0.0
  0
LINE
  5
37D87
330
2
100
AcDbEntity
  8
DETAIL
100
AcDbLine
 10
520.5320995156298
 20
360.7483421593653
 30
0.0
 11
520.4949944567827
 21
360.7444517311119
 31
0.0
  0
LINE
  5
37D88
330
2
100
AcDbEntity
  8
DETAIL
100
AcDbLine
 10
519.6261048417946
 20
360.9694517311119
 30
0.0
 11
519.6285439087288
 21
360.9193409788851
 31
0.0
  0
LINE
  5
37D89
330
2
100
AcDbEntity
  8
DETAIL
100
AcDbLine
 10
519.6285439087288
 20
360.9193409788851
 30
0.0
 11
519.6358745914748
 21
360.8748693502889
 31
0.0
  0
LINE
  5
37D8A
330
2
100
AcDbEntity
  8
DETAIL
100
AcDbLine
 10
519.6358745914748
 20
360.8748693502889
 30
0.0
 11
519.6481171129485
 21
360.8363581052546
 31
0.0
  0
LINE
  5
37D8B
330
2
100
AcDbEntity
  8
DETAIL
100
AcDbLine
 10
519.6481171129485
 20
360.8363581052546
 30
0.0
 11
519.6652916960654
 21
360.8041285037136
 31
0.0
  0
LINE
  5
37D8C
330
2
100
AcDbEntity
  8
DETAIL
100
AcDbLine
 10
519.6652916960654
 20
360.8041285037136
 30
0.0
 11
519.6874185637414
 21
360.7785018055976
 31
0.0
  0
LINE
  5
37D8D
330
2
100
AcDbEntity
  8
DETAIL
100
AcDbLine
 10
519.6874185637414
 20
360.7785018055976
 30
0.0
 11
519.7145179388922
 21
360.7597992708376
 31
0.0
  0
LINE
  5
37D8E
330
2
100
AcDbEntity
  8
DETAIL
100
AcDbLine
 10
519.7145179388922
 20
360.7597992708376
 30
0.0
 11
519.7466100444334
 21
360.7483421593653
 31
0.0
  0
LINE
  5
37D8F
330
2
100
AcDbEntity
  8
DETAIL
100
AcDbLine
 10
519.7466100444334
 20
360.7483421593653
 30
0.0
 11
519.7837151032805
 21
360.7444517311119
 31
0.0
  0
LINE
  5
37D90
330
2
100
AcDbEntity
  8
DETAIL
100
AcDbLine
 10
519.6780663660215
 20
360.9694517311119
 30
0.0
 11
519.6805054329557
 21
360.9193409788851
 31
0.0
  0
LINE
  5
37D91
330
2
100
AcDbEntity
  8
DETAIL
100
AcDbLine
 10
519.6805054329557
 20
360.9193409788851
 30
0.0
 11
519.6878361157017
 21
360.8748693502889
 31
0.0
  0
LINE
  5
37D92
330
2
100
AcDbEntity
  8
DETAIL
100
AcDbLine
 10
519.6878361157017
 20
360.8748693502889
 30
0.0
 11
519.7000786371752
 21
360.8363581052546
 31
0.0
  0
LINE
  5
37D93
330
2
100
AcDbEntity
  8
DETAIL
100
AcDbLine
 10
519.7000786371752
 20
360.8363581052546
 30
0.0
 11
519.7172532202922
 21
360.8041285037136
 31
0.0
  0
LINE
  5
37D94
330
2
100
AcDbEntity
  8
DETAIL
100
AcDbLine
 10
519.7172532202922
 20
360.8041285037136
 30
0.0
 11
519.7393800879682
 21
360.7785018055976
 31
0.0
  0
LINE
  5
37D95
330
2
100
AcDbEntity
  8
DETAIL
100
AcDbLine
 10
519.7393800879682
 20
360.7785018055976
 30
0.0
 11
519.7664794631191
 21
360.7597992708376
 31
0.0
  0
LINE
  5
37D96
330
2
100
AcDbEntity
  8
DETAIL
100
AcDbLine
 10
519.7664794631191
 20
360.7597992708376
 30
0.0
 11
519.7985715686602
 21
360.7483421593653
 31
0.0
  0
LINE
  5
37D97
330
2
100
AcDbEntity
  8
DETAIL
100
AcDbLine
 10
519.7985715686602
 20
360.7483421593653
 30
0.0
 11
519.8356766275074
 21
360.7444517311119
 31
0.0
  0
LINE
  5
37D98
330
2
100
AcDbEntity
  8
DIM
 62
     3
100
AcDbLine
 10
429.831163332768
 20
358.9989081561799
 30
0.0
 11
424.5613385576331
 21
355.9563734036736
 31
0.0
  0
LINE
  5
37D99
330
2
100
AcDbEntity
  8
DIM
 62
     3
100
AcDbLine
 10
471.4003827154367
 20
334.9989081555935
 30
0.0
 11
466.1305579403018
 21
331.9563734030873
 31
0.0
  0
LINE
  5
37D9A
330
2
100
AcDbEntity
  8
DIM
 62
     2
100
AcDbLine
 10
427.5403766633097
 20
356.1763218559122
 30
0.0
 11
443.8119897422735
 21
346.7819016646231
 31
0.0
  0
LINE
  5
37D9B
330
2
100
AcDbEntity
  8
DIM
 62
     2
100
AcDbLine
 10
466.5115198346251
 20
333.6763218553258
 30
0.0
 11
450.2399067556615
 21
343.0707420466148
 31
0.0
  0
SOLID
  5
37D9C
330
2
100
AcDbEntity
  8
DIM
 62
     2
100
AcDbTrace
 10
427.6653766633097
 20
356.3928282068583
 30
0.0
 11
427.4153766633097
 21
355.9598155049661
 31
0.0
 12
426.2413385576329
 22
356.9263218559122
 32
0.0
 13
426.2413385576329
 23
356.9263218559122
 33
0.0
  0
SOLID
  5
37D9D
330
2
100
AcDbEntity
  8
DIM
 62
     2
100
AcDbTrace
 10
466.6365198346252
 20
333.8928282062719
 30
0.0
 11
466.386519834625
 21
333.4598155043797
 31
0.0
 12
467.8105579403018
 22
332.9263218553258
 32
0.0
 13
467.8105579403018
 23
332.9263218553258
 33
0.0
  0
MTEXT
  5
37D9E
330
2
100
AcDbEntity
  8
DIM
100
AcDbMText
 10
447.0259482489673
 20
344.926321855619
 30
0.0
 40
1.5
 41
0.0
 71
     5
 72
     1
  1
\A1;LENGTH
  7
STD
 73
     1
 44
1.0
1001
ACAD
1000
MTEXTBEGIN
1070
    73
1070
     1
1070
    44
1040
1.0
1070
    74
1070
     0
1000
MTEXTEND
  0
LINE
  5
37D9F
330
2
100
AcDbEntity
  8
DIM
 62
     3
100
AcDbLine
 10
473.0811749198527
 20
335.0002805831831
 30
0.0
 11
478.1753918889211
 21
332.0702195343267
 31
0.0
  0
LINE
  5
37DA0
330
2
100
AcDbEntity
  8
DIM
 62
     3
100
AcDbLine
 10
493.8495508058799
 20
347.0361343663774
 30
0.0
 11
498.9437677749486
 21
344.1060733175208
 31
0.0
  0
LINE
  5
37DA1
330
2
100
AcDbEntity
  8
DIM
 62
     2
100
AcDbLine
 10
477.7916200806445
 20
333.789541774846
 30
0.0
 11
483.7202528519447
 21
337.2253500229829
 31
0.0
  0
LINE
  5
37DA2
330
2
100
AcDbEntity
  8
DIM
 62
     2
100
AcDbLine
 10
495.9643707655614
 20
344.3211582711198
 30
0.0
 11
490.0357379942614
 21
340.885350022983
 31
0.0
  0
SOLID
  5
37DA3
330
2
100
AcDbEntity
  8
DIM
 62
     2
100
AcDbTrace
 10
477.6662669734012
 20
334.0058438749385
 30
0.0
 11
477.9169731878877
 21
333.5732396747535
 31
0.0
 12
476.4938074800893
 22
333.0374231313859
 32
0.0
 13
476.4938074800893
 23
333.0374231313859
 33
0.0
  0
SOLID
  5
37DA4
330
2
100
AcDbEntity
  8
DIM
 62
     2
100
AcDbTrace
 10
495.8390176583182
 20
344.5374603712124
 30
0.0
 11
496.0897238728048
 21
344.1048561710274
 31
0.0
 12
497.2621833661166
 22
345.0732769145802
 32
0.0
 13
497.2621833661166
 23
345.0732769145802
 33
0.0
  0
MTEXT
  5
37DA5
330
2
100
AcDbEntity
  8
DIM
100
AcDbMText
 10
486.8779954231031
 20
339.0553500229828
 30
0.0
 40
1.5
 41
0.0
 71
     5
 72
     1
  1
\A1;WIDTH
  7
STD
 73
     1
 44
1.0
1001
ACAD
1000
MTEXTBEGIN
1070
    73
1070
     1
1070
    44
1040
1.0
1070
    74
1070
     0
1000
MTEXTEND
  0
TEXT
  5
37DA6
330
2
100
AcDbEntity
  8
Defpoints
100
AcDbText
 10
507.3930966549116
 20
345.9857939453089
 30
0.0
 40
1.5
  1
SCALED UP 6X
  7
STD
100
AcDbText
  0
TEXT
  5
37DA7
330
2
100
AcDbEntity
  8
TEXT
100
AcDbText
 10
507.938195585326
 20
349.431202350252
 30
0.0
 40
1.5
  1
%%USECTION A-A
  7
STD
100
AcDbText
  0
TEXT
  5
37DA8
330
2
100
AcDbEntity
  8
DIM
100
AcDbText
 10
485.161049810019
 20
331.5474079330483
 30
0.0
 40
1.5
  1
ALPRO HORIZONTAL CEILING MOUNT
  7
STD
100
AcDbText
  0
TEXT
  5
37DA9
330
2
100
AcDbEntity
  8
DIM
100
AcDbText
 10
485.0075709559943
 20
329.020804931684
 30
0.0
 40
1.5
  1
BAFFLE WITH TUNNEL MOUNT HARDWARE
  7
STD
100
AcDbText
  0
TEXT
  5
37DAA
330
2
100
AcDbEntity
  8
DIM
100
AcDbText
 10
485.0341739573586
 20
326.4942019303197
 30
0.0
 40
1.5
  1
(INSULATION NOT SHOWN)
  7
STD
100
AcDbText
  0
SOLID
  5
37DAB
330
2
100
AcDbEntity
  8
DIM
100
AcDbTrace
 10
478.3543278288853
 20
337.2398986832715
 30
0.0
 11
477.5541936052613
 21
338.5330673591162
 31
0.0
 12
478.7304833873417
 22
337.5693026842223
 32
0.0
 13
478.7304833873417
 23
337.5693026842223
 33
0.0
  0
LWPOLYLINE
  5
37DAC
330
2
100
AcDbEntity
  8
DIM
100
AcDbPolyline
 90
        3
 70
     0
 43
0.0
 10
478.5424056081135
 20
337.404600683747
 10
482.581049810019
 20
332.7927609344125
 10
484.0810498100188
 20
332.7927609344125
  0
VIEWPORT
  5
5D
102
{ACAD_XDICTIONARY
360
37E1F
102
}
330
D
100
AcDbEntity
 67
     1
  8
0
100
AcDbViewport
 10
5.102836672053318
 20
3.882552595148703
 30
0.0
 40
20.12054589974455
 41
7.827575297811849
 68
     1
 69
     1
 12
5.102836672053318
 22
3.882552595148703
 13
0.0
 23
0.0
 14
0.5
 24
0.5
 15
0.5
 25
0.5
 16
0.0
 26
0.0
 36
1.0
 17
0.0
 27
0.0
 37
0.0
 42
50.0
 43
0.0
 44
0.0
 45
7.827575297811849
 50
0.0
 51
0.0
 72
   100
 90
    32800
  1

281
     0
 71
     1
 74
     0
110
0.0
120
0.0
130
0.0
111
1.0
121
0.0
131
0.0
112
0.0
122
1.0
132
0.0
 79
     0
146
0.0
  0
ENDSEC
  0
SECTION
  2
OBJECTS
  0
DICTIONARY
  5
7
330
0
100
AcDbDictionary
281
     1
  3
ACAD_2007HEADERVARS_RT
350
37E1B
  3
ACAD_CIP_PREVIOUS_PRODUCT_INFO
350
37CB0
  3
ACAD_COLOR
350
885
  3
ACAD_FIELDLIST
350
1393
  3
ACAD_GROUP
350
24
  3
ACAD_LAYOUT
350
C
  3
ACAD_MATERIAL
350
884
  3
ACAD_MLEADERSTYLE
350
367A5
  3
ACAD_MLINESTYLE
350
25
  3
ACAD_PLOTSETTINGS
350
26
  3
ACAD_PLOTSTYLENAME
350
6
  3
ACAD_SCALELIST
350
36793
  3
ACAD_TABLESTYLE
350
886
  3
ACAD_VISUALSTYLE
350
10B2
  3
AcadDim
350
36672
  3
ACDB_RECOMPOSE_DATA
350
37E19
  3
AcDbVariableDictionary
350
3AC
  3
AEC_CLASSIFICATION_SYSTEM_DEFS
350
A2E
  3
AEC_PROPERTY_SET_DEFS
350
37C3E
  3
ASE_INDEX_DICTIONARY
350
1053
  3
DWGPROPS
350
37E1A
  0
DICTIONARY
  5
139C
330
1A
100
AcDbDictionary
280
     1
281
     1
  0
DICTIONARY
  5
899
330
11
100
AcDbDictionary
280
     1
281
     1
  3
ACAD_LAYERFILTERS
360
1092
  3
ACAD_LAYERSTATES
360
89A
  3
ACLYDICTIONARY
360
1091
  0
DICTIONARY
  5
37C4E
330
4
100
AcDbDictionary
280
     1
281
     1
  3
ADSK_XREC_LAYER_RECONCILED
360
37C4F
  0
DICTIONARY
  5
37C50
330
32
100
AcDbDictionary
280
     1
281
     1
  3
ADSK_XREC_LAYER_RECONCILED
360
37C51
  0
DICTIONARY
  5
1A62
330
1A61
100
AcDbDictionary
280
     1
281
     1
  3
ADSK_XREC_LAYER_RECONCILED
360
1A63
  0
DICTIONARY
  5
1A7D
330
1A7C
100
AcDbDictionary
280
     1
281
     1
  3
ADSK_XREC_LAYER_RECONCILED
360
1A7E
  0
DICTIONARY
  5
1A80
330
1A7F
100
AcDbDictionary
280
     1
281
     1
  3
ADSK_XREC_LAYER_RECONCILED
360
1A81
  0
DICTIONARY
  5
1A92
330
1A91
100
AcDbDictionary
280
     1
281
     1
  3
ADSK_XREC_LAYER_RECONCILED
360
1A93
  0
DICTIONARY
  5
31E97
330
2
100
AcDbDictionary
280
     1
281
     1
  3
ACAD_SORTENTS
360
31E98
  0
DICTIONARY
  5
1D72
330
D
100
AcDbDictionary
280
     1
281
     1
  3
ACAD_SORTENTS
360
1D73
  0
DICTIONARY
  5
37E1F
330
5D
100
AcDbDictionary
280
     1
281
     1
  3
ACAD_XREC_ROUNDTRIP
360
37E20
  0
DICTIONARY
  5
37E1B
102
{ACAD_REACTORS
330
7
102
}
330
7
100
AcDbDictionary
281
     1
  3
INTERFEREVPVS
350
37E1C
  0
XRECORD
  5
37CB0
102
{ACAD_REACTORS
330
7
102
}
330
7
100
AcDbXrecord
280
     1
300
ACD
300
2012
300
ACD_F_S
  0
DICTIONARY
  5
885
102
{ACAD_REACTORS
330
7
102
}
330
7
100
AcDbDictionary
281
     1
  0
FIELDLIST
  5
1393
102
{ACAD_REACTORS
330
7
102
}
330
7
100
AcDbIdSet
 90
        0
100
AcDbFieldList
  0
DICTIONARY
  5
24
102
{ACAD_REACTORS
330
7
102
}
330
7
100
AcDbDictionary
281
     1
  0
DICTIONARY
  5
C
102
{ACAD_REACTORS
330
7
102
}
330
7
100
AcDbDictionary
281
     1
  3
Layout1
350
10
  3
Model
350
B
  0
DICTIONARY
  5
884
102
{ACAD_REACTORS
330
7
102
}
330
7
100
AcDbDictionary
281
     1
  3
ByBlock
350
10B0
  3
ByLayer
350
10AF
  3
Global
350
10B1
  0
DICTIONARY
  5
367A5
102
{ACAD_REACTORS
330
7
102
}
330
7
100
AcDbDictionary
281
     1
  3
Standard
350
367A6
  0
DICTIONARY
  5
25
102
{ACAD_REACTORS
330
7
102
}
330
7
100
AcDbDictionary
281
     1
  3
STANDARD
350
28
  0
DICTIONARY
  5
26
102
{ACAD_REACTORS
330
7
102
}
330
7
100
AcDbDictionary
281
     1
  3
3010
350
1A21
  3
5000N
350
1A1F
  3
Minolta
350
1A22
  3
PDF
350
1A20
  0
ACDBDICTIONARYWDFLT
  5
6
102
{ACAD_REACTORS
330
7
102
}
330
7
100
AcDbDictionary
281
     1
  3
Normal
350
5
100
AcDbDictionaryWithDefault
340
5
  0
DICTIONARY
  5
36793
102
{ACAD_REACTORS
330
7
102
}
330
7
100
AcDbDictionary
281
     1
  3
A0
350
36794
  3
A1
350
36795
  3
A2
350
36796
  3
A3
350
36797
  3
A4
350
36798
  3
A5
350
36799
  3
A6
350
3679A
  3
A7
350
3679B
  3
A8
350
3679C
  3
A9
350
3679D
  3
B0
350
3679E
  3
B1
350
3679F
  3
B2
350
367A0
  3
B3
350
367A1
  3
B4
350
367A2
  3
B5
350
367A3
  3
B6
350
367A4
  0
DICTIONARY
  5
886
102
{ACAD_REACTORS
330
7
102
}
330
7
100
AcDbDictionary
281
     1
  3
Standard
350
887
  0
DICTIONARY
  5
10B2
102
{ACAD_REACTORS
330
7
102
}
330
7
100
AcDbDictionary
281
     1
  3
2dWireframe
350
10B8
  3
3D Hidden
350
1D4F
  3
3dWireframe
350
1D50
  3
Basic
350
10B7
  3
Brighten
350
10BE
  3
ColorChange
350
10C2
  3
Conceptual
350
1D51
  3
Dim
350
10BD
  3
EdgeColorOff
350
36792
  3
Facepattern
350
10C1
  3
Flat
350
10B3
  3
FlatWithEdges
350
10B4
  3
Gouraud
350
10B5
  3
GouraudWithEdges
350
10B6
  3
Hidden
350
3678A
  3
JitterOff
350
36790
  3
Linepattern
350
10C0
  3
OverhangOff
350
36791
  3
Realistic
350
1D52
  3
Shaded
350
3678F
  3
Shaded with edges
350
3678E
  3
Shades of Gray
350
3678B
  3
Sketchy
350
3678C
  3
Thicken
350
10BF
  3
Wireframe
350
36789
  3
X-Ray
350
3678D
  0
XRECORD
  5
36672
102
{ACAD_REACTORS
330
7
102
}
330
7
100
AcDbXrecord
280
     1
 90
   990106
  3

 60
     0
 61
     0
 62
     1
 63
     1
 64
     0
 65
     0
 66
     1
 67
     3
 68
     0
 69
     0
 70
     0
 71
     0
 72
     0
 40
0.0
170
     2
340
36674
  0
XRECORD
  5
37E19
102
{ACAD_REACTORS
330
7
102
}
330
7
100
AcDbXrecord
280
     1
 90
        1
330
887
  0
DICTIONARY
  5
3AC
102
{ACAD_REACTORS
330
7
102
}
330
7
100
AcDbDictionary
281
     1
  3
CANNOSCALE
350
37C5B
  3
CMLEADERSTYLE
350
37C59
  3
CTABLESTYLE
350
89F
  3
DIMASSOC
350
3AD
  3
DRAWORDERCTL
350
37E16
  3
INDEXCTL
350
37DBE
  3
LAYEREVAL
350
37C5D
  3
LAYERNOTIFY
350
37C5E
  3
LIGHTINGUNITS
350
37C5C
  3
MSLTSCALE
350
37C5A
  3
SOLIDHIST
350
37DC0
  3
SORTENTS
350
37DBD
  3
XCLIPFRAME
350
37E17
  0
DICTIONARY
  5
A2E
102
{ACAD_REACTORS
330
7
102
}
330
7
100
AcDbDictionary
281
     1
  0
DICTIONARY
  5
37C3E
102
{ACAD_REACTORS
330
7
102
}
330
7
100
AcDbDictionary
281
     1
  0
DICTIONARY
  5
1053
102
{ACAD_REACTORS
330
7
102
}
330
7
100
AcDbDictionary
281
     1
  3
ASEBlockHierarchyIndexRecord
350
1054
1001
DCO15
1040
1542711923.111
  0
XRECORD
  5
37E1A
102
{ACAD_REACTORS
330
7
102
}
330
7
100
AcDbXrecord
280
     1
  1
DWGPROPS COOKIE
  2

  3

  4

  6

  7

  8
jlee
  9

300
=
301
=
302
=
303
=
304
=
305
=
306
=
307
=
308
=
309
=
 40
0.6615528125
 41
2451225.386950695
 42
2456114.525933241
  1

 90
        0
  0
DICTIONARY
  5
1092
102
{ACAD_REACTORS
330
899
102
}
330
899
100
AcDbDictionary
281
     1
  0
DICTIONARY
  5
89A
102
{ACAD_REACTORS
330
899
102
}
330
899
100
AcDbDictionary
281
     1
  3
_LAYISO_STATE
350
36737
1001
AcLayerTools
1000
B
1000
0
  0
DICTIONARY
  5
1091
102
{ACAD_REACTORS
330
899
102
}
330
899
100
AcDbDictionary
281
     1
1001
ACAD
1000
<All
  0
XRECORD
  5
37C4F
102
{ACAD_REACTORS
330
37C4E
102
}
330
37C4E
100
AcDbXrecord
280
     1
290
     1
  0
XRECORD
  5
37C51
102
{ACAD_REACTORS
330
37C50
102
}
330
37C50
100
AcDbXrecord
280
     1
290
     1
  0
XRECORD
  5
1A63
102
{ACAD_REACTORS
330
1A62
102
}
330
1A62
100
AcDbXrecord
280
     1
290
     1
  0
XRECORD
  5
1A7E
102
{ACAD_REACTORS
330
1A7D
102
}
330
1A7D
100
AcDbXrecord
280
     1
290
     1
  0
XRECORD
  5
1A81
102
{ACAD_REACTORS
330
1A80
102
}
330
1A80
100
AcDbXrecord
280
     1
290
     1
  0
XRECORD
  5
1A93
102
{ACAD_REACTORS
330
1A92
102
}
330
1A92
100
AcDbXrecord
280
     1
290
     1
  0
SORTENTSTABLE
  5
31E98
102
{ACAD_REACTORS
330
31E97
102
}
330
31E97
100
AcDbSortentsTable
330
2
331
3662D
  5
37D77
331
3671F
  5
36403
331
36629
  5
37D73
331
364BD
  5
3659B
331
3656F
  5
366E8
331
3671B
  5
363FF
331
36717
  5
363FA
331
37D36
  5
37DA5
331
364B9
  5
36597
331
36625
  5
37D6F
331
3656B
  5
366D8
331
3652C
  5
3662D
331
36713
  5
363F6
331
37D32
  5
36502
331
36567
  5
366D4
331
3642D
  5
36514
331
365A6
  5
37D1B
331
364B5
  5
36593
331
3639F
  5
363E2
331
36621
  5
37D6B
331
36528
  5
36629
331
36563
  5
366C0
331
3639B
  5
363C9
331
37D65
  5
37D60
331
36429
  5
36510
331
365A2
  5
37D17
331
364B1
  5
3658F
331
36397
  5
363AB
331
363F6
  5
3646F
331
37D61
  5
37D5C
331
36425
  5
3650B
331
36470
  5
36555
331
37D9C
  5
36531
331
36393
  5
363A7
331
363F2
  5
3645E
331
37D5D
  5
37D7F
331
37D59
  5
37D82
331
37D98
  5
3652D
331
366C4
  5
36542
331
37D2E
  5
364E2
331
37D2A
  5
3649D
331
365E1
  5
37D58
331
366C0
  5
3653E
331
364AD
  5
36586
331
36524
  5
36625
331
3655F
  5
366BC
331
3659E
  5
36767
331
37D26
  5
36499
331
365DD
  5
37D54
331
3659A
  5
3671F
331
364A9
  5
36582
331
36520
  5
36621
331
3655B
  5
366B8
331
366BC
  5
3654F
331
366B8
  5
3654B
331
36703
  5
3649F
331
37D22
  5
36494
331
365D9
  5
37D50
331
36557
  5
366B4
331
36596
  5
3671B
331
363EE
  5
3644D
331
3640D
  5
364B1
331
3646C
  5
36551
331
364A5
  5
3657E
331
3638F
  5
363A2
331
3651C
  5
365E1
331
36518
  5
365DD
331
36553
  5
366B0
331
363EA
  5
36446
331
36409
  5
364AD
331
36592
  5
36716
331
364A1
  5
3657A
331
37D55
  5
37D8A
331
37D94
  5
365A6
331
3638B
  5
3639E
331
363E6
  5
36430
331
36405
  5
364A9
331
37D51
  5
37D8C
331
37D90
  5
365A2
331
36401
  5
364A5
331
37D8C
  5
365AE
331
363E2
  5
3642C
331
37D4D
  5
37D90
331
37D49
  5
37D92
331
37D88
  5
365AA
331
365D5
  5
37D4C
331
366B4
  5
36547
331
37D1E
  5
36382
331
37D1A
  5
3637E
331
365D1
  5
37D48
331
366B0
  5
3655C
331
3649D
  5
36576
331
36514
  5
365D9
331
366F3
  5
364C0
331
3654F
  5
366AC
331
3658E
  5
36712
331
365BD
  5
37D45
331
366AC
  5
36558
331
3658A
  5
3670E
331
36499
  5
36572
331
36510
  5
365D5
331
3654B
  5
366A8
331
366EF
  5
364BC
331
366A8
  5
36569
331
366EB
  5
364B8
331
36547
  5
366A4
331
363FD
  5
364A1
331
36586
  5
3670A
331
36495
  5
3656E
331
3637F
  5
36392
331
365B9
  5
37D41
331
36508
  5
365CE
331
36543
  5
366A0
331
36582
  5
36706
331
363CA
  5
3640A
331
363F9
  5
3648C
331
36450
  5
3653B
331
37D45
  5
37D98
331
37D84
  5
365B6
331
3637B
  5
3638E
331
3644C
  5
36536
331
36377
  5
3638A
331
363C6
  5
36406
331
37D15
  5
37DAA
331
37D41
  5
37D9C
331
37D80
  5
365B2
331
37D7C
  5
365BE
331
363C2
  5
36404
331
37D3D
  5
37DA0
331
37D39
  5
37DA4
331
37D78
  5
365BA
331
37DA9
  5
3636D
331
37DA5
  5
363C8
331
37DA1
  5
363C2
331
365B5
  5
37D3D
331
366A4
  5
36565
331
366E7
  5
364B3
331
36766
  5
37DAB
331
365B1
  5
37D39
331
36504
  5
365CB
331
366A0
  5
36561
331
3657E
  5
366F6
331
365AD
  5
37D35
331
3657A
  5
366F2
331
36500
  5
365C3
331
3653B
  5
36641
331
366D7
  5
3652B
331
36630
  5
37D7A
331
366D3
  5
36527
331
36576
  5
366EE
331
365A9
  5
37D31
331
3636F
  5
36378
331
363AE
  5
363F1
331
36537
  5
3663E
331
364C0
  5
3659E
331
363AA
  5
363ED
331
36533
  5
3663A
331
36572
  5
366EA
331
37D74
  5
365C5
331
3636B
  5
36372
331
363A6
  5
363E9
331
37D70
  5
36645
331
36430
  5
36517
331
37D6C
  5
37D67
331
363A2
  5
363E5
331
37D68
  5
37D63
331
3662C
  5
37D76
331
3671E
  5
36402
331
36628
  5
37D72
331
366CF
  5
36523
331
364BC
  5
3659A
331
3656E
  5
366E7
331
3671A
  5
363FE
331
366CB
  5
3651F
331
36716
  5
363F9
331
36624
  5
37D6E
331
364B8
  5
36596
331
3652F
  5
36630
331
3656A
  5
366D7
331
3652B
  5
3662C
331
36712
  5
363F5
331
36566
  5
366D3
331
3642C
  5
36513
331
365A5
  5
37D1A
331
364B4
  5
36592
331
3639E
  5
363CC
331
364B0
  5
3658D
331
36562
  5
366BF
331
37D64
  5
37D5F
331
36428
  5
3650F
331
365A1
  5
37D16
331
37D9F
  5
363AE
331
36396
  5
363AA
331
363F5
  5
3646E
331
37D60
  5
37D5B
331
36424
  5
3650A
331
36420
  5
364C3
331
37D9B
  5
36530
331
36392
  5
363A5
331
363F1
  5
36450
331
37D5C
  5
37D7E
331
37D58
  5
37D84
331
36527
  5
36628
331
3670E
  5
36428
331
37D29
  5
3649C
331
365E0
  5
37D57
331
364AC
  5
36585
331
36523
  5
36624
331
3670A
  5
36424
331
3655E
  5
366BB
331
3659D
  5
36766
331
36706
  5
3640D
331
37D25
  5
36497
331
365DC
  5
37D53
331
36599
  5
3671E
331
364A8
  5
36581
331
3651F
  5
36620
331
3646F
  5
36554
331
3655A
  5
366B7
331
366BB
  5
3654E
331
3651B
  5
365E0
331
36556
  5
366B3
331
363ED
  5
3644C
331
3640C
  5
364B0
331
36595
  5
36719
331
364A4
  5
3657D
331
37D97
  5
365A9
331
3638E
  5
363A1
331
365D8
  5
37D4F
331
36552
  5
366AF
331
3638A
  5
3639D
331
363E9
  5
36433
331
36408
  5
364AC
331
36591
  5
36715
331
37D54
  5
37D89
331
37D93
  5
365A5
331
364A0
  5
36579
331
36386
  5
36399
331
363E5
  5
3642F
331
36404
  5
364A8
331
37D50
  5
37D8B
331
37D8F
  5
365B1
331
36400
  5
364A4
331
37D8B
  5
365AD
331
36382
  5
36395
331
37D4C
  5
37D8F
331
37D48
  5
37D96
331
366B7
  5
3654A
331
365D4
  5
37D4B
331
36517
  5
365DC
331
3649C
  5
36575
331
36513
  5
365D8
331
3654E
  5
366AB
331
3658D
  5
36711
331
365BC
  5
37D44
331
36589
  5
3670D
331
3650F
  5
365D4
331
3654A
  5
366A7
331
365B8
  5
37D40
331
36546
  5
366A3
331
363FC
  5
364A0
331
36585
  5
36709
331
36494
  5
3656D
331
37D87
  5
365B9
331
3637E
  5
36391
331
3650B
  5
365D1
331
36542
  5
36674
331
36581
  5
36705
331
363C9
  5
36409
331
363F8
  5
3647E
331
3644F
  5
3653A
331
37D44
  5
37D97
331
37D83
  5
365B5
331
3637A
  5
3638D
331
3644B
  5
36535
331
36376
  5
36389
331
363C5
  5
36405
331
37D14
  5
37DA9
331
37D40
  5
37D9B
331
37D7F
  5
365C2
331
37D7B
  5
365BD
331
36372
  5
3637B
331
37D3C
  5
37D9F
331
37D38
  5
37DA3
331
37DAC
  5
3636B
331
37DA8
  5
3636C
331
37DA4
  5
363C7
331
37DA0
  5
363AF
331
366A7
  5
36568
331
365B4
  5
37D3C
331
366A3
  5
36564
331
365B0
  5
37D38
331
3648C
  5
3656B
331
36503
  5
365CA
331
3653E
  5
36644
331
3657D
  5
366F5
331
3672D
  5
36386
331
365AC
  5
37D34
331
36579
  5
366F1
331
3653A
  5
36640
331
366D6
  5
3652A
331
366D2
  5
36526
331
365A8
  5
37D30
331
36536
  5
3663D
331
36575
  5
366ED
331
364C3
  5
365A1
331
37D77
  5
365C8
331
3636E
  5
36377
331
363AD
  5
363F0
331
363A9
  5
363EC
331
36532
  5
36633
331
36571
  5
366E9
331
37D73
  5
36670
331
3636A
  5
36371
331
36433
  5
3651A
331
363A5
  5
363E8
331
37D6F
  5
37D6A
331
37D6B
  5
37D66
331
363A1
  5
363E4
331
3662F
  5
37D79
331
3662B
  5
37D75
331
364BF
  5
3659D
331
3671D
  5
36401
331
36627
  5
37D71
331
366CE
  5
36522
331
364BB
  5
36599
331
3656D
  5
366E6
331
36719
  5
363FD
331
366CA
  5
3651D
331
36715
  5
363F8
331
37D34
  5
36504
331
36623
  5
37D6D
331
36569
  5
366D6
331
3642F
  5
36516
331
364B7
  5
36595
331
3652E
  5
3662F
331
3652A
  5
3662B
331
36711
  5
363F4
331
37D30
  5
36500
331
36565
  5
366D2
331
3642B
  5
36512
331
365A4
  5
37D19
331
364B3
  5
36591
331
37D67
  5
37D62
331
3639D
  5
363CB
331
36561
  5
366BE
331
36399
  5
363AD
331
37D63
  5
37D5E
331
36427
  5
3650E
331
365A0
  5
37D15
331
37D9E
  5
36533
331
36395
  5
363A9
331
363F4
  5
3646D
331
37D5F
  5
37D81
331
36423
  5
36509
331
37D5B
  5
37D7D
331
37D9A
  5
3652F
331
36391
  5
363A4
331
363F0
  5
3644F
331
366C6
  5
36544
331
365E3
  5
37D5A
331
366C2
  5
36540
331
364AF
  5
3658C
331
36526
  5
36627
331
3670D
  5
36427
331
37D2C
  5
364C4
331
37D28
  5
3649B
331
365DF
  5
37D56
331
366BE
  5
3653C
331
3659C
  5
3672D
331
364AB
  5
36584
331
36522
  5
36623
331
3655D
  5
366BA
331
36709
  5
36423
331
366BA
  5
3654D
331
36705
  5
3642A
331
37D24
  5
36496
331
365DB
  5
37D52
331
36598
  5
3671D
331
364A7
  5
36580
331
3651E
  5
365E3
331
3646E
  5
36553
331
36559
  5
366B6
331
3651A
  5
365DF
331
37D20
  5
36384
331
36555
  5
366B2
331
363EC
  5
3644A
331
3640B
  5
364AF
331
36594
  5
36718
331
364A3
  5
3657C
331
37D57
  5
37D86
331
37D96
  5
365A8
331
3638D
  5
363A0
331
36551
  5
366AE
331
36590
  5
36714
331
36389
  5
3639C
331
363E8
  5
36432
331
36407
  5
364AB
331
37D53
  5
37D88
331
37D92
  5
365A4
331
3645E
  5
36546
331
37D8E
  5
365B0
331
36385
  5
36398
331
363E4
  5
3642E
331
37D4F
  5
37D8E
331
36403
  5
364A7
331
37D8A
  5
365AC
331
36381
  5
36394
331
37D4B
  5
37D91
331
366B6
  5
36549
331
365D3
  5
37D4A
331
366B2
  5
3655E
331
3649F
  5
36578
331
36516
  5
365DB
331
366F5
  5
364C2
331
37D1C
  5
36380
331
37D18
  5
3637C
331
365BF
  5
37D47
331
366AE
  5
3655A
331
3649B
  5
36574
331
36512
  5
365D7
331
366F1
  5
364BE
331
3654D
  5
366AA
331
3658C
  5
36710
331
366ED
  5
364BA
331
365BB
  5
37D43
331
36588
  5
3670C
331
36497
  5
36571
331
3650E
  5
365D3
331
363FF
  5
364A3
331
36549
  5
366A6
331
366AA
  5
36556
331
3650A
  5
365D0
331
366E9
  5
364B6
331
363CC
  5
3640C
331
36545
  5
366A2
331
36584
  5
36708
331
36493
  5
3656C
331
37D47
  5
37D95
331
37D86
  5
365B8
331
3637D
  5
36390
331
36541
  5
36673
331
36580
  5
36704
331
36379
  5
3638C
331
363C8
  5
36408
331
37D17
  5
37DA8
331
37D43
  5
37D9A
331
37D82
  5
365B4
331
3644E
  5
36538
331
3644A
  5
36534
331
36375
  5
36388
331
37D3F
  5
37D9E
331
37D7E
  5
365C1
331
37D7A
  5
365BC
331
36371
  5
3637A
331
37D3B
  5
37DA2
331
37DAB
  5
3636A
331
37DA7
  5
3636F
331
37DA3
  5
363C6
331
366A6
  5
36567
331
365B7
  5
37D3F
331
365B3
  5
37D3B
331
366A2
  5
36563
331
36506
  5
365CD
331
366E5
  5
36506
331
365AF
  5
37D37
331
3653D
  5
36643
331
3657C
  5
366F4
331
366D5
  5
36529
331
36578
  5
366F0
331
36446
  5
3652C
331
365AB
  5
37D33
331
36632
  5
37D7C
331
366D1
  5
36525
331
363AC
  5
363EF
331
36535
  5
3663C
331
36574
  5
366EC
331
37D76
  5
365C7
331
3636D
  5
36376
331
364C2
  5
365A0
331
363A8
  5
363EB
331
36531
  5
36632
331
37D72
  5
3666F
331
36432
  5
36519
331
363A4
  5
363E7
331
37D6E
  5
37D69
331
37D6A
  5
37D65
331
363A0
  5
363E3
331
3662E
  5
37D78
331
3662A
  5
37D74
331
364BE
  5
3659C
331
37D37
  5
37DA6
331
364BA
  5
36598
331
36626
  5
37D70
331
3656C
  5
366E5
331
366CD
  5
36521
331
366C9
  5
3651C
331
37D33
  5
36503
331
36622
  5
37D6C
331
36568
  5
366D5
331
3642E
  5
36515
331
365A7
  5
37D1C
331
364B6
  5
36594
331
3652D
  5
3662E
331
36529
  5
3662A
331
36564
  5
366D1
331
3642A
  5
36511
331
365A3
  5
37D18
331
364B2
  5
36590
331
37D66
  5
37D61
331
3639C
  5
363CA
331
36560
  5
366BD
331
36398
  5
363AC
331
363F7
  5
36470
331
37D62
  5
37D5D
331
36426
  5
3650D
331
36422
  5
36508
331
37D9D
  5
36532
331
363F3
  5
3646C
331
37D5E
  5
37D80
331
37D5A
  5
37D83
331
37D99
  5
3652E
331
36390
  5
363A3
331
366C5
  5
36543
331
37D2F
  5
364F1
331
365E2
  5
37D59
331
366C1
  5
3653F
331
364AE
  5
36587
331
36525
  5
36626
331
3670C
  5
36426
331
3659F
  5
37D14
331
3659B
  5
36720
331
364AA
  5
36583
331
36521
  5
36622
331
3655C
  5
366B9
331
36708
  5
36422
331
36704
  5
3642B
331
365DA
  5
37D51
331
36558
  5
366B5
331
36597
  5
3671C
331
3646D
  5
36552
331
364A6
  5
3657F
331
3651D
  5
365E2
331
363EF
  5
3644E
331
36519
  5
365DE
331
36554
  5
366B1
331
363EB
  5
36449
331
3640A
  5
364AE
331
36593
  5
36717
331
364A2
  5
3657B
331
37D56
  5
37D85
331
37D95
  5
365A7
331
3638C
  5
3639F
331
36550
  5
366AD
331
36388
  5
3639B
331
363E7
  5
36431
331
36406
  5
364AA
331
37D52
  5
37D87
331
37D91
  5
365A3
331
37D8D
  5
365AF
331
36384
  5
36397
331
363E3
  5
3642D
331
37D4E
  5
37D8D
331
36402
  5
364A6
331
37D4A
  5
37D93
331
37D89
  5
365AB
331
36380
  5
36393
331
365D6
  5
37D4D
331
37D1F
  5
36383
331
365D2
  5
37D49
331
366B1
  5
3655D
331
3649E
  5
36577
331
36515
  5
365DA
331
366F4
  5
364C1
331
3658F
  5
36713
331
37D1B
  5
3637F
331
365BE
  5
37D46
331
366AD
  5
36559
331
3658B
  5
3670F
331
3649A
  5
36573
331
36511
  5
365D6
331
3654C
  5
366A9
331
366F0
  5
364BD
331
366EC
  5
364B9
331
365BA
  5
37D42
331
36587
  5
3670B
331
36496
  5
3656F
331
3650D
  5
365D2
331
363FE
  5
364A2
331
36548
  5
366A5
331
36509
  5
365CF
331
366E8
  5
364B4
331
36544
  5
366A1
331
363CB
  5
3640B
331
363FA
  5
36493
331
36583
  5
36707
331
37D46
  5
37D94
331
37D85
  5
365B7
331
3637C
  5
3638F
331
36540
  5
36671
331
36378
  5
3638B
331
363C7
  5
36407
331
37D16
  5
37DA7
331
37D42
  5
37D99
331
37D81
  5
365B3
331
3644D
  5
36537
331
37D7D
  5
365BF
331
36374
  5
36387
331
37D3E
  5
37D9D
331
37D79
  5
365BB
331
36370
  5
36379
331
37D3A
  5
37DA1
331
37DAA
  5
3636E
331
37DA6
  5
36370
331
37DA2
  5
363C5
331
36767
  5
37DAC
331
365B6
  5
37D3E
331
365B2
  5
37D3A
331
36505
  5
365CC
331
3657F
  5
36703
331
365AE
  5
37D36
331
3653C
  5
36642
331
3657B
  5
366F3
331
36577
  5
366EF
331
3647E
  5
36560
331
365AA
  5
37D32
331
363AF
  5
363F2
331
36538
  5
3663F
331
36631
  5
37D7B
331
364C1
  5
3659F
331
363AB
  5
363EE
331
36534
  5
3663B
331
36573
  5
366EB
331
37D75
  5
365C6
331
3636C
  5
36375
331
363A7
  5
363EA
331
36530
  5
36631
331
37D71
  5
3666E
331
36431
  5
36518
331
363A3
  5
363E6
331
37D6D
  5
37D68
331
37D69
  5
37D64
  0
SORTENTSTABLE
  5
1D73
102
{ACAD_REACTORS
330
1D72
102
}
330
1D72
100
AcDbSortentsTable
330
D
331
5D
  5
5D
  0
XRECORD
  5
37E20
102
{ACAD_REACTORS
330
37E1F
102
}
330
37E1F
100
AcDbXrecord
280
     1
102
SHADEPLOT
 70
     0
  0
XRECORD
  5
37E1C
102
{ACAD_REACTORS
330
37E1B
102
}
330
37E1B
100
AcDbXrecord
280
     1
340
1D50
  0
LAYOUT
  5
10
102
{ACAD_XDICTIONARY
360
89C
102
}
102
{ACAD_REACTORS
330
C
102
}
330
C
100
AcDbPlotSettings
  1

  2
HP 5000 N
  4
Letter
  6

 40
5.027082920074462
 41
5.408084392547606
 42
5.365737915039061
 43
5.365753173828125
 44
215.8999938964844
 45
279.3999938964844
 46
4.140880409212495
 47
4.709578165054337
 48
0.0
 49
0.0
140
10.205
141
7.764780009564798
142
1.0
143
1.0
 70
   692
 72
     0
 73
     1
 74
     4
  7
GORDON-BLK.ctb
 75
    16
147
1.0
148
0.0
149
0.0
100
AcDbLayout
  1
Layout1
 70
     1
 71
     1
 10
-0.2079161059762549
 20
-0.2079166691697489
 11
10.79208365372785
 21
8.29208309053436
 12
0.0
 22
0.0
 32
0.0
 14
0.0
 24
0.0
 34
0.0
 15
10.205
 25
7.764780009564798
 35
0.0
146
0.0
 13
0.0
 23
0.0
 33
0.0
 16
1.0
 26
0.0
 36
0.0
 17
0.0
 27
1.0
 37
0.0
 76
     0
330
D
331
5D
1001
ACAD_PSEXT
1000
HP 5000 N
1000
HP LaserJet 5100 PS
1000
IP_192.168.100.208
1000

1070
     0
  0
LAYOUT
  5
B
102
{ACAD_XDICTIONARY
360
37DB4
102
}
102
{ACAD_REACTORS
330
C
102
}
330
C
100
AcDbPlotSettings
  1

  2
HP 1055CM+ Roll.pc3
  4
User257
  6

 40
4.995333194732666
 41
13.2922945022583
 42
4.99530029296875
 43
13.29296875
 44
899.1599731445312
 45
15239.9150390625
 46
0.0
 47
0.0
 48
1.592118068029931
 49
1.083964621542295
140
10.45538313863936
141
6.686027752030966
142
1.0
143
1.0
 70
 11952
 72
     0
 73
     1
 74
     4
  7
5000N-BLACK.ctb
 75
    16
147
1.0
148
-40.4397989279603
149
-27.53270138717434
100
AcDbLayout
  1
Model
 70
     1
 71
     0
 10
0.0
 20
0.0
 11
12.0
 21
9.0
 12
0.0
 22
0.0
 32
0.0
 14
0.0
 24
0.0
 34
0.0
 15
0.0
 25
0.0
 35
0.0
146
0.0
 13
0.0
 23
0.0
 33
0.0
 16
1.0
 26
0.0
 36
0.0
 17
0.0
 27
1.0
 37
0.0
 76
     0
330
2
331
882
  0
MATERIAL
  5
10B0
102
{ACAD_XDICTIONARY
360
37DCE
102
}
102
{ACAD_REACTORS
330
884
102
}
330
884
100
AcDbMaterial
  1
ByBlock
 73
     1
 78
     1
172
     1
176
     1
270
     1
274
     1
  0
MATERIAL
  5
10AF
102
{ACAD_XDICTIONARY
360
37DCC
102
}
102
{ACAD_REACTORS
330
884
102
}
330
884
100
AcDbMaterial
  1
ByLayer
 73
     1
 78
     1
172
     1
176
     1
270
     1
274
     1
  0
MATERIAL
  5
10B1
102
{ACAD_XDICTIONARY
360
37DD0
102
}
102
{ACAD_REACTORS
330
884
102
}
330
884
100
AcDbMaterial
  1
Global
 73
     1
 78
     1
172
     1
176
     1
270
     1
274
     1
  0
MLEADERSTYLE
  5
367A6
102
{ACAD_REACTORS
330
367A5
102
}
330
367A5
100
AcDbMLeaderStyle
170
     2
171
     1
172
     0
 90
        2
 40
0.0
 41
0.0
173
     1
 91
-1056964608
340
16
 92
       -2
290
     1
 42
0.09
291
     1
 43
0.36
  3
Standard
 44
0.18
300

342
13
174
     1
178
     6
175
     1
176
     0
 93
-1056964608
 45
0.18
292
     0
297
     0
 46
0.18
 94
-1056964608
 47
1.0
 49
1.0
140
1.0
293
     1
141
0.0
294
     1
177
     0
142
1.0
295
     0
296
     0
143
0.125
1001
ACAD_MLEADERVER
1070
     2
  0
MLINESTYLE
  5
28
102
{ACAD_REACTORS
330
25
102
}
330
25
100
AcDbMlineStyle
  2
STANDARD
 70
     0
  3

 62
   256
 51
90.0
 52
90.0
 71
     2
 49
0.5
 62
   256
  6
BYLAYER
 49
-0.5
 62
   256
  6
BYLAYER
  0
PLOTSETTINGS
  5
1A21
102
{ACAD_XDICTIONARY
360
37E3E
102
}
102
{ACAD_REACTORS
330
26
102
}
330
26
100
AcDbPlotSettings
  1
3010
  2
\\User-server\3010
  4
Letter
  6

 40
6.000749588012695
 41
6.000745773315428
 42
6.000747680664062
 43
6.000762939453125
 44
215.8999938964844
 45
279.3999938964844
 46
3.336542192430866
 47
4.095742591857943
 48
0.0
 49
0.0
140
10.205
141
7.764780009564798
142
1.0
143
1.0
 70
  2740
 72
     0
 73
     1
 74
     4
  7
GORDON-BLK.ctb
 75
    16
147
1.0
148
0.0
149
0.0
1001
ACAD_PSEXT
1000
\\User-server\3010
1000
KONICA MINOLTA Di3010 PCL6
1000
\\User-server
1000

1070
     0
  0
PLOTSETTINGS
  5
1A1F
102
{ACAD_XDICTIONARY
360
37E3A
102
}
102
{ACAD_REACTORS
330
26
102
}
330
26
100
AcDbPlotSettings
  1
5000N
  2
HP 5000 N
  4
Letter
  6

 40
4.233333110809326
 41
4.233341693878172
 42
4.233322143554686
 43
4.23333740234375
 44
215.8999938964844
 45
279.3999938964844
 46
5.103963199587251
 47
5.863157400131249
 48
0.0
 49
0.0
140
10.205
141
7.764780009564798
142
1.0
143
1.0
 70
  2740
 72
     0
 73
     1
 74
     4
  7
GORDON-BLK.ctb
 75
    16
147
1.0
148
0.0
149
0.0
1001
ACAD_PSEXT
1000
HP 5000 N
1000
HP LaserJet 5100 PCL 6
1000
IP_192.168.100.208
1000

1070
     0
  0
PLOTSETTINGS
  5
1A22
102
{ACAD_XDICTIONARY
360
37E40
102
}
102
{ACAD_REACTORS
330
26
102
}
330
26
100
AcDbPlotSettings
  1
Minolta
  2
\\User-server\Minolta
  4
Letter
  6

 40
6.085416316986081
 41
6.085421085357666
 42
6.085403442382812
 43
6.085418701171875
 44
215.8999938964844
 45
279.3999938964844
 46
3.251880947084776
 47
4.011077054977445
 48
0.0
 49
0.0
140
10.205
141
7.764780009564798
142
1.0
143
1.0
 70
  2740
 72
     0
 73
     1
 74
     4
  7
GORDON-BLK.ctb
 75
    16
147
1.0
148
0.0
149
0.0
1001
ACAD_PSEXT
1000
\\User-server\Minolta
1000
CopierBW Ver 1.1
1000
\\User-server
1000

1070
     0
  0
PLOTSETTINGS
  5
1A20
102
{ACAD_XDICTIONARY
360
37E3C
102
}
102
{ACAD_REACTORS
330
26
102
}
330
26
100
AcDbPlotSettings
  1
PDF
  2
Acrobat PDFWriter
  4
Letter
  6

 40
3.174999952316283
 41
3.174999952316283
 42
3.175003051757812
 43
3.17498779296875
 44
215.8999938964844
 45
279.3999938964844
 46
6.162289324732188
 47
6.921503075599713
 48
0.0
 49
0.0
140
10.205
141
7.764780009564798
142
1.0
143
1.0
 70
  2740
 72
     0
 73
     1
 74
     4
  7
GORDON-BLK.ctb
 75
    16
147
1.0
148
0.0
149
0.0
1001
ACAD_PSEXT
1000
Acrobat PDFWriter
1000
Adobe PDF Converter
1000
My Documents
1000
Creates Adobe PDF
1070
     0
  0
ACDBPLACEHOLDER
  5
5
102
{ACAD_REACTORS
330
6
102
}
330
6
  0
SCALE
  5
36794
102
{ACAD_REACTORS
330
36793
102
}
330
36793
100
AcDbScale
 70
     0
300
1:1
140
1.0
141
1.0
290
     1
  0
SCALE
  5
36795
102
{ACAD_REACTORS
330
36793
102
}
330
36793
100
AcDbScale
 70
     0
300
1/128" = 1'-0"
140
0.0078125
141
12.0
290
     0
  0
SCALE
  5
36796
102
{ACAD_REACTORS
330
36793
102
}
330
36793
100
AcDbScale
 70
     0
300
1/64" = 1'-0"
140
0.015625
141
12.0
290
     0
  0
SCALE
  5
36797
102
{ACAD_REACTORS
330
36793
102
}
330
36793
100
AcDbScale
 70
     0
300
1/32" = 1'-0"
140
0.03125
141
12.0
290
     0
  0
SCALE
  5
36798
102
{ACAD_REACTORS
330
36793
102
}
330
36793
100
AcDbScale
 70
     0
300
1/16" = 1'-0"
140
0.0625
141
12.0
290
     0
  0
SCALE
  5
36799
102
{ACAD_REACTORS
330
36793
102
}
330
36793
100
AcDbScale
 70
     0
300
3/32" = 1'-0"
140
0.09375
141
12.0
290
     0
  0
SCALE
  5
3679A
102
{ACAD_REACTORS
330
36793
102
}
330
36793
100
AcDbScale
 70
     0
300
1/8" = 1'-0"
140
0.125
141
12.0
290
     0
  0
SCALE
  5
3679B
102
{ACAD_REACTORS
330
36793
102
}
330
36793
100
AcDbScale
 70
     0
300
3/16" = 1'-0"
140
0.1875
141
12.0
290
     0
  0
SCALE
  5
3679C
102
{ACAD_REACTORS
330
36793
102
}
330
36793
100
AcDbScale
 70
     0
300
1/4" = 1'-0"
140
0.25
141
12.0
290
     0
  0
SCALE
  5
3679D
102
{ACAD_REACTORS
330
36793
102
}
330
36793
100
AcDbScale
 70
     0
300
3/8" = 1'-0"
140
0.375
141
12.0
290
     0
  0
SCALE
  5
3679E
102
{ACAD_REACTORS
330
36793
102
}
330
36793
100
AcDbScale
 70
     0
300
1/2" = 1'-0"
140
0.5
141
12.0
290
     0
  0
SCALE
  5
3679F
102
{ACAD_REACTORS
330
36793
102
}
330
36793
100
AcDbScale
 70
     0
300
3/4" = 1'-0"
140
0.75
141
12.0
290
     0
  0
SCALE
  5
367A0
102
{ACAD_REACTORS
330
36793
102
}
330
36793
100
AcDbScale
 70
     0
300
1" = 1'-0"
140
1.0
141
12.0
290
     0
  0
SCALE
  5
367A1
102
{ACAD_REACTORS
330
36793
102
}
330
36793
100
AcDbScale
 70
     0
300
1-1/2" = 1'-0"
140
1.5
141
12.0
290
     0
  0
SCALE
  5
367A2
102
{ACAD_REACTORS
330
36793
102
}
330
36793
100
AcDbScale
 70
     0
300
3" = 1'-0"
140
3.0
141
12.0
290
     0
  0
SCALE
  5
367A3
102
{ACAD_REACTORS
330
36793
102
}
330
36793
100
AcDbScale
 70
     0
300
6" = 1'-0"
140
6.0
141
12.0
290
     0
  0
SCALE
  5
367A4
102
{ACAD_REACTORS
330
36793
102
}
330
36793
100
AcDbScale
 70
     0
300
1'-0" = 1'-0"
140
12.0
141
12.0
290
     0
  0
TABLESTYLE
  5
887
102
{ACAD_XDICTIONARY
360
37DC1
102
}
102
{ACAD_REACTORS
330
886
102
}
330
886
100
AcDbTableStyle
  3
Standard
 70
     0
 71
     0
 40
0.06
 41
0.06
280
     0
281
     0
  7
STANDARD
140
0.18
170
     2
 62
     0
 63
     7
283
     0
274
    -2
284
     1
 64
     0
275
    -2
285
     1
 65
     0
276
    -2
286
     1
 66
     0
277
    -2
287
     1
 67
     0
278
    -2
288
     1
 68
     0
279
    -2
289
     1
 69
     0
  7
STANDARD
140
0.25
170
     5
 62
     0
 63
     7
283
     0
274
    -2
284
     1
 64
     0
275
    -2
285
     1
 65
     0
276
    -2
286
     1
 66
     0
277
    -2
287
     1
 67
     0
278
    -2
288
     1
 68
     0
279
    -2
289
     1
 69
     0
  7
STANDARD
140
0.18
170
     5
 62
     0
 63
     7
283
     0
274
    -2
284
     1
 64
     0
275
    -2
285
     1
 65
     0
276
    -2
286
     1
 66
     0
277
    -2
287
     1
 67
     0
278
    -2
288
     1
 68
     0
279
    -2
289
     1
 69
     0
  0
VISUALSTYLE
  5
10B8
102
{ACAD_XDICTIONARY
360
37E2C
102
}
102
{ACAD_REACTORS
330
10B2
102
}
330
10B2
100
AcDbVisualStyle
  2

 70
     4
 71
     0
 72
     2
 73
     0
 90
        0
 40
-0.6
 41
-30.0
 62
     5
 63
     7
 74
     1
 91
        4
 64
     7
 65
   257
 75
     1
175
     1
 42
1.0
 92
        0
 66
   257
 43
1.0
 76
     1
 77
     6
 78
     2
 67
     7
 79
     5
170
     0
171
     0
290
     0
174
     0
 93
        1
 44
0.0
173
     0
291
     0
 45
0.0
1001
ACAD
1000
AcDbSavedByObjectVersion
1070
     0
  0
VISUALSTYLE
  5
1D4F
102
{ACAD_XDICTIONARY
360
37E42
102
}
102
{ACAD_REACTORS
330
10B2
102
}
330
10B2
100
AcDbVisualStyle
  2

 70
     6
 71
     1
 72
     2
 73
     2
 90
        0
 40
-0.6
 41
-30.0
 62
     5
 63
     7
 74
     2
 91
        2
 64
     7
 65
   257
 75
     2
175
     1
 42
40.0
 92
        0
 66
   257
 43
1.0
 76
     1
 77
     6
 78
     2
 67
     7
 79
     3
170
     0
171
     0
290
     0
174
     0
 93
        1
 44
0.0
173
     0
291
     0
 45
0.0
1001
ACAD
1000
AcDbSavedByObjectVersion
1070
     0
  0
VISUALSTYLE
  5
1D50
102
{ACAD_XDICTIONARY
360
37E44
102
}
102
{ACAD_REACTORS
330
10B2
102
}
330
10B2
100
AcDbVisualStyle
  2

 70
     5
 71
     0
 72
     2
 73
     0
 90
        0
 40
-0.6
 41
-30.0
 62
     5
 63
     7
 74
     1
 91
        4
 64
     7
 65
   257
 75
     1
175
     1
 42
1.0
 92
        0
 66
   257
 43
1.0
 76
     1
 77
     6
 78
     2
 67
     7
 79
     5
170
     0
171
     0
290
     0
174
     0
 93
        1
 44
0.0
173
     0
291
     0
 45
0.0
1001
ACAD
1000
AcDbSavedByObjectVersion
1070
     0
  0
VISUALSTYLE
  5
10B7
102
{ACAD_XDICTIONARY
360
37E2A
102
}
102
{ACAD_REACTORS
330
10B2
102
}
330
10B2
100
AcDbVisualStyle
  2

 70
     7
 71
     1
 72
     0
 73
     1
 90
        0
 40
-0.6
 41
-30.0
 62
     5
 63
     7
 74
     0
 91
        4
 64
     7
 65
   257
 75
     1
175
     1
 42
1.0
 92
        8
 66
     7
 43
1.0
 76
     1
 77
     6
 78
     2
 67
     7
 79
     5
170
     0
171
     0
290
     0
174
     0
 93
        1
 44
0.0
173
     0
291
     1
 45
0.0
1001
ACAD
1000
AcDbSavedByObjectVersion
1070
     0
  0
VISUALSTYLE
  5
10BE
102
{ACAD_XDICTIONARY
360
37E30
102
}
102
{ACAD_REACTORS
330
10B2
102
}
330
10B2
100
AcDbVisualStyle
  2

 70
    12
 71
     2
 72
     2
 73
     0
 90
        0
 40
-0.6
 41
-30.0
 62
     5
 63
     7
 74
     1
 91
        4
 64
     7
 65
   257
 75
     1
175
     1
 42
1.0
 92
        8
 66
     7
 43
1.0
 76
     1
 77
     6
 78
     2
 67
     7
 79
     5
170
     0
171
     0
290
     0
174
     0
 93
        1
 44
50.0
173
     0
291
     1
 45
0.0
1001
ACAD
1000
AcDbSavedByObjectVersion
1070
     0
  0
VISUALSTYLE
  5
10C2
102
{ACAD_XDICTIONARY
360
37E38
102
}
102
{ACAD_REACTORS
330
10B2
102
}
330
10B2
100
AcDbVisualStyle
  2

 70
    16
 71
     2
 72
     2
 73
     3
 90
        0
 40
-0.6
 41
-30.0
 62
     5
 63
     8
 74
     1
 91
        4
 64
     7
 65
   257
 75
     1
175
     1
 42
1.0
 92
        8
 66
     8
 43
1.0
 76
     1
 77
     6
 78
     2
 67
     7
 79
     5
170
     0
171
     0
290
     0
174
     0
 93
        1
 44
0.0
173
     0
291
     1
 45
0.0
1001
ACAD
1000
AcDbSavedByObjectVersion
1070
     0
  0
VISUALSTYLE
  5
1D51
102
{ACAD_XDICTIONARY
360
37E46
102
}
102
{ACAD_REACTORS
330
10B2
102
}
330
10B2
100
AcDbVisualStyle
  2

 70
     9
 71
     3
 72
     2
 73
     0
 90
        0
 40
-0.6
 41
-30.0
 62
     5
 63
     7
 74
     2
 91
        2
 64
     7
 65
   257
 75
     1
175
     1
 42
40.0
 92
        8
 66
     7
 43
1.0
 76
     1
 77
     6
 78
     2
 67
     7
 79
     3
170
     0
171
     0
290
     0
174
     0
 93
        1
 44
0.0
173
     0
291
     0
 45
0.0
1001
ACAD
1000
AcDbSavedByObjectVersion
1070
     0
  0
VISUALSTYLE
  5
10BD
102
{ACAD_XDICTIONARY
360
37E2E
102
}
102
{ACAD_REACTORS
330
10B2
102
}
330
10B2
100
AcDbVisualStyle
  2

 70
    11
 71
     2
 72
     2
 73
     0
 90
        0
 40
-0.6
 41
-30.0
 62
     5
 63
     7
 74
     1
 91
        4
 64
     7
 65
   257
 75
     1
175
     1
 42
1.0
 92
        8
 66
     7
 43
1.0
 76
     1
 77
     6
 78
     2
 67
     7
 79
     5
170
     0
171
     0
290
     0
174
     0
 93
        1
 44
-50.0
173
     0
291
     1
 45
0.0
1001
ACAD
1000
AcDbSavedByObjectVersion
1070
     0
  0
VISUALSTYLE
  5
36792
102
{ACAD_XDICTIONARY
360
37E5C
102
}
102
{ACAD_REACTORS
330
10B2
102
}
330
10B2
100
AcDbVisualStyle
  2

 70
    22
 71
     2
 72
     2
 73
     0
 90
        0
 40
-0.6
 41
-30.0
 62
     5
 63
     7
 74
     1
 91
        4
 64
     7
 65
   257
 75
     1
175
     1
 42
1.0
 92
        8
 66
     7
 43
1.0
 76
     1
 77
     6
 78
     2
 67
     7
 79
     5
170
     0
171
     0
290
     0
174
     0
 93
        1
 44
0.0
173
     0
291
     1
 45
0.0
1001
ACAD
1000
AcDbSavedByObjectVersion
1070
     0
  0
VISUALSTYLE
  5
10C1
102
{ACAD_XDICTIONARY
360
37E36
102
}
102
{ACAD_REACTORS
330
10B2
102
}
330
10B2
100
AcDbVisualStyle
  2

 70
    15
 71
     2
 72
     2
 73
     0
 90
        0
 40
-0.6
 41
-30.0
 62
     5
 63
     7
 74
     1
 91
        4
 64
     7
 65
   257
 75
     1
175
     1
 42
1.0
 92
        8
 66
     7
 43
1.0
 76
     1
 77
     6
 78
     2
 67
     7
 79
     5
170
     0
171
     0
290
     0
174
     0
 93
        1
 44
0.0
173
     0
291
     1
 45
0.0
1001
ACAD
1000
AcDbSavedByObjectVersion
1070
     0
  0
VISUALSTYLE
  5
10B3
102
{ACAD_XDICTIONARY
360
37E22
102
}
102
{ACAD_REACTORS
330
10B2
102
}
330
10B2
100
AcDbVisualStyle
  2

 70
     0
 71
     2
 72
     1
 73
     1
 90
        2
 40
-0.6
 41
30.0
 62
     5
 63
     7
 74
     0
 91
        4
 64
     7
 65
   257
 75
     1
175
     1
 42
1.0
 92
        8
 66
     7
 43
1.0
 76
     1
 77
     6
 78
     2
 67
     7
 79
     5
170
     0
171
     0
290
     0
174
     0
 93
       13
 44
0.0
173
     0
291
     1
 45
0.0
1001
ACAD
1000
AcDbSavedByObjectVersion
1070
     0
  0
VISUALSTYLE
  5
10B4
102
{ACAD_XDICTIONARY
360
37E24
102
}
102
{ACAD_REACTORS
330
10B2
102
}
330
10B2
100
AcDbVisualStyle
  2

 70
     1
 71
     2
 72
     1
 73
     1
 90
        2
 40
-0.6
 41
30.0
 62
     5
 63
     7
 74
     1
 91
        4
 64
     7
 65
   257
 75
     1
175
     1
 42
1.0
 92
        0
 66
   257
 43
1.0
 76
     1
 77
     6
 78
     2
 67
     7
 79
     5
170
     0
171
     0
290
     0
174
     0
 93
       13
 44
0.0
173
     0
291
     1
 45
0.0
1001
ACAD
1000
AcDbSavedByObjectVersion
1070
     0
  0
VISUALSTYLE
  5
10B5
102
{ACAD_XDICTIONARY
360
37E26
102
}
102
{ACAD_REACTORS
330
10B2
102
}
330
10B2
100
AcDbVisualStyle
  2

 70
     2
 71
     2
 72
     2
 73
     1
 90
        2
 40
-0.6
 41
30.0
 62
     5
 63
     7
 74
     0
 91
        4
 64
     7
 65
   257
 75
     1
175
     1
 42
1.0
 92
        0
 66
     7
 43
1.0
 76
     1
 77
     6
 78
     2
 67
     7
 79
     5
170
     0
171
     0
290
     0
174
     0
 93
       13
 44
0.0
173
     0
291
     1
 45
0.0
1001
ACAD
1000
AcDbSavedByObjectVersion
1070
     0
  0
VISUALSTYLE
  5
10B6
102
{ACAD_XDICTIONARY
360
37E28
102
}
102
{ACAD_REACTORS
330
10B2
102
}
330
10B2
100
AcDbVisualStyle
  2

 70
     3
 71
     2
 72
     2
 73
     1
 90
        2
 40
-0.6
 41
30.0
 62
     5
 63
     7
 74
     1
 91
        4
 64
     7
 65
   257
 75
     1
175
     1
 42
1.0
 92
        0
 66
   257
 43
1.0
 76
     1
 77
     6
 78
     2
 67
     7
 79
     5
170
     0
171
     0
290
     0
174
     0
 93
       13
 44
0.0
173
     0
291
     1
 45
0.0
1001
ACAD
1000
AcDbSavedByObjectVersion
1070
     0
  0
VISUALSTYLE
  5
3678A
102
{ACAD_XDICTIONARY
360
37E4C
102
}
102
{ACAD_REACTORS
330
10B2
102
}
330
10B2
100
AcDbVisualStyle
  2

 70
     6
 71
     1
 72
     2
 73
     2
 90
        0
 40
-0.6
 41
-30.0
 62
     5
 63
     7
 74
     2
 91
        2
 64
     7
 65
   257
 75
     2
175
     1
 42
40.0
 92
        0
 66
   257
 43
1.0
 76
     1
 77
     6
 78
     2
 67
     7
 79
     3
170
     0
171
     0
290
     0
174
     0
 93
        1
 44
0.0
173
     0
291
     0
 45
0.0
1001
ACAD
1000
AcDbSavedByObjectVersion
1070
     0
  0
VISUALSTYLE
  5
36790
102
{ACAD_XDICTIONARY
360
37E58
102
}
102
{ACAD_REACTORS
330
10B2
102
}
330
10B2
100
AcDbVisualStyle
  2

 70
    20
 71
     2
 72
     2
 73
     0
 90
        0
 40
-0.6
 41
-30.0
 62
     5
 63
     7
 74
     1
 91
        4
 64
     7
 65
   257
 75
     1
175
     1
 42
1.0
 92
       10
 66
     7
 43
1.0
 76
     1
 77
     6
 78
     2
 67
     7
 79
     5
170
     0
171
     0
290
     0
174
     0
 93
        1
 44
0.0
173
     0
291
     1
 45
0.0
1001
ACAD
1000
AcDbSavedByObjectVersion
1070
     0
  0
VISUALSTYLE
  5
10C0
102
{ACAD_XDICTIONARY
360
37E34
102
}
102
{ACAD_REACTORS
330
10B2
102
}
330
10B2
100
AcDbVisualStyle
  2

 70
    14
 71
     2
 72
     2
 73
     0
 90
        0
 40
-0.6
 41
-30.0
 62
     5
 63
     7
 74
     1
 91
        4
 64
     7
 65
   257
 75
     7
175
     7
 42
1.0
 92
        8
 66
     7
 43
1.0
 76
     1
 77
     6
 78
     2
 67
     7
 79
     5
170
     0
171
     0
290
     0
174
     0
 93
        1
 44
0.0
173
     0
291
     1
 45
0.0
1001
ACAD
1000
AcDbSavedByObjectVersion
1070
     0
  0
VISUALSTYLE
  5
36791
102
{ACAD_XDICTIONARY
360
37E5A
102
}
102
{ACAD_REACTORS
330
10B2
102
}
330
10B2
100
AcDbVisualStyle
  2

 70
    21
 71
     2
 72
     2
 73
     0
 90
        0
 40
-0.6
 41
-30.0
 62
     5
 63
     7
 74
     1
 91
        4
 64
     7
 65
   257
 75
     1
175
     1
 42
1.0
 92
        9
 66
     7
 43
1.0
 76
     1
 77
     6
 78
     2
 67
     7
 79
     5
170
     0
171
     0
290
     0
174
     0
 93
        1
 44
0.0
173
     0
291
     1
 45
0.0
1001
ACAD
1000
AcDbSavedByObjectVersion
1070
     0
  0
VISUALSTYLE
  5
1D52
102
{ACAD_XDICTIONARY
360
37E48
102
}
102
{ACAD_REACTORS
330
10B2
102
}
330
10B2
100
AcDbVisualStyle
  2

 70
     8
 71
     2
 72
     2
 73
     0
 90
        0
 40
-0.6
 41
-30.0
 62
     5
 63
     7
 74
     1
 91
        0
 64
     7
 65
   257
 75
     1
175
     1
 42
1.0
 92
        8
 66
     8
 43
1.0
 76
     1
 77
     6
 78
     2
 67
     7
 79
     5
170
     0
171
     0
290
     0
174
     0
 93
       13
 44
0.0
173
     0
291
     0
 45
0.0
1001
ACAD
1000
AcDbSavedByObjectVersion
1070
     0
  0
VISUALSTYLE
  5
3678F
102
{ACAD_XDICTIONARY
360
37E56
102
}
102
{ACAD_REACTORS
330
10B2
102
}
330
10B2
100
AcDbVisualStyle
  2

 70
    27
 71
     2
 72
     2
 73
     1
 90
        2
 40
-0.6
 41
30.0
 62
     5
 63
     7
 74
     0
 91
        4
 64
     7
 65
   257
 75
     1
175
     1
 42
1.0
 92
        8
 66
   257
 43
1.0
 76
     1
 77
     6
 78
     2
 67
     8
 79
     3
170
     0
171
     0
290
     0
174
     0
 93
        5
 44
0.0
173
     0
291
     0
 45
0.0
1001
ACAD
1000
AcDbSavedByObjectVersion
1070
     0
  0
VISUALSTYLE
  5
3678E
102
{ACAD_XDICTIONARY
360
37E54
102
}
102
{ACAD_REACTORS
330
10B2
102
}
330
10B2
100
AcDbVisualStyle
  2

 70
    26
 71
     2
 72
     2
 73
     1
 90
        2
 40
-0.6
 41
30.0
 62
     5
 63
     7
 74
     1
 91
       10
 64
     7
 65
   257
 75
     2
175
     1
 42
1.0
 92
        8
 66
   257
 43
1.0
 76
     1
 77
     6
 78
     2
 67
     7
 79
     3
170
     0
171
     0
290
     0
174
     0
 93
        5
 44
0.0
173
     0
291
     0
 45
0.0
1001
ACAD
1000
AcDbSavedByObjectVersion
1070
     0
  0
VISUALSTYLE
  5
3678B
102
{ACAD_XDICTIONARY
360
37E4E
102
}
102
{ACAD_REACTORS
330
10B2
102
}
330
10B2
100
AcDbVisualStyle
  2

 70
    23
 71
     2
 72
     2
 73
     3
 90
        0
 40
-0.6
 41
-30.0
 62
     5
 63
     7
 74
     2
 91
        2
 64
     7
 65
     7
 75
     1
175
     1
 42
40.0
 92
        8
 66
     7
 43
1.0
 76
     1
 77
     6
 78
     2
 67
     7
 79
     3
170
     0
171
     0
290
     0
174
     0
 93
        1
 44
0.0
173
     0
291
     0
 45
0.0
1001
ACAD
1000
AcDbSavedByObjectVersion
1070
     0
  0
VISUALSTYLE
  5
3678C
102
{ACAD_XDICTIONARY
360
37E50
102
}
102
{ACAD_REACTORS
330
10B2
102
}
330
10B2
100
AcDbVisualStyle
  2

 70
    24
 71
     1
 72
     2
 73
     2
 90
        0
 40
-0.6
 41
-30.0
 62
     5
 63
     7
 74
     2
 91
        2
 64
     7
 65
     7
 75
     1
175
     1
 42
40.0
 92
       11
 66
     7
 43
1.0
 76
     1
 77
     6
 78
     2
 67
     7
 79
     6
170
     0
171
     0
290
     0
174
     0
 93
        1
 44
0.0
173
     0
291
     0
 45
0.0
1001
ACAD
1000
AcDbSavedByObjectVersion
1070
     0
  0
VISUALSTYLE
  5
10BF
102
{ACAD_XDICTIONARY
360
37E32
102
}
102
{ACAD_REACTORS
330
10B2
102
}
330
10B2
100
AcDbVisualStyle
  2

 70
    13
 71
     2
 72
     2
 73
     0
 90
        0
 40
-0.6
 41
-30.0
 62
     5
 63
     7
 74
     1
 91
        4
 64
     7
 65
   257
 75
     1
175
     1
 42
1.0
 92
       12
 66
     7
 43
1.0
 76
     1
 77
     6
 78
     2
 67
     7
 79
     5
170
     0
171
     0
290
     0
174
     0
 93
        1
 44
0.0
173
     0
291
     1
 45
0.0
1001
ACAD
1000
AcDbSavedByObjectVersion
1070
     0
  0
VISUALSTYLE
  5
36789
102
{ACAD_XDICTIONARY
360
37E4A
102
}
102
{ACAD_REACTORS
330
10B2
102
}
330
10B2
100
AcDbVisualStyle
  2

 70
     5
 71
     0
 72
     2
 73
     0
 90
        0
 40
-0.6
 41
-30.0
 62
     5
 63
     7
 74
     1
 91
        4
 64
     7
 65
   257
 75
     1
175
     1
 42
1.0
 92
        0
 66
   257
 43
1.0
 76
     1
 77
     6
 78
     2
 67
     7
 79
     3
170
     0
171
     0
290
     0
174
     0
 93
        1
 44
0.0
173
     0
291
     0
 45
0.0
1001
ACAD
1000
AcDbSavedByObjectVersion
1070
     0
  0
VISUALSTYLE
  5
3678D
102
{ACAD_XDICTIONARY
360
37E52
102
}
102
{ACAD_REACTORS
330
10B2
102
}
330
10B2
100
AcDbVisualStyle
  2

 70
    25
 71
     2
 72
     2
 73
     1
 90
        1
 40
0.5
 41
-30.0
 62
     5
 63
     7
 74
     1
 91
        0
 64
     7
 65
   257
 75
     1
175
     1
 42
1.0
 92
        8
 66
     7
 43
1.0
 76
     1
 77
     6
 78
     2
 67
     7
 79
     3
170
     0
171
     0
290
     0
174
     0
 93
       13
 44
0.0
173
     0
291
     0
 45
0.0
1001
ACAD
1000
AcDbSavedByObjectVersion
1070
     0
  0
DICTIONARYVAR
  5
37C5B
102
{ACAD_REACTORS
330
3AC
102
}
330
3AC
100
DictionaryVariables
280
     0
  1
1:1
  0
DICTIONARYVAR
  5
37C59
102
{ACAD_REACTORS
330
3AC
102
}
330
3AC
100
DictionaryVariables
280
     0
  1
STANDARD
  0
DICTIONARYVAR
  5
89F
102
{ACAD_REACTORS
330
3AC
102
}
330
3AC
100
DictionaryVariables
280
     0
  1
STANDARD
  0
DICTIONARYVAR
  5
3AD
102
{ACAD_REACTORS
330
3AC
102
}
330
3AC
100
DictionaryVariables
280
     0
  1
1
  0
DICTIONARYVAR
  5
37E16
102
{ACAD_REACTORS
330
3AC
102
}
330
3AC
100
DictionaryVariables
280
     0
  1
0
  0
DICTIONARYVAR
  5
37DBE
102
{ACAD_REACTORS
330
3AC
102
}
330
3AC
100
DictionaryVariables
280
     0
  1
0
  0
DICTIONARYVAR
  5
37C5D
102
{ACAD_REACTORS
330
3AC
102
}
330
3AC
100
DictionaryVariables
280
     0
  1
1
  0
DICTIONARYVAR
  5
37C5E
102
{ACAD_REACTORS
330
3AC
102
}
330
3AC
100
DictionaryVariables
280
     0
  1
15
  0
DICTIONARYVAR
  5
37C5C
102
{ACAD_REACTORS
330
3AC
102
}
330
3AC
100
DictionaryVariables
280
     0
  1
0
  0
DICTIONARYVAR
  5
37C5A
102
{ACAD_REACTORS
330
3AC
102
}
330
3AC
100
DictionaryVariables
280
     0
  1
0
  0
DICTIONARYVAR
  5
37DC0
102
{ACAD_REACTORS
330
3AC
102
}
330
3AC
100
DictionaryVariables
280
     0
  1
1
  0
DICTIONARYVAR
  5
37DBD
102
{ACAD_REACTORS
330
3AC
102
}
330
3AC
100
DictionaryVariables
280
     0
  1
127
  0
DICTIONARYVAR
  5
37E17
102
{ACAD_REACTORS
330
3AC
102
}
330
3AC
100
DictionaryVariables
280
     0
  1
2
  0
XRECORD
  5
1054
102
{ACAD_REACTORS
330
1053
102
}
330
1053
100
AcDbXrecord
280
     1
330
0
  0
XRECORD
  5
36737
102
{ACAD_REACTORS
330
89A
102
}
330
89A
100
AcDbXrecord
280
     1
 91
      535
301

290
     0
302
0
330
1A94
 90
        0
 62
   253
370
    -3
331
8
  1
Color_253
330
1A91
 90
        8
 62
    60
370
    -3
331
8
  1
Color_60
330
1A8E
 90
        8
 62
     2
370
    -3
331
8
  1
Color_2
330
1A8B
 90
        8
 62
     2
370
    -3
331
1A4E
  1
Color_2
330
1A88
 90
        8
 62
     3
370
    -3
331
8
  1
Color_3
330
1A85
 90
        8
 62
     6
370
    -3
331
8
  1
Color_6
330
1A82
 90
        0
 62
   251
370
    -3
331
8
  1
Color_251
330
1A7F
 90
        8
 62
     1
370
    -3
331
8
  1
Color_1
330
1A7C
 90
        8
 62
   253
370
    -3
331
1A5D
  1
Color_253
330
1A79
 90
        8
 62
     2
370
    -3
331
8
  1
Color_2
330
1A76
 90
        8
 62
     4
370
    -3
331
8
  1
Color_4
330
1A73
 90
        8
 62
     1
370
    -3
331
8
  1
Color_1
330
1A70
 90
        8
 62
     6
370
    -3
331
8
  1
Color_6
330
1A6D
 90
        8
 62
     5
370
    -3
331
8
  1
Color_5
330
1A6A
 90
        8
 62
    52
370
    -3
331
8
  1
Color_52
330
1A67
 90
        8
 62
     2
370
    -3
331
8
  1
Color_2
330
1A64
 90
        8
 62
     1
370
    -3
331
8
  1
Color_1
330
1A61
 90
        8
 62
     1
370
    -3
331
8
  1
Color_1
330
73
 90
        0
 62
   252
370
    -3
331
8
  1
Color_252
330
32
 90
        8
 62
     3
370
    -3
331
8
  1
Color_3
330
4
 90
        8
 62
     7
370
    -3
331
8
  1
Color_7
  0
DICTIONARY
  5
89C
330
10
100
AcDbDictionary
280
     1
281
     1
  3
ACAD_XREC_ROUNDTRIP
360
37E1E
  3
ADSK_XREC_LAYOUTTHUMBNAIL
360
89D
  0
DICTIONARY
  5
37DB4
330
B
100
AcDbDictionary
280
     1
281
     1
  3
ACAD_XREC_ROUNDTRIP
360
37E1D
  3
ADSK_XREC_LAYOUTTHUMBNAIL
360
37DB5
  0
DICTIONARY
  5
37DCE
330
10B0
100
AcDbDictionary
280
     1
281
     1
  3
ACAD_XREC_ROUNDTRIP
360
37DCF
  0
DICTIONARY
  5
37DCC
330
10AF
100
AcDbDictionary
280
     1
281
     1
  3
ACAD_XREC_ROUNDTRIP
360
37DCD
  0
DICTIONARY
  5
37DD0
330
10B1
100
AcDbDictionary
280
     1
281
     1
  3
ACAD_XREC_ROUNDTRIP
360
37DD1
  0
DICTIONARY
  5
37E3E
330
1A21
100
AcDbDictionary
280
     1
281
     1
  3
ACAD_XREC_ROUNDTRIP
360
37E3F
  0
DICTIONARY
  5
37E3A
330
1A1F
100
AcDbDictionary
280
     1
281
     1
  3
ACAD_XREC_ROUNDTRIP
360
37E3B
  0
DICTIONARY
  5
37E40
330
1A22
100
AcDbDictionary
280
     1
281
     1
  3
ACAD_XREC_ROUNDTRIP
360
37E41
  0
DICTIONARY
  5
37E3C
330
1A20
100
AcDbDictionary
280
     1
281
     1
  3
ACAD_XREC_ROUNDTRIP
360
37E3D
  0
DICTIONARY
  5
37DC1
330
887
100
AcDbDictionary
280
     1
281
     1
  3
ACAD_ROUNDTRIP_2008_TABLESTYLE_CELLSTYLEMAP
360
37E18
  3
ACAD_XREC_ROUNDTRIP
360
37E21
  0
DICTIONARY
  5
37E2C
330
10B8
100
AcDbDictionary
280
     1
281
     1
  3
ACAD_XREC_ROUNDTRIP
360
37E2D
  0
DICTIONARY
  5
37E42
330
1D4F
100
AcDbDictionary
280
     1
281
     1
  3
ACAD_XREC_ROUNDTRIP
360
37E43
  0
DICTIONARY
  5
37E44
330
1D50
100
AcDbDictionary
280
     1
281
     1
  3
ACAD_XREC_ROUNDTRIP
360
37E45
  0
DICTIONARY
  5
37E2A
330
10B7
100
AcDbDictionary
280
     1
281
     1
  3
ACAD_XREC_ROUNDTRIP
360
37E2B
  0
DICTIONARY
  5
37E30
330
10BE
100
AcDbDictionary
280
     1
281
     1
  3
ACAD_XREC_ROUNDTRIP
360
37E31
  0
DICTIONARY
  5
37E38
330
10C2
100
AcDbDictionary
280
     1
281
     1
  3
ACAD_XREC_ROUNDTRIP
360
37E39
  0
DICTIONARY
  5
37E46
330
1D51
100
AcDbDictionary
280
     1
281
     1
  3
ACAD_XREC_ROUNDTRIP
360
37E47
  0
DICTIONARY
  5
37E2E
330
10BD
100
AcDbDictionary
280
     1
281
     1
  3
ACAD_XREC_ROUNDTRIP
360
37E2F
  0
DICTIONARY
  5
37E5C
330
36792
100
AcDbDictionary
280
     1
281
     1
  3
ACAD_XREC_ROUNDTRIP
360
37E5D
  0
DICTIONARY
  5
37E36
330
10C1
100
AcDbDictionary
280
     1
281
     1
  3
ACAD_XREC_ROUNDTRIP
360
37E37
  0
DICTIONARY
  5
37E22
330
10B3
100
AcDbDictionary
280
     1
281
     1
  3
ACAD_XREC_ROUNDTRIP
360
37E23
  0
DICTIONARY
  5
37E24
330
10B4
100
AcDbDictionary
280
     1
281
     1
  3
ACAD_XREC_ROUNDTRIP
360
37E25
  0
DICTIONARY
  5
37E26
330
10B5
100
AcDbDictionary
280
     1
281
     1
  3
ACAD_XREC_ROUNDTRIP
360
37E27
  0
DICTIONARY
  5
37E28
330
10B6
100
AcDbDictionary
280
     1
281
     1
  3
ACAD_XREC_ROUNDTRIP
360
37E29
  0
DICTIONARY
  5
37E4C
330
3678A
100
AcDbDictionary
280
     1
281
     1
  3
ACAD_XREC_ROUNDTRIP
360
37E4D
  0
DICTIONARY
  5
37E58
330
36790
100
AcDbDictionary
280
     1
281
     1
  3
ACAD_XREC_ROUNDTRIP
360
37E59
  0
DICTIONARY
  5
37E34
330
10C0
100
AcDbDictionary
280
     1
281
     1
  3
ACAD_XREC_ROUNDTRIP
360
37E35
  0
DICTIONARY
  5
37E5A
330
36791
100
AcDbDictionary
280
     1
281
     1
  3
ACAD_XREC_ROUNDTRIP
360
37E5B
  0
DICTIONARY
  5
37E48
330
1D52
100
AcDbDictionary
280
     1
281
     1
  3
ACAD_XREC_ROUNDTRIP
360
37E49
  0
DICTIONARY
  5
37E56
330
3678F
100
AcDbDictionary
280
     1
281
     1
  3
ACAD_XREC_ROUNDTRIP
360
37E57
  0
DICTIONARY
  5
37E54
330
3678E
100
AcDbDictionary
280
     1
281
     1
  3
ACAD_XREC_ROUNDTRIP
360
37E55
  0
DICTIONARY
  5
37E4E
330
3678B
100
AcDbDictionary
280
     1
281
     1
  3
ACAD_XREC_ROUNDTRIP
360
37E4F
  0
DICTIONARY
  5
37E50
330
3678C
100
AcDbDictionary
280
     1
281
     1
  3
ACAD_XREC_ROUNDTRIP
360
37E51
  0
DICTIONARY
  5
37E32
330
10BF
100
AcDbDictionary
280
     1
281
     1
  3
ACAD_XREC_ROUNDTRIP
360
37E33
  0
DICTIONARY
  5
37E4A
330
36789
100
AcDbDictionary
280
     1
281
     1
  3
ACAD_XREC_ROUNDTRIP
360
37E4B
  0
DICTIONARY
  5
37E52
330
3678D
100
AcDbDictionary
280
     1
281
     1
  3
ACAD_XREC_ROUNDTRIP
360
37E53
  0
XRECORD
  5
37E1E
102
{ACAD_REACTORS
330
89C
102
}
330
89C
100
AcDbXrecord
280
     1
102
SHADEPLOT
 70
     0
102
SHADEPLOTRESLEVEL
 70
     2
102
SHADEPLOTCUSTOMDPI
 70
   300
  0
XRECORD
  5
89D
102
{ACAD_REACTORS
330
89C
102
}
330
89C
100
AcDbXrecord
280
     1
310
28000000B40000008B0000000100080000000000BC610000000000000000000000010000000000000000000000000000FFFFFF000000000000000000000000000000000000000000000000000000000000000000330000006600000099000000CC000000FF00000000330000333300006633000099330000CC330000FF3300
310
0000660000336600006666000099660000CC660000FF66000000990000339900006699000099990000CC990000FF99000000CC000033CC000066CC000099CC0000CCCC0000FFCC000000FF000033FF000066FF000099FF0000CCFF0000FFFF000000003300330033006600330099003300CC003300FF003300003333003333
310
33006633330099333300CC333300FF33330000663300336633006666330099663300CC663300FF66330000993300339933006699330099993300CC993300FF99330000CC330033CC330066CC330099CC3300CCCC3300FFCC330000FF330033FF330066FF330099FF3300CCFF3300FFFF330000006600330066006600660099
310
006600CC006600FF00660000336600333366006633660099336600CC336600FF33660000666600336666006666660099666600CC666600FF66660000996600339966006699660099996600CC996600FF99660000CC660033CC660066CC660099CC6600CCCC6600FFCC660000FF660033FF660066FF660099FF6600CCFF6600
310
FFFF660000009900330099006600990099009900CC009900FF00990000339900333399006633990099339900CC339900FF33990000669900336699006666990099669900CC669900FF66990000999900339999006699990099999900CC999900FF99990000CC990033CC990066CC990099CC9900CCCC9900FFCC990000FF99
310
0033FF990066FF990099FF9900CCFF9900FFFF99000000CC003300CC006600CC009900CC00CC00CC00FF00CC000033CC003333CC006633CC009933CC00CC33CC00FF33CC000066CC003366CC006666CC009966CC00CC66CC00FF66CC000099CC003399CC006699CC009999CC00CC99CC00FF99CC0000CCCC0033CCCC0066CC
310
CC0099CCCC00CCCCCC00FFCCCC0000FFCC0033FFCC0066FFCC0099FFCC00CCFFCC00FFFFCC000000FF003300FF006600FF009900FF00CC00FF00FF00FF000033FF003333FF006633FF009933FF00CC33FF00FF33FF000066FF003366FF006666FF009966FF00CC66FF00FF66FF000099FF003399FF006699FF009999FF00CC
310
99FF00FF99FF0000CCFF0033CCFF0066CCFF0099CCFF00CCCCFF00FFCCFF0000FFFF0033FFFF0066FFFF0099FFFF00CCFFFF00FFFFFF00000000000D0D0D001A1A1A00282828003535350043434300505050005D5D5D006B6B6B00787878008686860093939300A1A1A100AEAEAE00BBBBBB00C9C9C900D6D6D600E4E4E400
310
F1F1F100FFFFFF000000000000000000000000000000000000000000000000000000000000000000000000000000000000000000000000000000000000000000000000000000000000000000000000000000000000000000000000000000000000000000000000000000000000000000000000000000000000000000000000
310
00000000000000000000000000000000000000000000000000000000000000000000000000000000000000000000000000000000000000000000000000000000000000000000000000000000000000000000000000000000000000000000000000000000000000000000000000000000000000000000000000000000000000
310
00000000000000000000000000000000000000000000000000000000000000000000000000000000000000000000000000000000000000000000000000000000000000000000000000000000000000000000000000000000000000000000000000000000000000000000000000000000000000000000000000000000000000
310
00000000000000000000000000000000000000000000000000000000000000000000000000000000000000000000000000000000000000000000000000000000000000000000000000000000000000000000000000000000000000000000000000000000000000000000000000000000000000000000000000000000000000
310
00000000000000000000000000000000000000000000000000000000000000000000000000000000000000000000000000000000000000000000000000000000000000000000000000000000000000000000000000000000000000000000000000000000000000000000000000000000000000000000000000000000000000
310
00000000000000000000000000000000000000000000000000000000000000000000000000000000000000000000000000000000000000000000000000000000000000000000000000000000000000000000000000000000000000000000000000000000000000000000000000000000000000000000000000000000000000
310
00000000000000000000000000000000000000000000000000000000000000000000000000000000000000000000000000000000000000000000000000000000000000000000000000000000000000000000000000000000000000000000000000000000000000000000000000000000000000000000000000000000000000
310
00000000000000000000000000000000000000000000000000000000000000000000000000000000000000000000000000000000000000000000000000000000000000000000000000000000000000000000000000000000000000000000000000000000000000000000000000000000000000000000000000000000000000
310
00000000000000000000000000000000000000000000000000000000000000000000000000000000000000000000000000000000000000000000000000000000000000000000000000000000000000000000000000000000000000000000000000000000000000000000000000000000000000000000000000000000000000
310
00000000000000000000000000000000000000000000000000000000000000000000000000000000000000000000000000000000000000000000000000000000000000000000000000000000000000000000000000000000000000000000000000000000000000000000000000000000000000000000000000000000000000
310
00000000000000000000000000000000000000000000000000000000000000000000000000000000000000000000000000000000000000000000000000000000000000000000000000000000000000000000000000000000000000000000000000000000000000000000000000000000000000000000000000000000000000
310
00000000000000000000000000000000000000000000000000000000000000000000000000000000000000000000000000000000000000000000000000000000000000000000000000000000000000000000000000000000000000000000000000000000000000000000000000000000000000000000000000000000000000
310
00000000000000000000000000000000000000000000000000000000000000000000000000000000000000000000000000000000000000000000000000000000000000000000000000000000000000000000000000000000000000000000000000000000000000000000000000000000000000000000000000000000000000
310
00000000000000000000000000000000000000000000000000000000000000000000000000000000000000000000000000000000000000000000000000000000000000000000000000000000000000000000000000000000000000000000000000000000000000000000000000000000000000000000000000000000000000
310
00000000000000000000000000000000000000000000000000000000000000000000000000000000000000000000000000000000000000000000000000000000000000000000000000000000000000000000000000000000000000000000000000000000000000000000000000000000000000000000000000000000000000
310
00000000000000000000000000000000000000000000000000000000000000000000000000000000000000000000000000000000000000000000000000000000000000000000000000000000000000000000000000000000000000000000000000000000000000000000000000000000000000000000000000000000000000
310
00000000000000000000000000000000000000000000000000000000000000000000000000000000000000000000000000000000000000000000000000000000000000000000000000000000000000000000000000000000000000000000000000000000000000000000000000000000000000000000000000000000000000
310
00000000000000000000000000000000000000000000000000000000000000000000000000000000000000000000000000000000000000000000000000000000000000000000000000000000000000000000000000000000000000000000000000000000000000000000000000000000000000000000000000000000000000
310
00000000000000000000000000000000000000000000000000000000000000000000000000000000000000000000000000000000000000000000000000000000000000000000000000000000000000000000000000000000000000000000000000000000000000000000000000000000000000000000000000000000000000
310
00000000000000000000000000000000000000000000000000000000000000000000000000000000000000000000000000000000000000000000000000000000000000000000000000000000000000000000000000000000000000000000000000000000000000000000000000000000000000000000000000000000000000
310
00000000000000000000000000000000000000000000000000000000000000000000000000000000000000000000000000000000000000000000000000000000000000000000000000000000000000000000000000000000000000000000000000000000000000000000000000000000000000000000000000000000000000
310
00000000000000000000000000000000000000000000000000000000000000000000000000000000000000000000000000000000000000000000000000000000000000000000000000000000000000000000000000000000000000000000000000000000000000000000000000000000000000000000000000000000000000
310
00000000000000000000000000000000000000000000000000000000000000000000000000000000000000000000000000000000000000000000000000000000000000000000000000000000000000000000000000000000000000000000000000000000000000000000000000000000000000000000000000000000000000
310
00000000000000000000000000000000000000000000000000000000000000000000000000000000000000000000000000000000000000000000000000000000000000000000000000000000000000000000000000000000000000000000000000000000000000000000000000000000000000000000000000000000000000
310
00000000000000000000000000000000000000000000000000000000000000000000000000000000000000000000000000000000000000000000000000000000000000000000000000000000000000000000000000000000000000000000000000000000000000000000000000000000000000000000000000000000000000
310
00000000000000000000000000000000000000000000000000000000000000000000000000000000000000000000000000000000000000000000000000000000000000000000000000000000000000000000000000000000000000000000000000000000000000000000000000000000000000000000000000000000000000
310
00000000000000000000000000000000000000000000000000000000000000000000000000000000000000000000000000000000000000000000000000000000000000000000000000000000000000000000000000000000000000000000000000000000000000000000000000000000000000000000000000000000000000
310
00000000000000000000000000000000000000000000000000000000000000000000000000000000000000000000000000000000000000000000000000000000000000000000000000000000000000000000000000000000000000000000000000000000000000000000000000000000000000000000000000000000000000
310
00000000000000000000000000000000000000000000000000000000000000000000000000000000000000000000000000000000000000000000000000000000000000000000000000000000000000000000000000000000000000000000000000000000000000000000000000000000000000000000000000000000000000
310
00000000000000000000000000000000000000000000000000000000000000000000000000000000000000000000000000000000000000000000000000000000000000000000000000000000000000000000000000000000000000000000000000000000000000000000000000000000000000000000000000000000000000
310
00000000000000000000000000000000000000000000000000000000000000000000000000000000000000000000000000000000000000000000000000000000000000000000000000000000000000000000000000000000000000000000000000000000000000000000000000000000000000000000000000000000000000
310
00000000000000000000000000000000000000000000000000000000000000000000000000000000000000000000000000000000000000000000000000000000000000000000000000000000000000000000000000000000000000000000000000000000000000000000000000000000000000000000000000000000000000
310
00000000000000000000000000000000000000000000000000000000000000000000000000000000000000000000000000000000000000000000000000000000000000000000000000000000000000000000000000000000000000000000000000000000000000000000000000000000000000000000000000000000000000
310
00000000000000000000000000000000000000000000000000000000000000000000000000000000000000000000000000000000000000000000000000000000000000000000000000000000000000000000000000000000000000000000000000000000000000000000000000000000000000000000000000000000000000
310
00000000000000000000000000000000000000000000000000000000000000000000000000000000000000000000000000000000000000000000000000000000000000000000000000000000000000000000000000000000000000000000000000000000000000000000000000000000000000000000000000000000000000
310
00000000000000000000000000000000000000000000000000000000000000000000000000000000000000000000000000000000000000000000000000000000000000000000000000000000000000000000000000000000000000000000000000000000000000000000000000000000000000000000000000000000000000
310
00000000000000000000000000000000000000000000000000000000000000000000000000000000000000000000000000000000000000000000000000000000000000000000000000000000000000000000000000000000000000000000000000000000000000000000000000000000000000000000000000000000000000
310
00000000000000000000000000000000000000000000000000000000000000000000000000000000000000000000000000000000000000000000000000000000000000000000000000000000000000000000000000000000000000000000000000000000000000000000000000000000000000000000000000000000000000
310
00000000000000000000000000000000000000000000000000000000000000000000000000000000000000000000000000000000000000000000000000000000000000000000000000000000000000000000000000000000000000000000000000000000000000000000000000000000000000000000000000000000000000
310
00000000000000000000000000000000000000000000000000000000000000000000000000000000000000000000000000000000000000000000000000000000000000000000000000000000000000000000000000000000000000000000000000000000000000000000000000000000000000000000000000000000000000
310
00000000000000000000000000000000000000000000000000000000000000000000000000000000000000000000000000000000000000000000000000000000000000000000000000000000000000000000000000000000000000000000000000000000000000000000000000000000000000000000000000000000000000
310
00000000000000000000000000000000000000000000000000000000000000000000000000000000000000000000000000000000000000000000000000000000000000000000000000000000000000000000000000000000000000000000000000000000000000000000000000000000000000000000000000000000000000
310
00000000000000000000000000000000000000000000000000000000000000000000000000000000000000000000000000000000000000000000000000000000000000000000000000000000000000000000000000000000000000000000000000000000000000000000000000000000000000000000000000000000000000
310
00000000000000000000000000000000000000000000000000000000000000000000000000000000000000000000000000000000000000000000000000000000000000000000000000000000000000000000000000000000000000000000000000000000000000000000000000000000000000000000000000000000000000
310
00000000000000000000000000000000000000000000000000000000000000000000000000000000000000000000000000000000000000000000000000000000000000000000000000000000000000000000000000000000000000000000000000000000000000000000000000000000000000000000000000000000000000
310
00000000000000000000000000000000000000000000000000000000000000000000000000000000000000000000000000000000000000000000000000000000000000000000000000000000000000000000000000000000000000000000000000000000000000000000000000000000000000000000000000000000000000
310
00000000000000000000000000000000000000000000000000000000000000000000000000000000000000000000000000000000000000000000000000000000000000000000000000000000000000000000000000000000000000000000000000000000000000000000000000000000000000000000000000000000000000
310
00000000000000000000000000000000000000000000000000000000000000000000000000000000000000000000000000000000000000000000000000000000000000000000000000000000000000000000000000000000000000000000000000000000000000000000000000000000000000000000000000000000000000
310
00000000000000000000000000000000000000000000000000000000000000000000000000000000000000000000000000000000000000000000000000000000000000000000000000000000000000000000000000000000000000000000000000000000000000000000000000000000000000000000000000000000000000
310
00000000000000000000000000000000000000000000000000000000000000000000000000000000000000000000000000000000000000000000000000000000000000000000000000000000000000000000000000000000000000000000000000000000000000000000000000000000000000000000000000000000000000
310
00000000000000000000000000000000000000000000000000000000000000000000000000000000000000000000000000000000000000000000000000000000000000000000000000000000000000000000000000000000000000000000000000000000000000000000000000000000000000000000000000000000000000
310
00000000000000000000000000000000000000000000000000000000000000000000000000000000000000000000000000000000000000000000000000000000000000000000000000000000000000000000000000000000000000000000000000000000000000000000000000000000000000000000000000000000000000
310
00000000000000000000000000000000000000000000000000000000000000000000000000000000000000000000000000000000000000000000000000000000000000000000000000000000000000000000000000000000000000000000000000000000000000000000000000000000000000000000000000000000000000
310
00000000000000000000000000000000000000000000000000000000000000000000000000000000000000000000000000000000000000000000000000000000000000000000000000000000000000000000000000000000000000000000000000000000000000000000000000000000000000000000000000000000000000
310
00000000000000000000000000000000000000000000000000000000000000000000000000000000000000000000000000000000000000000000000000000000000000000000000000000000000000000000000000000000000000000000000000000000000000000000000000000000000000000000000000000000000000
310
00000000000000000000000000000000000000000000000000000000000000000000000000000000000000000000000000000000000000000000000000000000000000000000000000000000000000000000000000000000000000000000000000000000000000000000000000000000000000000000000000000000000000
310
00000000000000000000000000000000000000000000000000000000000000000000000000000000000000000000000000000000000000000000000000000000000000000000000000000000000000000000000000000000000000000000000000000000000000000000000000000000000000000000000000000000000000
310
00000000000000000000000000000000000000000000000000000000000000000000000000000000000000000000000000000000000000000000000000000000000000000000000000000000000000000000000000000000000000000000000000000000000000000000000000000000000000000000000000000000000000
310
00000000000000000000000000000000000000000000000000000000000000000000000000000000000000000000000000000000000000000000000000000000000000000000000000000000000000000000000000000000000000000000000000000000000000000000000000000000000000000000000000000000000000
310
00000000000000000000000000000000000000000000000000000000000000000000000000000000000000000000000000000000000000000000000000000000000000000000000000000000000000000000000000000000000000000000000000000000000000000000000000000000000000000000000000000000000000
310
00000000000000000000000000000000000000000000000000000000000000000000000000000000000000000000000000000000000000000000000000000000000000000000000000000000000000000000000000000000000000000000000000000000000000000000000000000000000000000000000000000000000000
310
00000000000000000000000000000000000000000000000000000000000000000000000000000000000000000000000000000000000000000000000000000000000000000000000000000000000000000000000000000000000000000000000000000000000000000000000000000000000000000000000000000000000000
310
00000000000000000000000000000000000000000000000000000000000000000000000000000000000000000000000000000000000000000000000000000000000000000000000000000000000000000000000000000000000000000000000000000000000000000000000000000000000000000000000000000000000000
310
00000000000000000000000000000000000000000000000000000000000000000000000000000000000000000000000000000000000000000000000000000000000000000000000000000000000000000000000000000000000000000000000000000000000000000000000000000000000000000000000000000000000000
310
00000000000000000000000000000000000000000000000000000000000000000000000000000000000000000000000000000000000000000000000000000000000000000000000000000000000000000000000000000000000000000000000000000000000000000000000000000000000000000000000000000000000000
310
00000000000000000000000000000000000000000000000000000000000000000000000000000000000000000000000000000000000000000000000000000000000000000000000000000000000000000000000000000000000000000000000000000000000000000000000000000000000000000000000000000000000000
310
00000000000000000000000000000000000000000000000000000000000000000000000000000000000000000000000000000000000000000000000000000000000000000000000000000000000000000000000000000000000000000000000000000000000000000000000000000000000000000000000000000000000000
310
00000000000000000000000000000000000000000000000000000000000000000000000000000000000000000000000000000000000000000000000000000000000000000000000000000000000000000000000000000000000000000000000000000000000000000000000000000000000000000000000000000000000000
310
00000000000000000000000000000000000000000000000000000000000000000000000000000000000000000000000000000000000000000000000000000000000000000000000000000000000000000000000000000000000000000000000000000000000000000000000000000000000000000000000000000000000000
310
00000000000000000000000000000000000000000000000000000000000000000000000000000000000000000000000000000000000000000000000000000000000000000000000000000000000000000000000000000000000000000000000000000000000000000000000000000000000000000000000000000000000000
310
00000000000000000000000000000000000000000000000000000000000000000000000000000000000000000000000000000000000000000000000000000000000000000000000000000000000000000000000000000000000000000000000000000000000000000000000000000000000000000000000000000000000000
310
00000000000000000000000000000000000000000000000000000000000000000000000000000000000000000000000000000000000000000000000000000000000000000000000000000000000000000000000000000000000000000000000000000000000000000000000000000000000000000000000000000000000000
310
00000000000000000000000000000000000000000000000000000000000000000000000000000000000000000000000000000000000000000000000000000000000000000000000000000000000000000000000000000000000000000000000000000000000000000000000000000000000000000000000000000000000000
310
00000000000000000000000000000000000000000000000000000000000000000000000000000000000000000000000000000000000000000000000000000000000000000000000000000000000000000000000000000000000000000000000000000000000000000000000000000000000000000000000000000000000000
310
00000000000000000000000000000000000000000000000000000000000000000000000000000000000000000000000000000000000000000000000000000000000000000000000000000000000000000000000000000000000000000000000000000000000000000000000000000000000000000000000000000000000000
310
00000000000000000000000000000000000000000000000000000000000000000000000000000000000000000000000000000000000000000000000000000000000000000000000000000000000000000000000000000000000000000000000000000000000000000000000000000000000000000000000000000000000000
310
00000000000000000000000000000000000000000000000000000000000000000000000000000000000000000000000000000000000000000000000000000000000000000000000000000000000000000000000000000000000000000000000000000000000000000000000000000000000000000000000000000000000000
310
00000000000000000000000000000000000000000000000000000000000000000000000000000000000000000000000000000000000000000000000000000000000000000000000000000000000000000000000000000000000000000000000000000000000000000000000000000000000000000000000000000000000000
310
00000000000000000000000000000000000000000000000000000000000000000000000000000000000000000000000000000000000000000000000000000000000000000000000000000000000000000000000000000000000000000000000000000000000000000000000000000000000000000000000000000000000000
310
00000000000000000000000000000000000000000000000000000000000000000000000000000000000000000000000000000000000000000000000000000000000000000000000000000000000000000000000000000000000000000000000000000000000000000000000000000000000000000000000000000000000000
310
00000000000000000000000000000000000000000000000000000000000000000000000000000000000000000000000000000000000000000000000000000000000000000000000000000000000000000000000000000000000000000000000000000000000000000000000000000000000000000000000000000000000000
310
00000000000000000000000000000000000000000000000000000000000000000000000000000000000000000000000000000000000000000000000000000000000000000000000000000000000000000000000000000000000000000000000000000000000000000000000000000000000000000000000000000000000000
310
00000000000000000000000000000000000000000000000000000000000000000000000000000000000000000000000000000000000000000000000000000000000000000000000000000000000000000000000000000000000000000000000000000000000000000000000000000000000000000000000000000000000000
310
00000000000000000000000000000000000000000000000000000000000000000000000000000000000000000000000000000000000000000000000000000000000000000000000000000000000000000000000000000000000000000000000000000000000000000000000000000000000000000000000000000000000000
310
00000000000000000000000000000000000000000000000000000000000000000000000000000000000000000000000000000000000000000000000000000000000000000000000000000000000000000000000000000000000000000000000000000000000000000000000000000000000000000000000000000000000000
310
00000000000000000000000000000000000000000000000000000000000000000000000000000000000000000000000000000000000000000000000000000000000000000000000000000000000000000000000000000000000000000000000000000000000000000000000000000000000000000000000000000000000000
310
00000000000000000000000000000000000000000000000000000000000000000000000000000000000000000000000000000000000000000000000000000000000000000000000000000000000000000000000000000000000000000000000000000000000000000000000000000000000000000000000000000000000000
310
00000000000000000000000000000000000000000000000000000000000000000000000000000000000000000000000000000000000000000000000000000000000000000000000000000000000000000000000000000000000000000000000000000000000000000000000000000000000000000000000000000000000000
310
00000000000000000000000000000000000000000000000000000000000000000000000000000000000000000000000000000000000000000000000000000000000000000000000000000000000000000000000000000000000000000000000000000000000000000000000000000000000000000000000000000000000000
310
00000000000000000000000000000000000000000000000000000000000000000000000000000000000000000000000000000000000000000000000000000000000000000000000000000000000000000000000000000000000000000000000000000000000000000000000000000000000000000000000000000000000000
310
00000000000000000000000000000000000000000000000000000000000000000000000000000000000000000000000000000000000000000000000000000000000000000000000000000000000000000000000000000000000000000000000000000000000000000000000000000000000000000000000000000000000000
310
00000000000000000000000000000000000000000000000000000000000000000000000000000000000000000000000000000000000000000000000000000000000000000000000000000000000000000000000000000000000000000000000000000000000000000000000000000000000000000000000000000000000000
310
00000000000000000000000000000000000000000000000000000000000000000000000000000000000000000000000000000000000000000000000000000000000000000000000000000000000000000000000000000000000000000000000000000000000000000000000000000000000000000000000000000000000000
310
00000000000000000000000000000000000000000000000000000000000000000000000000000000000000000000000000000000000000000000000000000000000000000000000000000000000000000000000000000000000000000000000000000000000000000000000000000000000000000000000000000000000000
310
00000000000000000000000000000000000000000000000000000000000000000000000000000000000000000000000000000000000000000000000000000000000000000000000000000000000000000000000000000000000000000000000000000000000000000000000000000000000000000000000000000000000000
310
00000000000000000000000000000000000000000000000000000000000000000000000000000000000000000000000000000000000000000000000000000000000000000000000000000000000000000000000000000000000000000000000000000000000000000000000000000000000000000000000000000000000000
310
00000000000000000000000000000000000000000000000000000000000000000000000000000000000000000000000000000000000000000000000000000000000000000000000000000000000000000000000000000000000000000000000000000000000000000000000000000000000000000000000000000000000000
310
00000000000000000000000000000000000000000000000000000000000000000000000000000000000000000000000000000000000000000000000000000000000000000000000000000000000000000000000000000000000000000000000000000000000000000000000000000000000000000000000000000000000000
310
00000000000000000000000000000000000000000000000000000000000000000000000000000000000000000000000000000000000000000000000000000000000000000000000000000000000000000000000000000000000000000000000000000000000000000000000000000000000000000000000000000000000000
310
00000000000000000000000000000000000000000000000000000000000000000000000000000000000000000000000000000000000000000000000000000000000000000000000000000000000000000000000000000000000000000000000000000000000000000000000000000000000000000000000000000000000000
310
00000000000000000000000000000000000000000000000000000000000000000000000000000000000000000000000000000000000000000000000000000000000000000000000000000000000000000000000000000000000000000000000000000000000000000000000000000000000000000000000000000000000000
310
00000000000000000000000000000000000000000000000000000000000000000000000000000000000000000000000000000000000000000000000000000000000000000000000000000000000000000000000000000000000000000000000000000000000000000000000000000000000000000000000000000000000000
310
00000000000000000000000000000000000000000000000000000000000000000000000000000000000000000000000000000000000000000000000000000000000000000000000000000000000000000000000000000000000000000000000000000000000000000000000000000000000000000000000000000000000000
310
00000000000000000000000000000000000000000000000000000000000000000000000000000000000000000000000000000000000000000000000000000000000000000000000000000000000000000000000000000000000000000000000000000000000000000000000000000000000000000000000000000000000000
310
00000000000000000000000000000000000000000000000000000000000000000000000000000000000000000000000000000000000000000000000000000000000000000000000000000000000000000000000000000000000000000000000000000000000000000000000000000000000000000000000000000000000000
310
00000000000000000000000000000000000000000000000000000000000000000000000000000000000000000000000000000000000000000000000000000000000000000000000000000000000000000000000000000000000000000000000000000000000000000000000000000000000000000000000000000000000000
310
00000000000000000000000000000000000000000000000000000000000000000000000000000000000000000000000000000000000000000000000000000000000000000000000000000000000000000000000000000000000000000000000000000000000000000000000000000000000000000000000000000000000000
310
00000000000000000000000000000000000000000000000000000000000000000000000000000000000000000000000000000000000000000000000000000000000000000000000000000000000000000000000000000000000000000000000000000000000000000000000000000000000000000000000000000000000000
310
00000000000000000000000000000000000000000000000000000000000000000000000000000000000000000000000000000000000000000000000000000000000000000000000000000000000000000000000000000000000000000000000000000000000000000000000000000000000000000000000000000000000000
310
00000000000000000000000000000000000000000000000000000000000000000000000000000000000000000000000000000000000000000000000000000000000000000000000000000000000000000000000000000000000000000000000000000000000000000000000000000000000000000000000000000000000000
310
00000000000000000000000000000000000000000000000000000000000000000000000000000000000000000000000000000000000000000000000000000000000000000000000000000000000000000000000000000000000000000000000000000000000000000000000000000000000000000000000000000000000000
310
00000000000000000000000000000000000000000000000000000000000000000000000000000000000000000000000000000000000000000000000000000000000000000000000000000000000000000000000000000000000000000000000000000000000000000000000000000000000000000000000000000000000000
310
00000000000000000000000000000000000000000000000000000000000000000000000000000000000000000000000000000000000000000000000000000000000000000000000000000000000000000000000000000000000000000000000000000000000000000000000000000000000000000000000000000000000000
310
00000000000000000000000000000000000000000000000000000000000000000000000000000000000000000000000000000000000000000000000000000000000000000000000000000000000000000000000000000000000000000000000000000000000000000000000000000000000000000000000000000000000000
310
00000000000000000000000000000000000000000000000000000000000000000000000000000000000000000000000000000000000000000000000000000000000000000000000000000000000000000000000000000000000000000000000000000000000000000000000000000000000000000000000000000000000000
310
00000000000000000000000000000000000000000000000000000000000000000000000000000000000000000000000000000000000000000000000000000000000000000000000000000000000000000000000000000000000000000000000000000000000000000000000000000000000000000000000000000000000000
310
00000000000000000000000000000000000000000000000000000000000000000000000000000000000000000000000000000000000000000000000000000000000000000000000000000000000000000000000000000000000000000000000000000000000000000000000000000000000000000000000000000000000000
310
00000000000000000000000000000000000000000000000000000000000000000000000000000000000000000000000000000000000000000000000000000000000000000000000000000000000000000000000000000000000000000000000000000000000000000000000000000000000000000000000000000000000000
310
00000000000000000000000000000000000000000000000000000000000000000000000000000000000000000000000000000000000000000000000000000000000000000000000000000000000000000000000000000000000000000000000000000000000000000000000000000000000000000000000000000000000000
310
00000000000000000000000000000000000000000000000000000000000000000000000000000000000000000000000000000000000000000000000000000000000000000000000000000000000000000000000000000000000000000000000000000000000000000000000000000000000000000000000000000000000000
310
00000000000000000000000000000000000000000000000000000000000000000000000000000000000000000000000000000000000000000000000000000000000000000000000000000000000000000000000000000000000000000000000000000000000000000000000000000000000000000000000000000000000000
310
00000000000000000000000000000000000000000000000000000000000000000000000000000000000000000000000000000000000000000000000000000000000000000000000000000000000000000000000000000000000000000000000000000000000000000000000000000000000000000000000000000000000000
310
00000000000000000000000000000000000000000000000000000000000000000000000000000000000000000000000000000000000000000000000000000000000000000000000000000000000000000000000000000000000000000000000000000000000000000000000000000000000000000000000000000000000000
310
00000000000000000000000000000000000000000000000000000000000000000000000000000000000000000000000000000000000000000000000000000000000000000000000000000000000000000000000000000000000000000000000000000000000000000000000000000000000000000000000000000000000000
310
00000000000000000000000000000000000000000000000000000000000000000000000000000000000000000000000000000000000000000000000000000000000000000000000000000000000000000000000000000000000000000000000000000000000000000000000000000000000000000000000000000000000000
310
00000000000000000000000000000000000000000000000000000000000000000000000000000000000000000000000000000000000000000000000000000000000000000000000000000000000000000000000000000000000000000000000000000000000000000000000000000000000000000000000000000000000000
310
00000000000000000000000000000000000000000000000000000000000000000000000000000000000000000000000000000000000000000000000000000000000000000000000000000000000000000000000000000000000000000000000000000000000000000000000000000000000000000000000000000000000000
310
00000000000000000000000000000000000000000000000000000000000000000000000000000000000000000000000000000000000000000000000000000000000000000000000000000000000000000000000000000000000000000000000000000000000000000000000000000000000000000000000000000000000000
310
00000000000000000000000000000000000000000000000000000000000000000000000000000000000000000000000000000000000000000000000000000000000000000000000000000000000000000000000000000000000000000000000000000000000000000000000000000000000000000000000000000000000000
310
00000000000000000000000000000000000000000000000000000000000000000000000000000000000000000000000000000000000000000000000000000000000000000000000000000000000000000000000000000000000000000000000000000000000000000000000000000000000000000000000000000000000000
310
00000000000000000000000000000000000000000000000000000000000000000000000000000000000000000000000000000000000000000000000000000000000000000000000000000000000000000000000000000000000000000000000000000000000000000000000000000000000000000000000000000000000000
310
00000000000000000000000000000000000000000000000000000000000000000000000000000000000000000000000000000000000000000000000000000000000000000000000000000000000000000000000000000000000000000000000000000000000000000000000000000000000000000000000000000000000000
310
00000000000000000000000000000000000000000000000000000000000000000000000000000000000000000000000000000000000000000000000000000000000000000000000000000000000000000000000000000000000000000000000000000000000000000000000000000000000000000000000000000000000000
310
00000000000000000000000000000000000000000000000000000000000000000000000000000000000000000000000000000000000000000000000000000000000000000000000000000000000000000000000000000000000000000000000000000000000000000000000000000000000000000000000000000000000000
310
00000000000000000000000000000000000000000000000000000000000000000000000000000000000000000000000000000000000000000000000000000000000000000000000000000000000000000000000000000000000000000000000000000000000000000000000000000000000000000000000000000000000000
310
00000000000000000000000000000000000000000000000000000000000000000000000000000000000000000000000000000000000000000000000000000000000000000000000000000000000000000000000000000000000000000000000000000000000000000000000000000000000000000000000000000000000000
310
00000000000000000000000000000000000000000000000000000000000000000000000000000000000000000000000000000000000000000000000000000000000000000000000000000000000000000000000000000000000000000000000000000000000000000000000000000000000000000000000000000000000000
310
00000000000000000000000000000000000000000000000000000000000000000000000000000000000000000000000000000000000000000000000000000000000000000000000000000000000000000000000000000000000000000000000000000000000000000000000000000000000000000000000000000000000000
310
00000000000000000000000000000000000000000000000000000000000000000000000000000000000000000000000000000000000000000000000000000000000000000000000000000000000000000000000000000000000000000000000000000000000000000000000000000000000000000000000000000000000000
310
00000000000000000000000000000000000000000000000000000000000000000000000000000000000000000000000000000000000000000000000000000000000000000000000000000000000000000000000000000000000000000000000000000000000000000000000000000000000000000000000000000000000000
310
00000000000000000000000000000000000000000000000000000000000000000000000000000000000000000000000000000000000000000000000000000000000000000000000000000000000000000000000000000000000000000000000000000000000000000000000000000000000000000000000000000000000000
310
00000000000000000000000000000000000000000000000000000000000000000000000000000000000000000000000000000000000000000000000000000000000000000000000000000000000000000000000000000000000000000000000000000000000000000000000000000000000000000000000000000000000000
310
00000000000000000000000000000000000000000000000000000000000000000000000000000000000000000000000000000000000000000000000000000000000000000000000000000000000000000000000000000000000000000000000000000000000000000000000000000000000000000000000000000000000000
310
00000000000000000000000000000000000000000000000000000000000000000000000000000000000000000000000000000000000000000000000000000000000000000000000000000000000000000000000000000000000000000000000000000000000000000000000000000000000000000000000000000000000000
310
00000000000000000000000000000000000000000000000000000000000000000000000000000000000000000000000000000000000000000000000000000000000000000000000000000000000000000000000000000000000000000000000000000000000000000000000000000000000000000000000000000000000000
310
00000000000000000000000000000000000000000000000000000000000000000000000000000000000000000000000000000000000000000000000000000000000000000000000000000000000000000000000000000000000000000000000000000000000000000000000000000000000000000000000000000000000000
310
00000000000000000000000000000000000000000000000000000000000000000000000000000000000000000000000000000000000000000000000000000000000000000000000000000000000000000000000000000000000000000000000000000000000000000000000000000000000000000000000000000000000000
310
00000000000000000000000000000000000000000000000000000000000000000000000000000000000000000000000000000000000000000000000000000000000000000000000000000000000000000000000000000000000000000000000000000000000000000000000000000000000000000000000000000000000000
310
00000000000000000000000000000000000000000000000000000000000000000000000000000000000000000000000000000000000000000000000000000000000000000000000000000000000000000000000000000000000000000000000000000000000000000000000000000000000000000000000000000000000000
310
00000000000000000000000000000000000000000000000000000000000000000000000000000000000000000000000000000000000000000000000000000000000000000000000000000000000000000000000000000000000000000000000000000000000000000000000000000000000000000000000000000000000000
310
00000000000000000000000000000000000000000000000000000000000000000000000000000000000000000000000000000000000000000000000000000000000000000000000000000000000000000000000000000000000000000000000000000000000000000000000000000000000000000000000000000000000000
310
00000000000000000000000000000000000000000000000000000000000000000000000000000000000000000000000000000000000000000000000000000000000000000000000000000000000000000000000000000000000000000000000000000000000000000000000000000000000000000000000000000000000000
310
00000000000000000000000000000000000000000000000000000000000000000000000000000000000000000000000000000000000000000000000000000000000000000000000000000000000000000000000000000000000000000000000000000000000000000000000000000000000000000000000000000000000000
310
00000000000000000000000000000000000000000000000000000000000000000000000000000000000000000000000000000000000000000000000000000000000000000000000000000000000000000000000000000000000000000000000000000000000000000000000000000000000000000000000000000000000000
310
00000000000000000000000000000000000000000000000000000000000000000000000000000000000000000000000000000000000000000000000000000000000000000000000000000000000000000000000000000000000000000000000000000000000000000000000000000000000000000000000000000000000000
310
00000000000000000000000000000000000000000000000000000000000000000000000000000000000000000000000000000000000000000000000000000000000000000000000000000000000000000000000000000000000000000000000000000000000000000000000000000000000000000000000000000000000000
310
00000000000000000000000000000000000000000000000000000000000000000000000000000000000000000000000000000000000000000000000000000000000000000000000000000000000000000000000000000000000000000000000000000000000000000000000000000000000000000000000000000000000000
310
00000000000000000000000000000000000000000000000000000000000000000000000000000000000000000000000000000000000000000000000000000000000000000000000000000000000000000000000000000000000000000000000000000000000000000000000000000000000000000000000000000000000000
310
00000000000000000000000000000000000000000000000000000000000000000000000000000000000000000000000000000000000000000000000000000000000000000000000000000000000000000000000000000000000000000000000000000000000000000000000000000000000000000000000000000000000000
310
00000000000000000000000000000000000000000000000000000000000000000000000000000000000000000000000000000000000000000000000000000000000000000000000000000000000000000000000000000000000000000000000000000000000000000000000000000000000000000000000000000000000000
310
00000000000000000000000000000000000000000000000000000000000000000000000000000000000000000000000000000000000000000000000000000000000000000000000000000000000000000000000000000000000000000000000000000000000000000000000000000000000000000000000000000000000000
310
00000000000000000000000000000000000000000000000000000000000000000000000000000000000000000000000000000000000000000000000000000000000000000000000000000000000000000000000000000000000000000000000000000000000000000000000000000000000000000000000000000000000000
310
00000000000000000000000000000000000000000000000000000000000000000000000000000000000000000000000000000000000000000000000000000000000000000000000000000000000000000000000000000000000000000000000000000000000000000000000000000000000000000000000000000000000000
310
00000000000000000000000000000000000000000000000000000000000000000000000000000000000000000000000000000000000000000000000000000000000000000000000000000000000000000000000000000000000000000000000000000000000000000000000000000000000000000000000000000000000000
310
00000000000000000000000000000000000000000000000000000000000000000000000000000000000000000000000000000000000000000000000000000000000000000000000000000000000000000000000000000000000000000000000000000000000000000000000000000000000000000000000000000000000000
310
00000000000000000000000000000000000000000000000000000000000000000000000000000000000000000000000000000000000000000000000000000000000000000000000000000000000000000000000000000000000000000000000000000000000000000000000000000000000000000000000000000000000000
310
00000000000000000000000000000000000000000000000000000000000000000000000000000000000000000000000000000000000000000000000000000000000000000000000000000000000000000000000000000000000000000000000000000000000000000000000000000000000000000000000000000000000000
310
00000000000000000000000000000000000000000000000000000000000000000000000000000000000000000000000000000000000000000000000000000000000000000000000000000000000000000000000000000000000000000000000000000000000000000000000000000000000000000000000000000000000000
310
00000000000000000000000000000000000000000000000000000000000000000000000000000000000000000000000000000000000000000000000000000000000000000000000000000000000000000000000000000000000000000000000000000000000000000000000000000000000000000000000000000000000000
310
00000000000000000000000000000000000000000000000000000000000000000000000000000000000000000000000000000000000000000000000000000000000000000000000000000000000000000000000000000000000000000000000000000000000000000000000000000000000000000000000000000000000000
310
00000000000000000000000000000000000000000000000000000000000000000000000000000000000000000000000000000000000000000000000000000000000000000000000000000000000000000000000000000000000000000000000000000000000000000000000000000000000000000000000000000000000000
310
00000000000000000000000000000000000000000000000000000000000000000000000000000000000000000000000000000000000000000000000000000000000000000000000000000000000000000000000000000000000000000000000000000000000000000000000000000000000000000000000000000000000000
310
00000000000000000000000000000000000000000000000000000000000000000000000000000000000000000000000000000000000000000000000000000000000000000000000000000000000000000000000000000000000000000000000000000000000000000000000000000000000000000000000000000000000000
310
00000000000000000000000000000000000000000000000000000000000000000000000000000000000000000000000000000000000000000000000000000000000000000000000000000000000000000000000000000000000000000000000000000000000000000000000000000000000000000000000000000000000000
310
00000000000000000000000000000000000000000000000000000000000000000000000000000000000000000000000000000000000000000000000000000000000000000000000000000000000000000000000000000000000000000000000000000000000000000000000000000000000000000000000000000000000000
310
00000000000000000000000000000000000000000000000000000000000000000000000000000000000000000000000000000000000000000000000000000000000000000000000000000000000000000000000000000000000000000000000000000000000000000000000000000000000000000000000000000000000000
310
00000000000000000000000000000000000000000000000000000000000000000000000000000000000000000000000000000000000000000000000000000000000000000000000000000000000000000000000000000000000000000000000000000000000000000000000000000000000000000000000000000000000000
310
00000000000000000000000000000000000000000000000000000000000000000000000000000000000000000000000000000000000000000000000000000000000000000000000000000000000000000000000000000000000000000000000000000000000000000000000000000000000000000000000000000000000000
310
00000000000000000000000000000000000000000000000000000000000000000000000000000000000000000000000000000000000000000000000000000000000000000000000000000000000000000000000000000000000000000000000000000000000000000000000000000000000000000000000000000000000000
310
00000000000000000000000000000000000000000000000000000000000000000000000000000000000000000000000000000000000000000000000000000000000000000000000000000000000000000000000000000000000000000000000000000000000000000000000000000000000000000000000000000000000000
310
00000000000000000000000000000000000000000000000000000000000000000000000000000000000000000000000000000000000000000000000000000000000000000000000000000000000000000000000000000000000000000000000000000000000000000000000000000000000000000000000000000000000000
310
00000000000000000000000000000000000000000000000000000000000000000000000000000000000000000000000000000000000000000000000000000000000000000000000000000000000000000000000000000000000000000000000000000000000000000000000000000000000000000000000000000000000000
310
00000000000000000000000000000000000000000000000000000000000000000000000000000000000000000000000000000000000000000000000000000000000000000000000000000000000000000000000000000000000000000000000000000000000000000000000000000000000000000000000000000000000000
310
00000000000000000000000000000000000000000000000000000000000000000000000000000000000000000000000000000000000000000000000000000000000000000000000000000000000000000000000000000000000000000000000000000000000000000000000000000000000000000000000000000000000000
310
00000000000000000000000000000000000000000000000000000000000000000000000000000000000000000000000000000000000000000000000000000000000000000000000000000000000000000000000000000000000000000000000000000000000000000000000000000000000000000000000000000000000000
310
00000000000000000000000000000000000000000000000000000000000000000000000000000000000000000000000000000000000000000000000000000000000000000000000000000000000000000000000000000000000000000000000000000000000000000000000000000000000000000000000000000000000000
310
00000000000000000000000000000000000000000000000000000000000000000000000000000000000000000000000000000000000000000000000000000000000000000000000000000000000000000000000000000000000000000000000000000000000000000000000000000000000000000000000000000000000000
310
00000000000000000000000000000000000000000000000000000000000000000000000000000000000000000000000000000000000000000000000000000000000000000000000000000000000000000000000000000000000000000000000000000000000000000000000000000000000000000000000000000000000000
310
00000000000000000000000000000000000000000000000000000000000000000000000000000000000000000000000000000000000000000000000000000000000000000000000000000000000000000000000000000000000000000000000000000000000000000000000000000000000000000000000000000000000000
310
00000000000000000000000000000000000000000000000000000000000000000000000000000000000000000000000000000000000000000000000000000000000000000000000000000000000000000000000000000000000000000000000000000000000000000000000000000000000000000000000000000000000000
310
00000000000000000000000000000000000000000000000000000000000000000000000000000000000000000000000000000000000000000000000000000000000000000000000000000000000000000000000000000000000000000000000000000000000000000000000000000000000000000000000000000000000000
310
00000000000000000000000000000000000000000000000000000000000000000000000000000000000000000000000000000000000000000000000000000000000000000000000000000000000000000000000000000000000000000000000000000000000000000000000000000000000000000000000000000000000000
310
00000000000000000000000000000000000000000000000000000000000000000000000000000000000000000000000000000000000000000000000000000000000000000000000000000000000000000000000000000000000000000000000000000000000000000000000000000000000000000000000000000000000000
310
00000000000000000000000000000000000000000000000000000000000000000000000000000000000000000000000000000000000000000000000000000000000000000000000000000000000000000000000000000000000000000000000000000000000000000000000000000000000000000000000000000000000000
310
00000000000000000000000000000000000000000000000000000000000000000000000000000000000000000000000000000000000000000000000000000000000000000000000000000000000000000000000000000000000000000000000000000000000000000000000000000000000000000000000000000000000000
310
00000000000000000000000000000000000000000000000000000000000000000000000000000000000000000000000000000000000000000000000000000000000000000000000000000000000000000000000000000000000000000000000000000000000000000000000000000000000000000000000000000000000000
310
00000000000000000000000000000000000000000000000000000000000000000000000000000000000000000000000000000000000000000000000000000000000000000000000000000000000000000000000000000000000000000000000000000000000000000000000000000000000000000000000000000000000000
310
00000000000000000000000000000000000000000000000000000000000000000000000000000000000000000000000000
  0
XRECORD
  5
37E1D
102
{ACAD_REACTORS
330
37DB4
102
}
330
37DB4
100
AcDbXrecord
280
     1
102
SHADEPLOT
 70
     0
102
SHADEPLOTRESLEVEL
 70
     2
102
SHADEPLOTCUSTOMDPI
 70
   300
  0
XRECORD
  5
37DB5
102
{ACAD_REACTORS
330
37DB4
102
}
330
37DB4
100
AcDbXrecord
280
     1
310
280000000001000063000000010008000000000000630000000000000000000000010000000000000000000000000000FFFFFF000000000000000000000000000000000000000000000000000000000000000000330000006600000099000000CC000000FF00000000330000333300006633000099330000CC330000FF3300
310
0000660000336600006666000099660000CC660000FF66000000990000339900006699000099990000CC990000FF99000000CC000033CC000066CC000099CC0000CCCC0000FFCC000000FF000033FF000066FF000099FF0000CCFF0000FFFF000000003300330033006600330099003300CC003300FF003300003333003333
310
33006633330099333300CC333300FF33330000663300336633006666330099663300CC663300FF66330000993300339933006699330099993300CC993300FF99330000CC330033CC330066CC330099CC3300CCCC3300FFCC330000FF330033FF330066FF330099FF3300CCFF3300FFFF330000006600330066006600660099
310
006600CC006600FF00660000336600333366006633660099336600CC336600FF33660000666600336666006666660099666600CC666600FF66660000996600339966006699660099996600CC996600FF99660000CC660033CC660066CC660099CC6600CCCC6600FFCC660000FF660033FF660066FF660099FF6600CCFF6600
310
FFFF660000009900330099006600990099009900CC009900FF00990000339900333399006633990099339900CC339900FF33990000669900336699006666990099669900CC669900FF66990000999900339999006699990099999900CC999900FF99990000CC990033CC990066CC990099CC9900CCCC9900FFCC990000FF99
310
0033FF990066FF990099FF9900CCFF9900FFFF99000000CC003300CC006600CC009900CC00CC00CC00FF00CC000033CC003333CC006633CC009933CC00CC33CC00FF33CC000066CC003366CC006666CC009966CC00CC66CC00FF66CC000099CC003399CC006699CC009999CC00CC99CC00FF99CC0000CCCC0033CCCC0066CC
310
CC0099CCCC00CCCCCC00FFCCCC0000FFCC0033FFCC0066FFCC0099FFCC00CCFFCC00FFFFCC000000FF003300FF006600FF009900FF00CC00FF00FF00FF000033FF003333FF006633FF009933FF00CC33FF00FF33FF000066FF003366FF006666FF009966FF00CC66FF00FF66FF000099FF003399FF006699FF009999FF00CC
310
99FF00FF99FF0000CCFF0033CCFF0066CCFF0099CCFF00CCCCFF00FFCCFF0000FFFF0033FFFF0066FFFF0099FFFF00CCFFFF00FFFFFF00000000000D0D0D001A1A1A00282828003535350043434300505050005D5D5D006B6B6B00787878008686860093939300A1A1A100AEAEAE00BBBBBB00C9C9C900D6D6D600E4E4E400
310
F1F1F100FFFFFF000000000000000000000000000000000000000000000000000000000000000000000000000000000000000000000000000000000000000000000000000000000000000000000000000000000000000000000000000000000000000000000000000000000000000000000000000000000000000000000000
310
00000000000000000000000000000000000000000000000000000000000000000000000000000000000000000000000000000000000000000000000000000000000000000000000000000000000000000000000000000000000000000000000000000000000000000000000000000000000000000000000000000000000000
310
00000000000000000000000000000000000000000000000000000000000000000000000000000000000000000000000000000000000000000000000000000000000000000000000000000000000000000000000000000000000000000000000000000000000000000000000000000000000000000000000000000000000000
310
00000000000000000000000000000000000000000000000000000000000000000000000000000000000000000000000000000000000000000000000000000000000000000000000000000000000000000000000000000000000000000000000000000000000000000000000000000000000000000000000000000000000000
310
00000000000000000000000000000000000000000000000000000000000000000000000000000000000000000000000000000000000000000000000000000000000000000000000000000000000000000000000000000000000000000000000000000000000000000000000000000000000000000000000000000000000000
310
00000000000000000000000000000000000000000000000000000000000000000000000000000000000000000000000000000000000000000000000000000000000000000000000000000000000000000000000000000000000000000000000000000000000000000000000000000000000000000000000000000000000000
310
00000000000000000000000000000000000000000000000000000000000000000000000000000000000000000000000000000000000000000000000000000000000000000000000000000000000000000000000000000000000000000000000000000000000000000000000000000000000000000000000000000000000000
310
00000000000000000000000000000000000000000000000000000000000000000000000000000000000000000000000000000000000000000000000000000000000000000000000000000000000000000000000000000000000000000000000000000000000000000000000000000000000000000000000000000000000000
310
00000000000000000000000000000000000000000000000000000000000000000000000000000000000000000000000000000000000000000000000000000000000000000000000000000000000000000000000000000000000000000000000000000000000000000000000000000000000000000000000000000000000000
310
00000000000000000000000000000000000000000000000000000000000000000000000000000000000000000000000000000000000000000000000000000000000000000000000000000000000000000000000000000000000000000000000000000000000000000000000000000000000000000000000000000000000000
310
00000000000000000000000000000000000000000000000000000000000000000000000000000000000000000000000000000000000000000000000000000000000000000000000000000000000000000000000000000000000000000000000000000000000000000000000000000000000000000000000000000000000000
310
00000000000000000000000000000000000000000000000000000000000000000000000000000000000000000000000000000000000000000000000000000000000000000000000000000000000000000000000000000000000000000000000000000000000000000000000000000000000000000000000000000000000000
310
00000000000000000000000000000000000000000000000000000000000000000000000000000000000000000000000000000000000000000000000000000000000000000000000000000000000000000000000000000000000000000000000000000000000000000000000000000000000000000000000000000000000000
310
00000000000000000000000000000000000000000000000000000000000000000000000000000000000000000000000000000000000000000000000000000000000000000000000000000000000000000000000000000000000000000000000000000000000000000000000000000000000000000000000000000000000000
310
00000000000000000000000000000000000000000000000000000000000000000000000000000000000000000000000000000000000000000000000000000000000000000000000000000000000000000000000000000000000000000000000000000000000000000000000000000000000000000000000000000000000000
310
00000000000000000000000000000000000000000000000000000000000000000000000000000000000000000000000000000000000000000000000000000000000000000000000000000000000000000000000000000000000000000000000000000000000000000000000000000000000000000000000000000000000000
310
00000000000000000000000000000000000000000000000000000000000000000000000000000000000000000000000000000000000000000000000000000000000000000000000000000000000000000000000000000000000000000000000000000000000000000000000000000000000000000000000000000000000000
310
00000000000000000000000000000000000000000000000000000000000000000000000000000000000000000000000000000000000000000000000000000000000000000000000000000000000000000000000000000000000000000000000000000000000000000000000000000000000000000000000000000000000000
310
00000000000000000000000000000000000000000000000000000000000000000000000000000000000000000000000000000000000000000000000000000000000000000000000000000000000000000000000000000000000000000000000000000000000000000000000000000000000000000000000000000000000000
310
00000000000000000000000000000000000000000000000000000000000000000000000000000000000000000000000000000000000000000000000000000000000000000000000000000000000000000000000000000000000000000000000000000000000000000000000000000000000000000000000000000000000000
310
00000000000000000000000000000000000000000000000000000000000000000000000000000000000000000000000000000000000000000000000000000000000000000000000000000000000000000000000000000000000000000000000000000000000000000000000000000000000000000000000000000000000000
310
00000000000000000000000000000000000000000000000000000000000000000000000000000000000000000000000000000000000000000000000000000000000000000000000000000000000000000000000000000000000000000000000000000000000000000000000000000000000000000000000000000000000000
310
00000000000000000000000000000000000000000000000000000000000000000000000000000000000000000000000000000000000000000000000000000000000000000000000000000000000000000000000000000000000000000000000000000000000000000000000000000000000000000000000000000000000000
310
000000000000000000000000000000000000000000000000000000000000000000BEBEBEBEBEBEBEBEBEBEBEBEBEBEBEBEBEBEBEBEBEBEBEBEBEBEBEBEBEBEBEBEBEBEBEBEBE000000000000000000000000000000000000000000000000000000000000000000000000000000000000000000000000000000000000000000
310
00000000000000000000000000000000000000000000000000000000000000000000000000000000000000000000000000000000000000000000000000000000000000000000000000000000000000000000000000000000000000000000000000000000000000000000000000000000000000000000000000000000000000
310
0000000000000000000000000000000000000000000000000000000000000000000000BEBEBEBEBEBEBEBEBEBEBEBEBEBEBEBEBEBEBEBEBEBEBEBEBEBEBEBEBEBEBEBEBEBEBEBEBE00000000000000000000000000000000000000000000000000000000000000000000000000000000000000000000000000000000000000
310
00000000000000000000000000000000000000000000000000000000000000000000000000000000000000000000000000000000000000000000000000000000000000000000000000000000000000000000000000000000000000000000000000000000000000000000000000000000000000000000000000000000000000
310
00000000000000000000000000000000000000000000000000000000000000000000000000BEBEBEBEBEBEBEBEBEBEBEBEBEBEBEBEBEBEBEBEBEBEBEBEBEBEBEBEBEBEBEBEBEBEBEBEBE0000000000000000000000000000000000000000000000000000000000000000000000000000000000000000000000000000000000
310
00000000000000000000000000000000000000000000000000000000000000000000000000000000000000000000000000000000000000000000000000000000000000000000000000000000000000000000000000000000000000000000000000000000000000000000000000000000000000000000000000000000000000
310
00000000000000000000000000000000000000000000000000000000000000000000000000000000000000000000000000000000000000000000000000000000000000000000000000000000000000000000000000000000000000000000000000000000000000000000000000000000000000000000000000000000000000
310
00000000000000000000000000000000000000000000000000000000000000000000000000000000000000000000000000000000000000000000000000000000000000000000000000000000000000000000000000000000000000000000000000000000000000000000000000000000000000000000000000000000000000
310
0000000000000000000000000000000000000000000000000000000000000000000000000000000000BEBEBEBEBEBEBEBEBEBEBEBEBEBEBEBEBEBEBEBEBEBEBEBEBEBEBEBEBEBEBEBEBEBEBEBEBEBEBEBEBEBEBEBEBEBEBEBEBEBEBEBEBEBEBEBEBEBEBE000000000000000000000000000000000000000000000000000000
310
00000000000000000000000000000000000000000000000000000000000000000000000000000000000000000000000000000000000000000000000000000000000000000000000000000000000000000000000000000000000000000000000000000000000000000000000000000000000000000000000000000000000000
310
00000000000000000000000000000000000000000000000000000000000000000000000000000000000000BEBEBEBEBEBEBEBEBEBEBEBEBEBEBEBEBEBEBEBEBEBEBEBEBEBEBEBEBEBEBEBEBEBEBEBEBEBEBEBEBEBEBEBEBEBEBEBEBEBEBEBEBEBEBEBEBEBEBE00000000000000000000000000000000000000000000000000
310
00000000000000000000000000000000000000000000000000000000000000000000000000000000000000000000000000000000000000000000000000000000000000000000000000000000000000000000000000000000000000000000000000000000000000000000000000000000000000000000000000000000000000
310
000000000000000000000000000000000000000000000000000000000000000000000000000000000000000000BEBEBEBEBEBEBEBEBEBEBEBEBEBEBEBEBEBEBEBEBEBEBEBEBEBEBEBEBEBEBEBEBEBEBEBEBEBEBEBEBEBEBEBEBEBEBEBEBEBEBEBEBEBEBEBEBEBEBE0000000000000000000000000000000000000000000000
310
00000000000000000000000000000000000000000000000000000000000000000000000000000000000000000000000000000000000000000000000000000000000000000000000000000000000000000000000000000000000000000000000000000000000000000000000000000000000000000000000000000000000000
310
0000000000000000000000000000000000000000000000000000000000000000000000000000000000000000000000BEBEBEBEBEBEBEBEBEBEBEBEBEBEBEBEBEBEBEBEBEBEBEBEBEBEBEBEBEBEBEBEBEBEBEBEBEBEBEBEBEBEBEBEBEBEBEBEBEBEBE0000000000000000000000000000000000000000000000000000000000
310
00000000000000000000000000000000000000000000000000000000000000000000000000000000000000000000000000000000000000000000000000000000000000000000000000000000000000000000000000000000000000000000000000000000000000000000000000000000000000000000000000000000000000
310
00000000000000000000000000000000000000000000000028000000000000000000000000000000280000000000000000BEBEBEBEBEBEBEBEBEBEBEBEBEBEBEBEBEBEBEBEBEBEBEBEBEBEBEBEBEBEBEBEBEBEBEBEBEBEBEBEBEBEBEBEBEBEBEBEBEBEBE000000000000000000000000000000000000000000000000000000
310
00000000000000000000000000000000000000000000000000000000000000000000000000000000000000000000000000000000000000000000000000000000000000000000000000000000000000000000000000000000000000000000000000000000000000000000000000000000000000000000000000000000000000
310
00000000000000000000000000000000000000000000000000000028DC00000000000000000000002828000000000000BEBEBEBEBEBEBEBEBEBEBEBEBEBEBEBEBEBEBEBEBEBEBEBEBEBEBEBEBEBEBEBEBEBEBEBEBEBEBEBEBEBEBEBEBEBEBEBEBEBEBEBEBEBE00000000000000000000000000000000000000000000000000
310
00000000000000000000000000000000000000000000000000000000000000000000000000000000000000000000000000000000000000000000000000000000000000000000000000000000000000000000000000000000000000000000000000000000000000000000000000000000000000000000000000000000000000
310
00000000000000000000000000000000000000000000000000000000DCDC002828000000000000002828DCDC0000000000BE0000000000000000000000000000000000000000000000000000000000000000000000000000000000000000000000000000000000000000000000000000000000000000000000000000000000
310
00000000000000000000000000000000000000000000000000000000000000000000000000000000000000000000000000000000000000000000000000000000000000000000000000000000000000000000000000000000000000000000000000000000000000000000000000000000000000000000000000000000000000
310
00000000000000000000000000000000000000000000000000000000DCDCDC0000000028280000002828000000DC00000000BE00000000000000000000000000000000000000000000000000000000000000000000000000000000000000000000000000000000000000000000000000000000000000000000000000000000
310
00000000000000000000000000000000000000000000000000000000000000000000000000000000000000000000000000000000000000000000000000000000000000000000000000000000000000000000000000000000000000000000000000000000000000000000000000000000000000000000000000000000000000
310
00000000000000000000000000000000000000000000000000000000DCDC000000000000000000280028000000000000DCDC00BE000000000000000000000000000000000000000000000000000000000000000000000000000000000000000000000000000000000000000000000000000000000000000000000000000000
310
00000000000000000000000000000000000000000000000000000000000000000000000000000000000000000000000000000000000000000000000000000000000000000000000000000000000000000000000000000000000000000000000000000000000000000000000000000000000000000000000000000000000000
310
0000000000000000000000000000000000000000000000000000000000DC000000000000000000000000BE000000000000000000DCDC00000000000000000000000000000000000000000000000000000000000000000000000000000000000000000000000000000000000000000000000000000000000000000000000000
310
00000000000000000000000000000000000000000000000000000000000000000000000000000000000000000000000000000000000000000000000000000000000000000000000000000000000000000000000000000000000000000000000000000000000000000000000000000000000000000000000000000000000000
310
0000000000000000000000000000000000000000000000000000000000DCDC0000000000000000000000BEBEBEBEBE000000000000BE0000DCDC000000000000000000000000000000000000000000000000000000000000000000000000000000000000000000000000000000000000000000000000000000000000000000
310
00000000000000000000000000000000000000000000000000000000000000000000000000000000000000000000000000000000000000000000000000000000000000000000000000000000000000000000000000000000000000000000000000000000000000000000000000000000000000000000000000000000000000
310
000000000000000000000000000000000000000000000000000000000000DC0000000000000000000000BEBE0000BE0000BEBE000000BE0000000000DCDC0000000000000000000000000000000000000000000000000000000000000000000000000000000000000000000000000000000000000000000000000000000000
310
00000000000000000000000000000000000000000000000000000000000000000000000000000000000000000000000000000000000000000000000000000000000000000000000000000000000000000000000000000000000000000000000000000000000000000000000000000000000000000000000000000000000000
310
000000000000000000000000000000000000000000000000000000000000DCDC00000000000000000000BEBE0000BEBEBEBEBE0000BEBE00BEBE0000000000BEBEBEBEBEBEBEBEBE00000000000000000000000000000000000000000000000000000000000000000000000000000000000000000000000000000000000000
310
00000000000000000000000000000000000000000000000000000000000000000000000000000000000000000000000000000000000000000000000000000000000000000000000000000000000000000000000000000000000000000000000000000000000000000000000000000000000000000000000000000000000000
310
000000000000000000000000000000000000000000000000000000000000DCDC00000000000000000000BEBE0000BEBEBE00BE00BEBEBE0000BEBE000000000000BEBEBEBEBEBEBEBEBE0000000000000000000000000000000000000000000000000000000000000000000000000000000000000000000000000000000000
310
00000000000000000000000000000000000000000000000000000000000000000000000000000000000000000000000000000000000000000000000000000000000000000000000000000000000000000000000000000000000000000000000000000000000000000000000000000000000000000000000000000000000000
310
00000000000000000000000000000000000000000000000000000000000000DC0000000000000000000000BE0000BEBE00BEBEBE00000000BEBEBE00BEBE0000000000BEBEBEBEBEBEBEBEBE000000000000000000000000000000000000000000000000000000000000000000000000000000000000000000000000000000
310
00000000000000000000000000000000000000000000000000000000000000000000000000000000000000000000000000000000000000000000000000000000000000000000000000000000000000000000000000000000000000000000000000000000000000000000000000000000000000000000000000000000000000
310
00000000000000000000000000000000000000000000000000000000000000DCDC00000000000000000000BEBE0000BE0000BEBEBEBE000000000000BEBE0000BEBE00000000000000000000000000000000000000000000000000000000000000000000000000000000000000000000000000000000000000000000000000
310
00000000000000000000000000000000000000000000000000000000000000000000000000000000000000000000000000000000000000000000000000000000000000000000000000000000000000000000000000000000000000000000000000000000000000000000000000000000000000000000000000000000000000
310
0000000000000000000000000000000000000000000000000000000000000000DC00000000000000000000BEBE0000BEBE00BEBE00000000BEBE0000000000BEBEBE0000BEBE00000000000000000000DC00000000000000000000000000000000000000000000000000000000000000000000000000000000000000000000
310
00000000000000000000000000000000000000000000000000000000000000000000000000000000000000000000000000000000000000000000000000000000000000000000000000000000000000000000000000000000000000000000000000000000000000000000000000000000000000000000000000000000000000
310
0000000000000000000000000000000000000000000000000000000000000000DCDC000000000000000000BEBE0000BEBE0000BE0000000000000000BEBE0000000000BEBEBE0000BE0000000000000000BEBEBEDC000000000000000000000000000000000000000000000000000000000000000000000000000000000000
310
00000000000000000000000000000000000000000000000000000000000000000000000000000000000000000000000000000000000000000000000000000000000000000000000000000000000000000000000000000000000000000000000000000000000000000000000000000000000000000000000000000000000000
310
0000000000000000000000000000000000000000000000000000000000000000DCDC000000000000000000BEBE0000BEBE0000BEBE0000000000000000000000BE000000000000BEBEBE00BEBE000000000000BEBEBE00DCDC0000000000000000000000000000000000000000000000000000000000000000000000000000
310
00000000000000000000000000000000000000000000000000000000000000000000000000000000000000000000000000000000000000000000000000000000000000000000000000000000000000000000000000000000000000000000000000000000000000000000000000000000000000000000000000000000000000
310
000000000000000000000000000000000000000000000000000000000000000000DC00000000000000000000BE000000BE0000BEBE0000000000000000000000000000BEBE0000000000BEBEBE0000BEBE00000000BEBEBE000000DCDC00000000000000000000000000000000000000000000000000000000000000000000
310
00000000000000000000000000000000000000000000000000000000000000000000000000000000000000000000000000000000000000000000000000000000000000000000000000000000000000000000000000000000000000000000000000000000000000000000000000000000000000000000000000000000000000
310
00000000000000000000000000000000000000000000000000BEBEBEBEBEBEBEBEBEBEBE0000000000000000BEBE0000BEBE00BEBE000000000000000000000000000000000000BEBE0000000000BEBEBE0000BEBE00EFEFEFEF0000000000DCDC000000280000000000000000000000000000000000000000000000000000
310
00000000000000000000000000000000000000000000000000000000000000000000000000000000000000000000000000000000000000000000000000000000000000000000000000000000000000000000000000000000000000000000000000000000000000000000000000000000000000000000000000000000000000
310
000000000000000000000000000000000000000000000000000000BEBEBEBEBEBEBEBEBEBEBE000000000000BEBE0000BEBE0000BE00000000000000000000000000000000000000000000BE000000000000BEBEBE00EFBE0000EFEFEF00000000DCDCDC282800000000000000000000000000000000000000000000000000
310
00000000000000000000000000000000000000000000000000000000000000000000000000000000000000000000000000000000000000000000000000000000000000000000000000000000000000000000000000000000000000000000000000000000000000000000000000000000000000000000000000000000000000
310
0000000000000000000000000000000000000000000000000000000000BEBEBEBEBEBEBEBEBEBEBE00000000BEBE0000BEBE0000BEBE000000000000000000000000000000000000000000000000BEBE0000000000BEBEBEBE00BEBE0000EFEF00000000282800000000000000000000000000ECECECECECECECECECECECEC
310
ECECECECECECECEC0000000000000000000000000000000000000000000000000000000000000000000000000000000000000000000000000000000000000000000000000000000000000000000000000000000000000000000000000000000000000000000000000000000000000000000000000000000000000000000000
310
0000000000000000000000000000000000000000000000000000000000000000000000000000000000000000BEBE000000BE0000BEBE00000000000000000000000000000000000000000000000000000000BEBE0000EFEFEFBEBEBE0000BEBE000000002828000000000000000000000000000000ECECECECECECECECECEC
310
ECECECECECECECECECEC000000000000000000000000000000000000000000000000000000000000000000000000000000000000000000000000000000000000000000000000000000000000000000000000000000000000000000000000000000000000000000000000000000000000000000000000000000000000000000
310
00000000000000000000000000000000000000000000000000000000000000000000DC00000000000000000000BE000000BEBE00BEBE0000000000000000000000000000000000000000000000000000000000000000BEBEEF00000000BEBEBE0000BEBE00280000000000000000000000000000000000ECECECECECECECEC
310
ECECECECECECECECECECECEC00000000000000000000000000000000000000000000000000000000000000000000000000000000000000000000000000000000000000000000000000000000000000000000000000000000000000000000000000000000000000000000000000000000000000000000000000000000000000
310
00000000000000000000000000000000000000000000000000000000000000000000DCDC000000000000000000BEBE0000BEBE0000BE000000000000000000000000000000000000000000000000000000000000BEBE00EFEF00BE0000000000BEBEBEBE0000BE000000000000000000000000000000000000000000000000
310
00000000000000000000000000000000000000000000000000000000000000000000000000000000000000000000000000000000000000000000000000000000000000000000000000000000000000000000000000000000000000000000000000000000000000000000000000000000000000000000000000000000000000
310
00000000000000000000000000000000000000000000000000000000000000000000DCDC000000000000000000BEBE0000BEBE0000BEBE00000000000000000000000000000000000000000000000000000000000000BEBEEFEF000000BEBE0000000000BEBEBEBEBE00000000000000000000000000000000000000000000
310
00000000000000000000000000000000000000000000000000000000000000000000000000000000000000000000000000000000000000000000000000000000000000000000000000000000000000000000000000000000000000000000000000000000000000000000000000000000000000000000000000000000000000
310
00000000000000000000000000000000000000000000000000000000000000000000DCDC000000000000000000BEBE000000BE00BEBEBE000000000000000000000000000000000000000000000000000000000000000000BEBE00EFEF00000000BEBE0000000000BEBEBE0000000000000000000000000000000000000028
310
28282828282828282828282828282828280000000000000000000000000000000000000000000000000000000000000000000000000000000000000000000000000000000000000000000000000000000000000000000000000000000000000000000000000000000000000000000000000000000000000000000000000000
310
00000000000000000000000000000000000000000000000000000000000000000000DCDC000000000000000000BEBE000000BEBEBEBEBEBEBEBE00000000000000000000000000000000000000000000000000000000000000000000000000EFEF00000000BEBE00BEBEBEBE00000000000000000000000000000000000000
310
00282828282828282828282828282828282800000000000000000000000000000000000000000000000000000000000000000000000000000000000000000000000000000000000000000000000000000000000000000000000000000000000000000000000000000000000000000000000000000000000000000000000000
310
00000000000000000000000000000000000000000000000000000000000000000000DCDC000000000000000000BEBE000000BEBE00BEBEBEBEBE00BEBEBE00000000000000000000000000000000000000000000000000000000000000000000000000000000BEBEBEBEBEBEBE000000000000000000000000000000000000
310
00000028282828282828282828282828282828280000000000000000000000000000000000000000000000000000000000000000000000000000000000000000000000000000000000000000000000000000000000000000000000000000000000000000000000000000000000000000000000000000000000000000000000
310
0000000000000000000000000000000000000000000000000000000000000000000000DC00000000000000000000BE000000BEBE0000BEBEBEBE0000BEBE00BEBE00000000000000000000000000000000000000000000000000000000000000000000000000BEBEBEBE00BEBE000000000000000000000000000000000000
310
000000000000000000000000000000000000000000000000000000000000BEBEBEBEBEBEBEBEBEBEBEBEBEBEBEBEBEBEBEBE0000000000000000000000000000000000000000000000000000000000000000000000000000000000000000000000000000000000000000000000000000000000000000000000000000000000
310
0000000000000000000000000000000000000000000000000000000000000000000000DCDC000000000000000000BEBE000000BE0000BEBE00000000BEBE0000BEBE00BEBE000000000000000000000000000000000000000000000000000000000000000000BEBE00BE00BEBE000000000000000000000000000000000000
310
0000000000000000000000000000000000000000000000000000000000000000BEBEBEBEBEBEBEBEBEBEBEBEBEBEBEBEBEBEBEBE000000000000000000000000000000000000000000000000000000000000000000000000000000000000000000000000000000000000000000000000000000000000000000000000000000
310
0000000000000000000000000000000000000000000000000000000000000000000000DCDC000000000000000000BEBE000000BEBE0000BE0000000000000000BE000000BEBE00BEBE000000000000000000000000000000000000000000000000000000000000BE00BEBE00BE000000000000000000000000000000000000
310
00000000000000000000000000000000000000000000000000000000000000000000BEBEBEBEBEBEBEBEBEBEBEBEBEBEBEBEBEBEBEBE00000000000000000000000000000000000000000000000000000000000000000000000000000000000000000000000000000000000000000000000000000000000000000000000000
310
0000000000000000000000000000000000000000000000000000000000000000000000DCDC000000000000000000BEBE000000BEBE0000BEBE00000000000000000000BEBE000000BEBEBEBEBE0000000000000000000000000000000000000000000000000000BEBEBEBE00BEBE0000000000000000000000000000000000
310
000000000000000000000000000000000000000000000000000000000000000000000000BEBEBEBEBEBEBEBEBEBEBEBEBEBEBEBEBEBEBEBEBE00000000000000000000000000000000000000000000000000000000000000000000000000000000000000000000000000000000000000000000000000000000000000000000
310
0000000000000000000000000000000000000000000000000000000000000000000000DCDC000000000000000000BEBE000000BEBE0000BEBE0000000000000000000000000000BEBE000000BEBEBEBE0000000000000000000000000000000000000000000000BEBEBEBE00BEBE0000000000000000000000000000000000
310
0000000000000000000000000000000000000000000000000000000000000000000000000000BEBEBEBEBEBEBEBEBEBEBEBEBEBEBEBEBEBEBEBEBE0000000000000000000000000000000000000000000000000000000000000000000000000000000000000000000000000000000000000000000000000000000000000000
310
0000000000000000000000000000000000000000000000000000000000000000000000DCDC00000000000000000000BE00000000BE0000BEBE000000000000000000000000000000000000BE00000000BE00BEBE00000000000000000000000000000000000000BEBEBEBE00BEBE0000000000000000000000000000000000
310
0000000000BEBEBEBEBEBEBE00000000000000000000000000000000000000000000000000000000BEBEBEBEBEBEBEBEBEBEBEBEBEBEBEBEBEBEBEBEBE000000000000000000000000000000000000000000000000000000000000000000000000000000000000000000000000000000000000000000000000000000000000
310
000000000000000000000000000000000000000000000000000000000000000028000000DC00000000000000000000BEBE000000BEBE0000BE000000000000000000000000000000000000000000BEBE000000BEBE00BEBE000000000000000000000000000000BEBE00BE00BEBE0000000000000000000000000000000000
310
00000000000000BEBEBEBEBEBEBE00000000000000000000000000000000000000000000000000000000BEBEBEBEBEBEBEBEBEBEBEBEBEBE0000000000000000000000000000000000000000000000000000000000000000000000000000000000000000000000000000000000000000000000000000000000000000000000
310
000000000000000000000000000000000000000000000000000000000000000000000028DCDC000000000000000000BEBE000000BEBE0000BEBE000000000000000000000000000000000000000000000000BEBE000000BEBEBEBE00000000000000000000000000BE00BEBE00BE0000000000000000000000000000000000
310
000000000000000000BEBEBEBEBEBEBE00000000000000000000000000000000000000000000000000000000BEBEBEBEBEBEBEBEBEBEBEBEBEBE000000000000000000000000000000000000000000000000000000000000000000000000000000000000000000000000000000000000000000000000000000000000000000
310
0000000000000000000000000000000000000000000000000000000000000000000000000000002828000000000000BEBE000000BEBE0000BEBE00BEBEBEBEBEBEBEBEBEBEBEBEBEBEBEBEBEBEBEBE00000000000000BEBE000000BEBEBEBE000000000000000000BEBEBEBE00BEBE00000000000000000000000000000000
310
000000000000000000BEBEBEBEBEBEBEBEBE000000000000000000000000000000000000000000000000BEBEBE00BEBEBEBEBEBEBEBEBEBEBEBEBEBE00000000000000000000000000000000000000000000000000000000000000000000000000000000000000000000000000000000000000000000000000000000000000
310
0000000000000000000000000000000000000000000000000000000000000000000000000000000000000028280000BEBE00000000BE0000BEBE000000BEBEBEBEBEBEBEBEBEBEBEBEBEBEBEBEBEBEBEBE00000000000000BEBEBE00000000BEBEBEBE0000000000BEBEBEBE00BEBE00000000000000000000000000000000
310
0000000000000000000000BEBEBEBEBEBEBEBEBE000000000000000000000000000000000000000000000000BE00000000000000000000000000000000000000000000000000000000000000000000000000000000000000000000000000000000000000000000000000000000000000000000000000000000000000000000
310
000000000000000000000000000000000000000000000000000000000000000000000000000000000000000000000028BE00000000BEBE0000BE0000000000BEBEBEBEBEBEBEBEBEBEBEBEBEBEBEBEBEBEBEBE000000000000BEBE0000BEBE00000000BEBEBEBE00BEBE00BE00BEBE00000000000000000000000000000000
310
00000000000000000000000000BEBEBEBEBEBEBEBEBE00BEBEBE00000000000000000000000000000000000000BE000000000000000000000000000000000000000000000000000000000000000000000000000000000000000000000000000000000000000000000000000000000000000000000000000000000000000000
310
0000000000000000000000000000000000000000000000000000000000000000000000000000000000000000000000000000BE0000BEBE0000BEBE00000000000000000000BEBEBEBEBEBEBEBEBEBEBEBEBEBEBEBE000000000000BE0000000000BE0000000000BEBEBE00BEBE00BE00000000000000000000000000000000
310
00000000000000000000000000000000000000000000000000000000BE000000000000000000000000000000000000BE00000000000000000000000000000000000000000000000000000000000000000000000000000000000000000000000000000000000000000000000000000000000000000000000000000000000000
310
00000000000000000000000000000000000000000000000000000000000000000000000000000000000000000000000000000000BEBEBE00BEBEBE000000000000000000000000BEBEBEBEBEBEBEBEBEBEBEBEBEBEBEBE0000000000BE00000000000000BEBE0000000000BEBE00BEBE000000000000000000000000000000
310
000000000000000000000000000000000000000000000000000000000000BE00000000000000000000000000BEBEBEBEBE000000000000000000000000000000000000000000000000000000000000000000000000000000000000000000000000000000000000000000000000000000000000000000000000000000000000
310
000000000000000000000000000000000000000000000000000000000000000000000000000000000000000000000000000000000000BEBEBEBEBE00BEBE0000000000000000000000BEBEBEBEBEBEBEBEBEBEBEBEBEBEBEBE0000BEBEBE00000000000000000000BEBE00BEBEBEBEBE000000000000000000000000000000
310
0000000000000000000000000000000000EF000000000000000000000000000000BE0000000000000000000000BEBEBEBEBE0000000000000000000000000000000000000000000000000000000000000000000000000000000000000000000000000000000000000000000000000000000000000000000000000000000000
310
000000000000000000000000000000000000000000000000000000000000000000000000000000000000000000000000000000000000000000BEBE0000000000BEBE000000000000000000BEBEBEBEBEBEBEBEBEBEBEBEBEBEBEBE0000000000000000000000000000BEBEBEBEBEBEBE000000000000000000000000000000
310
00000000000000000000000000000000000000EF00000000000000000000000000000000BE00000000000000000000BEBEBEBEBE000000000000000000000000000000000000000000000000000000000000000000000000000000000000000000000000000000000000000000000000000000000000000000000000000000
310
00000000000000000000000000000000000000000000000000000000000000000000000000000000000000000000000000000000000000000000000000BEBE0000000000BEBE0000000000000000000000000000000000000000000000000000000000000000000000BEBE00BE00BEBE000000000000000000000000000000
310
000000000000000000000000000000000000000000EFB8B8B8B8B8B8B8B8B8B8B8B8B8B8B8B8B8B8B8B8B8B8B8B8B82D2D2D2D2D2D2D2D2D0000000000000000000000000000000000000000000000000000000000000000000000000000000000000000000000000000000000000000000000000000000000000000000000
310
0000000000000000000000000000000000000000000000000000000000000000000000000000000000000000000000000000000000000000000000000000000000BEBE0000000000BEBE0000000000000000000000000000000000000000000000000000000000000000BE00BEBE00BE000000000000000000000000000000
310
0000000000000000000000000000000000000000000000EF0000000000000000000000000000000000000000000000000000BE00BE00BE002D2D000000000000000000000000000000000000000000000000000000000000000000000000000000000000000000000000000000000000000000000000000000000000000000
310
000000000000000000000000000000000000000000000000000000000000000000000000000000000000000000000000000000000000000000000000000000000000000000BEBE0000000000BE0000000000000000000000000000000000000000000000000000000000BEBEBEBE00BEBE0000000000000000000000000000
310
00000000000000000000000000000000000000000000000000EF00000000000000000000000000000000000000000000000000BEBE00BE00BE002D2D00000000000000000000000000000000000000000000000000000000000000000000000000000000000000000000000000000000000000000000000000000000000000
310
00000000000000000000000000000000000000000000000000000000000000000000000000000000000000000000000000000000000000000000000000000000000000000000000000BEBE00000000BEBE00000000000000000000000000000000000000000000000000BEBEBEBE00BEBE0000000000000000000000000000
310
000000000000000000000000000000000000000000000000000000EF0000000000000000000000000000000000000000000000000000BE00BE00BE002D2D00000000BEBEBEBEBEBEBEBEBEBEBEBEBEBEBEBEBE0000000000000000000000000000000000000000000000000000000000000000000000000000000000000000
310
0000000000000000000000000000000000000000000000000000000000000000000000000000000000000000000000000000000000000000000000000000000000000000000000000000000000BE0000000000BEBE000000000000000000000000000000000000000000BEBE00BE00BEBE0000000000000000000000000000
310
0000000000000000000000000000000000000000000000000000000000EF0000000000000000000000000000000000000000000000000000BE00BE00BEBE2D2D00000000BEBEBEBEBEBEBEBEBEBEBEBEBEBEBEBEBE000000000000000000000000000000000000000000000000000000000000000000000000000000000000
310
0000000000000000000000000000000000000000000000000000000000000000000000000000000000000000000000000000000000000000000000000000000000000000000000000000000000000000BEBE0000000000BEBE000000000000000000000000000000000000BE00BEBE00BE0000000000000000000000000000
310
00000000000000000000000000000000000000000000000000000000000000EF000000000000BEBEBEBEBEBEBEBEBEBEBEBEBEBEBE00000000BE0000BE00BEBE2D2D00000000BEBEBEBEBEBEBEBEBEBEBEBEBEBEBEBEBE00000000000000000000000000000000000000000000000000000000000000000000000000000000
310
000000000000000000000000000000000000000000000000000000000000000000000000000000000000000000000000000000000000000000000000000000000000000000000000000000000000000000000000BEBE0000000000BEBE0000000000000000000000000000BEBEBEBE00BEBE00000000000000000000000000
310
000000000000000000000000000000000000000000000000000000000000000000EF000000000000BEBEBEBEBEBEBEBEBEBEBEBEBEBEBE00000000BE0000BE00BE002D2D0000000000BEBEBEBEBEBEBEBEBEBEBEBEBEBEBEBEBEBEBEBEBEBE0000000000000000000000000000000000000000000000000000000000000000
310
00000000000000000000000000000000000000000000000000000000000000000000000000000000000000000000000000000000000000000000000000000000000000000000000000000000000000000000000000000000BEBE0000000000BEBE00000000000000000000BEBEBEBE00BEBE00000000000000000000000000
310
0000000000000000000000000000000000000000000000000000000000000000000000EF000000000000BEBEBEBEBEBEBEBEBEBEBEBEBEBEBE0000BEBEBE0000BE00BE002D2DBE00000000BEBEBEBEBEBEBEBEBEBEBEBEBEBEBEBEBEBEBEBEBEBE000000000000000000000000000000000000000000000000000000000000
310
00000000000000000000000000000000000000000000000000000000000000000000000000000000000000000000000000000000000000000000000000000000000000000000000000000000000000000000BEBEBEBEBE0000000000BE000000000000BE0000000000000000BEBEBE00BEBE00000000000000000000000000
310
000000000000000000000000000000000000000000000000000000000000000000000000EFEFEF000000000000000000000000000000000000000000000000000000BE00BE002D2D00BEBEBE00BEBEBEBEBEBEBEBEBEBEBEBEBEBEBEBEBEBEBEBEBEBE00000000000000000000000000000000000000000000000000000000
310
000000000000000000000000000000000000000000000000000000000000000000000000000000000000000000000000000000000000000000000000000000000000000000000000000000000000000000000000BEBEBEBEBE000000000000BEBE00000000BEBEBE00000000BEBEBE00BEBE00000000000000000000000000
310
000000000000000000000000000000000000000000000000000000000000000000000000000000EF00000000000000000000000000000000000000000000000000000000BE00BE002D2D0000000000000000000000000000000000000000000000000000000000000000000000000000000000000000000000000000000000
310
0000000000000000000000000000000000000000000000000000000000000000000000000000000000000000000000000000000000000000000000000000000000000000000000000000000000000000000000000000BEBEBEBEBE0000000000BEBEBEBEBE0000BEBEBEBE00BEBEBEBE00BE00000000000000000000000000
310
0000000000000000000000000000000000000000000000000000000000000000000000000000000000EF00000000000000000000000000000000000000000000000000000000BE00BE002D2D000000000000000000000000000000000000000000000000000000000000000000000000000000000000000000000000000000
310
000000000000000000000000000000000000000000000000000000000000000000000000000000000000000000000000000000000000000000000000000000000000000000000000000000000000BEBEBEBEBEBEBEBEBEBEBEBEBEBEBE000000000000BE000000BEBE000000BEBEBEBE00BEBE000000000000000000000000
310
00000000000000000000000000000000000000000000000000000000000000000000000000000000000000EF00000000000000000000000000000000000000000000000000000000BE00BE002D2D00000000000000000000000000000000000000000000000000000000000000000000000000000000000000000000000000
310
0000000000000000000000000000000000000000000000000000000000000000000000000000000000000000000000000000000000000000000000000000000000000000000000000000000000000000BEBEBEBEBEBEBEBEBEBEBEBEBEBEBE0000000000BE0000000000BEBEBE00BEBEBEBEBE00000000BEBEBEBEBEBEBEBE
310
BEBEBEBEBEBEBEBEBEBEBEBEBEBE00000000000000000000000000000000000000000000000000000000000000EF00000000000000000000000000000000000000000000000000000000BE00BE002D2D0000000000000000000000000000000000000000000000000000000000000000000000000000000000000000000000
310
00000000000000000000000000000000000000000000000000000000000000000000000000000000000000000000000000000000000000000000000000000000000000000000000000000000000000000000BEBEBEBEBEBEBEBEBEBEBEBEBEBEBE0000BEBEBE0000000000000000BEBEBEBEBE000000000000BEBEBEBEBEBE
310
BEBEBEBEBEBEBEBEBEBEBEBEBEBEBEBE00000000000000000000000000000000000000000000000000000000000000EF00000000000000000000000000000000000000000000000000000000BE00BE002D2D0000BEBEBEBEBEBEBEBEBEBEBEBEBEBEBEBEBEBEBEBEBE00000000000000000000000000000000000000000000
310
000000000000000000000000000000000000000000000000000000000000000000000000000000000000000000000000000000000000000000000000000000000000000000000000000000000000000000000000000000000000000000000000000000000000000000000000000000000000BEBE00BE0000000000BEBEBEBE
310
BEBEBEBEBEBEBEBEBEBEBEBEBEBEBEBEBEBE00000000000000000000000000000000000000000000000000000000000000EF00000000000000000000000000BEBEBE000000000000000000000000BE00BE002D2D0000BEBEBEBEBEBEBEBEBEBEBEBEBEBEBEBEBEBEBEBEBE0000000000000000000000000000000000000000
310
000000000000000000000000000000000000000000000000000000000000000000000000000000000000000000000000000000000000000000000000000000000000000000000000000000000000000000000000000000000000000000000000000000000000000000000000000000000000000000000000BE00000000BEBE
310
BEBEBEBEBEBEBEBEBEBEBEBEBEBEBEBEBEBEBEBE00000000000000000000000000000000000000000000000000000000000000EF000000000000002D2D2D2D2D2DBEBEBE2D2D2D2D2D2D2D2D2D2D2D2D2D2D2D2D2D2D0000BEBEBEBEBEBEBEBEBEBEBEBEBEBEBEBEBEBEBEBEBE000000000000000000000000000000000000
310
000000000000000000000000000000000000000000000000000000000000000000000000000000000000000000000000000000000000000000000000000000000000000000000000000000000000000000000000000000000000000000000000000000000000000000000000000000000000000000000000000000BE000000
310
BEBEBEBEBEBEBEBEBEBEBEBEBEBEBEBEBEBEBEBEBEBE00000000000000000000000000000000000000000000000000000000000000EFB8B8B8B8B8B8B82D2D2D2D2D2DBEBEBE2D2D2D2D2D2D2D2D2D2D2D2D2D2D2D2D2D2D0000BEBEBEBEBEBEBEBEBEBEBEBEBEBEBEBEBEBEBEBEBEBE000000000000000000000000000000
310
000000000000000000000000000000000000000000000000000000000000000000000000000000000000000000000000000000000000000000000000000000000000000000000000000000000000000000000000000000000000000000000000000000000000000000000000000000000000000000000000000000000000BE
310
BEBEBEBEBEBEBEBEBEBEBEBEBEBEBEBEBEBEBEBEBEBEBEBE00000000000000000000000000000000000000000000000000000000000000EF0000000000000000000000000000BE00000000000000000000000000BEBEBE0000000000BEBEBEBEBEBEBEBEBEBEBEBEBEBEBEBEBEBEBEBEBEBE00000000000000000000000000
310
00000000000000000000000000000000000000000000000000000000000000000000000000000000000000000000000000000000000000000000000000000000000000000000000000000000000000000000000000000000000000000000000000000000000000000000000000000000000000000000000000000000000000
310
0000000000000000000000000000000000000000000000000000000000000000000000000000000000000000000000000000000000000000000000000000000000000000000000BEBE00000000000000000000000000BEBEBE0000000000BEBEBEBEBEBEBEBEBEBEBEBEBEBEBEBEBEBEBEBEBEBE0000000000000000000000
310
00000000000000000000000000000000000000000000000000000000000000000000000000000000000000000000000000000000000000000000000000000000000000000000000000000000000000000000000000000000000000000000000000000000000000000000000000000000000000000000000000000000000000
310
00000000000000000000000000000000000000000000000000000000000000000000000000000000000000000000000000000000000000000000000000BEBEBEBEBEBEBEBE00000000BE0000000000000000000000000000BEBEBE000000000000000000000000000000000000000000000000000000000000000000000000
310
00000000000000000000000000000000000000000000000000000000000000000000000000000000000000000000000000000000000000000000000000000000000000000000000000000000000000000000000000000000000000000000000000000000000000000000000000000000000000000000000000000000000000
310
000000000000000000000000000000000000000000000000000000000000000000000000000000000000000000000000000000000000000000000000000000BEBEBEBEBEBEBEBE00000000BE0000000000000000000000000000BEBEBE0000000000BEBEBEBEBEBEBEBEBEBEBEBEBE00000000000000000000000000000000
310
00000000000000000000000000000000000000000000000000000000000000000000000000000000000000000000000000000000000000000000000000000000000000000000000000000000000000000000000000000000000000000000000000000000000000000000000000000000000000000000000000000000000000
310
0000000000000000000000000000000000000000000000000000000000000000000000000000000000000000000000000000000000000000000000000000000000BEBEBEBEBEBEBEBE0000BEBEBE0000000000000000000000000000BEBEBE0000000000BEBEBEBEBEBEBEBEBEBEBEBEBE0000000000000000000000000000
310
00000000000000000000000000000000000000000000000000000000000000000000000000000000000000000000000000000000000000000000000000000000000000000000000000000000000000000000000000000000000000000000000000000000000000000000000000000000000000000000000000000000000000
310
00000000000000000000000000000000000000000000000000000000000000000000000000000000000000000000000000000000000000000000000000000000000000000000000000000000000000000000000000000000000000000000BEBEBEBE00000000BEBEBEBEBEBEBEBEBEBEBEBEBE000000000000000000000000
310
00000000000000000000000000000000000000000000000000000000000000000000000000000000000000000000000000000000000000000000000000000000000000000000000000000000000000000000000000000000000000000000000000000000000000000000000000000000000000000000000000000000000000
310
000000000000000000000000000000000000000000000000000000000000000000000000000000000000000000000000000000000000000000000000000000000000000000000000000000000000000000000000000000000000000000000000BEBEBEBE00000000BEBEBEBEBEBEBEBEBEBEBEBEBEBEBEBEBEBEBEBEBEBEBE
310
00000000000000000000000000000000000000000000000000000000000000000000000000000000000000000000000000000000000000000000000000000000000000000000000000000000000000000000000000000000000000000000000000000000000000000000000000000000000000000000000000000000000000
310
0000000000000000000000000000000000000000000000000000000000000000000000000000000000000000000000000000000000000000000000000000000000000000000000000000000000000000000000000000000000000000000000000000BEBEBE00BE000000BEBEBEBEBEBEBEBEBEBEBEBEBEBEBEBEBEBEBEBEBE
310
BEBE0000000000000000000000000000000000000000000000000000000000000000000000000000000000000000000000000000000000000000000000000000000000000000000000000000000000000000000000000000000000000000000000000000000000000000000000000000000000000000000000000000000000
310
00000000000000000000000000000000000000000000000000000000000000000000000000000000000000000000000000000000000000000000000000000000000000000000000000000000000000000000000000000000000000000000000000000000BEBEBE0000BEBEBEBEBEBEBEBEBEBEBEBEBEBEBEBEBEBEBEBEBEBE
310
BEBEBEBE000000000000000000000000000000000000000000000000000000000000000000000000000000000000000000000000000000000000000000000000000000000000000000000000000000000000000000000000000000000000000000000000000000000000000000000000000000000000000000000000000000
310
000000000000000000000000000000000000000000000000000000000000000000000000000000000000000000000000000000000000000000000000000000000000000000000000000000000000000000000000000000000000000000000000000000000000BEBEBE00000000000000000000000000000000000000000000
310
00000000000000000000000000000000000000000000000000000000000000000000000000000000000000000000000000000000000000000000000000000000000000000000000000000000000000000000000000000000000000000000000000000000000000000000000000000000000000000000000000000000000000
310
0000000000000000000000000000000000000000000000000000000000000000000000000000000000000000000000000000000000000000000000000000000000000000000000000000000000000000000000000000000000000000000000000000000000000000BEBEBE0000000000000000000000000000000000000000
310
00000000000000000000000000000000000000000000000000000000000000000000000000000000000000000000000000000000000000000000000000000000000000000000000000000000000000000000000000000000000000000000000000000000000000000000000000000000000000000000000000000000000000
310
00000000000000000000000000000000000000000000000000000000000000000000000000000000000000000000000000000000000000000000000000000000000000000000000000000000000000000000000000000000000000000000000000000000000000000000000000000000000000000000000000000000000000
310
00000000000000000000000000000000000000000000000000000000000000000000000000000000000000000000000000000000000000000000000000000000000000000000000000000000000000000000000000000000000000000000000000000000000000000000000000000000000000000000000000000000000000
310
00000000000000000000000000000000000000000000000000000000000000000000000000000000000000000000000000000000000000000000000000000000000000000000000000000000000000000000000000000000000000000000000000000000000000000000000000000000000000000000000000000000000000
310
00000000000000000000000000000000000000000000000000000000000000000000000000000000000000000000000000000000000000000000000000000000000000000000000000000000000000000000000000000000000000000000000000000000000000000000000000000000000000000000000000000000000000
310
00000000000000000000000000000000000000000000000000000000000000000000000000000000000000000000000000000000000000000000000000000000000000000000000000000000000000000000000000000000000000000000000000000000000000000000000000000000000000000000000000000000000000
310
00000000000000000000000000000000000000000000000000000000000000000000000000000000000000000000000000000000000000000000000000000000000000000000000000000000000000000000000000000000000000000000000000000000000000000000000000000000000000000000000000000000000000
310
00000000000000000000000000000000000000000000000000000000000000000000000000000000000000000000000000000000000000000000000000000000000000000000000000000000000000000000000000000000000000000000000000000000000000000000000000000000000000000000000000000000000000
310
00000000000000000000000000000000000000000000000000000000000000000000000000000000000000000000000000000000000000000000000000000000000000000000000000000000000000000000000000000000000000000000000000000000000000000000000000000000000000000000000000000000000000
310
00000000000000000000000000000000000000000000000000000000000000000000000000000000000000000000000000000000000000000000000000000000000000000000000000000000000000000000000000000000000000000000000000000000000000000000000000000000000000000000000000000000000000
310
00000000000000000000000000000000000000000000000000000000000000000000000000000000000000000000000000000000000000000000000000000000000000000000000000000000000000000000000000000000000000000000000000000000000000000000000000000000000000000000000000000000000000
310
00000000000000000000000000000000000000000000000000000000000000000000000000000000000000000000000000000000000000000000000000000000000000000000000000000000000000000000000000000000000000000000000000000000000000000000000000000000000000000000000000000000000000
310
00000000000000000000000000000000000000000000000000000000000000000000000000000000000000000000000000000000000000000000000000000000000000000000000000000000000000000000000000000000000000000000000000000000000000000000000000000000000000000000000000000000000000
310
00000000000000000000000000000000000000000000000000000000000000000000000000000000000000000000000000000000000000000000000000000000000000000000000000000000000000000000000000000000000000000000000000000000000000000000000000000000000000000000000000000000000000
310
00000000000000000000000000000000000000000000000000000000000000000000000000000000000000000000000000000000000000000000000000000000000000000000000000000000000000000000000000000000000000000000000000000000000000000000000000000000000000000000000000000000000000
310
00000000000000000000000000000000000000000000000000000000000000000000000000000000000000000000000000000000000000000000000000000000000000000000000000000000000000000000000000000000000000000000000000000000000000000000000000000000000000000000000000000000000000
310
00000000000000000000000000000000000000000000000000000000000000000000000000000000000000000000000000000000000000000000000000000000000000000000000000000000000000000000000000000000000000000000000000000000000000000000000000000000000000000000000000000000000000
310
00000000000000000000000000000000000000000000000000000000000000000000000000000000000000000000000000000000000000000000000000000000000000000000000000000000000000000000000000000000000000000000000000000000000000000000000000000000000000000000000000000000000000
310
00000000000000000000000000000000000000000000000000000000000000000000000000000000000000000000000000000000000000000000000000000000000000000000000000000000000000000000000000000000000000000000000000000000000000000000000000000000000000000000000000000000000000
310
00000000000000000000000000000000000000000000000000000000000000000000000000000000000000000000000000000000000000000000000000000000000000000000000000000000000000000000000000000000000000000000000000000000000000000000000000000000000000000000000000000000000000
310
00000000000000000000000000000000000000000000000000000000000000000000000000000000000000000000000000000000000000000000000000000000000000000000000000000000000000000000000000000000000000000000000000000000000000000000000000000000000000000000000000000000000000
310
00000000000000000000000000000000000000000000000000000000000000000000000000000000000000000000000000000000000000000000000000000000000000000000000000000000000000000000000000000000000000000000000000000000000000000000000000000000000000000000000000000000000000
310
0000000000000000000000000000000000000000000000000000000000000000000000000000000000000000000000000000000000000000000000000000000000000000000000000000000000000000000000000000000000000000000000000000000000000000000000000000000000000000000000
  0
XRECORD
  5
37DCF
102
{ACAD_REACTORS
330
37DCE
102
}
330
37DCE
100
AcDbXrecord
280
     1
102
MATERIAL
148
0.0
149
0.0
149
0.0
 93
        0
 94
      127
282
     0
 72
     1
 77
     1
171
     1
175
     1
179
     1
273
     0
  0
XRECORD
  5
37DCD
102
{ACAD_REACTORS
330
37DCC
102
}
330
37DCC
100
AcDbXrecord
280
     1
102
MATERIAL
148
0.0
149
0.0
149
0.0
 93
        0
 94
      127
282
     0
 72
     1
 77
     1
171
     1
175
     1
179
     1
273
     0
  0
XRECORD
  5
37DD1
102
{ACAD_REACTORS
330
37DD0
102
}
330
37DD0
100
AcDbXrecord
280
     1
102
MATERIAL
148
0.0
149
0.0
149
0.0
 93
        0
 94
      127
282
     0
 72
     1
 77
     1
171
     1
175
     1
179
     1
273
     0
  0
XRECORD
  5
37E3F
102
{ACAD_REACTORS
330
37E3E
102
}
330
37E3E
100
AcDbXrecord
280
     1
102
SHADEPLOT
 70
     0
102
SHADEPLOTRESLEVEL
 70
     2
102
SHADEPLOTCUSTOMDPI
 70
   300
  0
XRECORD
  5
37E3B
102
{ACAD_REACTORS
330
37E3A
102
}
330
37E3A
100
AcDbXrecord
280
     1
102
SHADEPLOT
 70
     0
102
SHADEPLOTRESLEVEL
 70
     2
102
SHADEPLOTCUSTOMDPI
 70
   300
  0
XRECORD
  5
37E41
102
{ACAD_REACTORS
330
37E40
102
}
330
37E40
100
AcDbXrecord
280
     1
102
SHADEPLOT
 70
     0
102
SHADEPLOTRESLEVEL
 70
     2
102
SHADEPLOTCUSTOMDPI
 70
   300
  0
XRECORD
  5
37E3D
102
{ACAD_REACTORS
330
37E3C
102
}
330
37E3C
100
AcDbXrecord
280
     1
102
SHADEPLOT
 70
     0
102
SHADEPLOTRESLEVEL
 70
     2
102
SHADEPLOTCUSTOMDPI
 70
   300
  0
CELLSTYLEMAP
  5
37E18
102
{ACAD_REACTORS
330
37DC1
102
}
330
37DC1
100
AcDbCellStyleMap
 90
        3
300
CELLSTYLE
  1
TABLEFORMAT_BEGIN
 90
        5
170
     1
 91
        0
 92
    32768
 62
   257
 93
        1
300
CONTENTFORMAT
  1
CONTENTFORMAT_BEGIN
 90
        0
 91
        0
 92
        4
 93
        0
300

 40
0.0
140
1.0
 94
        5
 62
     0
340
13
144
0.25
309
CONTENTFORMAT_END
171
     1
301
MARGIN
  1
CELLMARGIN_BEGIN
 40
0.06
 40
0.06
 40
0.06
 40
0.06
 40
0.18
 40
0.18
309
CELLMARGIN_END
 94
        6
 95
        1
302
GRIDFORMAT
  1
GRIDFORMAT_BEGIN
 90
        0
 91
        1
 62
     0
 92
       -2
340
0
 93
        0
 40
0.045
309
GRIDFORMAT_END
 95
        2
302
GRIDFORMAT
  1
GRIDFORMAT_BEGIN
 90
        0
 91
        1
 62
     0
 92
       -2
340
0
 93
        0
 40
0.045
309
GRIDFORMAT_END
 95
        4
302
GRIDFORMAT
  1
GRIDFORMAT_BEGIN
 90
        0
 91
        1
 62
     0
 92
       -2
340
0
 93
        0
 40
0.045
309
GRIDFORMAT_END
 95
        8
302
GRIDFORMAT
  1
GRIDFORMAT_BEGIN
 90
        0
 91
        1
 62
     0
 92
       -2
340
0
 93
        0
 40
0.045
309
GRIDFORMAT_END
 95
       16
302
GRIDFORMAT
  1
GRIDFORMAT_BEGIN
 90
        0
 91
        1
 62
     0
 92
       -2
340
0
 93
        0
 40
0.045
309
GRIDFORMAT_END
 95
       32
302
GRIDFORMAT
  1
GRIDFORMAT_BEGIN
 90
        0
 91
        1
 62
     0
 92
       -2
340
0
 93
        0
 40
0.045
309
GRIDFORMAT_END
309
TABLEFORMAT_END
  1
CELLSTYLE_BEGIN
 90
        1
 91
        1
300
_TITLE
309
CELLSTYLE_END
300
CELLSTYLE
  1
TABLEFORMAT_BEGIN
 90
        5
170
     1
 91
        0
 92
        0
 62
   257
 93
        1
300
CONTENTFORMAT
  1
CONTENTFORMAT_BEGIN
 90
        0
 91
        0
 92
        4
 93
        0
300

 40
0.0
140
1.0
 94
        5
 62
     0
340
13
144
0.18
309
CONTENTFORMAT_END
171
     1
301
MARGIN
  1
CELLMARGIN_BEGIN
 40
0.06
 40
0.06
 40
0.06
 40
0.06
 40
0.18
 40
0.18
309
CELLMARGIN_END
 94
        6
 95
        1
302
GRIDFORMAT
  1
GRIDFORMAT_BEGIN
 90
        0
 91
        1
 62
     0
 92
       -2
340
0
 93
        0
 40
0.045
309
GRIDFORMAT_END
 95
        2
302
GRIDFORMAT
  1
GRIDFORMAT_BEGIN
 90
        0
 91
        1
 62
     0
 92
       -2
340
0
 93
        0
 40
0.045
309
GRIDFORMAT_END
 95
        4
302
GRIDFORMAT
  1
GRIDFORMAT_BEGIN
 90
        0
 91
        1
 62
     0
 92
       -2
340
0
 93
        0
 40
0.045
309
GRIDFORMAT_END
 95
        8
302
GRIDFORMAT
  1
GRIDFORMAT_BEGIN
 90
        0
 91
        1
 62
     0
 92
       -2
340
0
 93
        0
 40
0.045
309
GRIDFORMAT_END
 95
       16
302
GRIDFORMAT
  1
GRIDFORMAT_BEGIN
 90
        0
 91
        1
 62
     0
 92
       -2
340
0
 93
        0
 40
0.045
309
GRIDFORMAT_END
 95
       32
302
GRIDFORMAT
  1
GRIDFORMAT_BEGIN
 90
        0
 91
        1
 62
     0
 92
       -2
340
0
 93
        0
 40
0.045
309
GRIDFORMAT_END
309
TABLEFORMAT_END
  1
CELLSTYLE_BEGIN
 90
        2
 91
        1
300
_HEADER
309
CELLSTYLE_END
300
CELLSTYLE
  1
TABLEFORMAT_BEGIN
 90
        5
170
     1
 91
        0
 92
        0
 62
   257
 93
        1
300
CONTENTFORMAT
  1
CONTENTFORMAT_BEGIN
 90
        0
 91
        0
 92
        4
 93
        0
300

 40
0.0
140
1.0
 94
        2
 62
     0
340
13
144
0.18
309
CONTENTFORMAT_END
171
     1
301
MARGIN
  1
CELLMARGIN_BEGIN
 40
0.06
 40
0.06
 40
0.06
 40
0.06
 40
0.18
 40
0.18
309
CELLMARGIN_END
 94
        6
 95
        1
302
GRIDFORMAT
  1
GRIDFORMAT_BEGIN
 90
        0
 91
        1
 62
     0
 92
       -2
340
0
 93
        0
 40
0.045
309
GRIDFORMAT_END
 95
        2
302
GRIDFORMAT
  1
GRIDFORMAT_BEGIN
 90
        0
 91
        1
 62
     0
 92
       -2
340
0
 93
        0
 40
0.045
309
GRIDFORMAT_END
 95
        4
302
GRIDFORMAT
  1
GRIDFORMAT_BEGIN
 90
        0
 91
        1
 62
     0
 92
       -2
340
0
 93
        0
 40
0.045
309
GRIDFORMAT_END
 95
        8
302
GRIDFORMAT
  1
GRIDFORMAT_BEGIN
 90
        0
 91
        1
 62
     0
 92
       -2
340
0
 93
        0
 40
0.045
309
GRIDFORMAT_END
 95
       16
302
GRIDFORMAT
  1
GRIDFORMAT_BEGIN
 90
        0
 91
        1
 62
     0
 92
       -2
340
0
 93
        0
 40
0.045
309
GRIDFORMAT_END
 95
       32
302
GRIDFORMAT
  1
GRIDFORMAT_BEGIN
 90
        0
 91
        1
 62
     0
 92
       -2
340
0
 93
        0
 40
0.045
309
GRIDFORMAT_END
309
TABLEFORMAT_END
  1
CELLSTYLE_BEGIN
 90
        3
 91
        2
300
_DATA
309
CELLSTYLE_END
  0
XRECORD
  5
37E21
102
{ACAD_REACTORS
330
37DC1
102
}
330
37DC1
100
AcDbXrecord
280
     1
102
ACAD_ROUNDTRIP_PRE2007_TABLESTYLE
 90
        4
 91
        0
  1

 92
        4
 93
        0
  2

 94
        4
 95
        0
  3

  0
XRECORD
  5
37E2D
102
{ACAD_REACTORS
330
37E2C
102
}
330
37E2C
100
AcDbXrecord
280
     1
102
RTVSPropertyOp0
 70
     1
102
RTVSPropertyOp1
 70
     1
102
RTVSPropertyOp2
 70
     1
102
RTVSPropertyOp3
 70
     1
102
RTVSPropertyOp4
 70
     1
102
RTVSPropertyOp5
 70
     1
102
RTVSPropertyOp6
 70
     1
102
RTVSPropertyOp7
 70
     1
102
RTVSPropertyOp8
 70
     1
102
RTVSPropertyOp9
 70
     1
102
RTVSPropertyOp10
 70
     1
102
RTVSPropertyOp11
 70
     1
102
RTVSPropertyOp12
 70
     1
102
RTVSPropertyOp13
 70
     1
102
RTVSPropertyOp14
 70
     1
102
RTVSPropertyOp15
 70
     1
102
RTVSPropertyOp16
 70
     1
102
RTVSPropertyOp17
 70
     1
102
RTVSPropertyOp18
 70
     1
102
RTVSPropertyOp19
 70
     1
102
RTVSPropertyOp20
 70
     1
102
RTVSPropertyOp21
 70
     1
102
RTVSPropertyOp22
 70
     1
102
RTVSPropertyOp23
 70
     1
102
RTVSPropertyOp24
 70
     1
102
RTVSPropertyOp25
 70
     1
102
RTVSPropertyOp26
 70
     1
102
RTVSPropertyOp27
 70
     1
102
RTVSPropertyOp28
 70
     1
102
RTVSPropertyOp29
 70
     1
102
RTVSPropertyOp30
 70
     1
102
RTVSPropertyOp31
 70
     1
102
RTVSPropertyOp32
 70
     1
  0
XRECORD
  5
37E43
102
{ACAD_REACTORS
330
37E42
102
}
330
37E42
100
AcDbXrecord
280
     1
102
RTVSPropertyOp0
 70
     1
102
RTVSPropertyOp1
 70
     1
102
RTVSPropertyOp2
 70
     1
102
RTVSPropertyOp3
 70
     1
102
RTVSPropertyOp4
 70
     1
102
RTVSPropertyOp5
 70
     1
102
RTVSPropertyOp6
 70
     1
102
RTVSPropertyOp7
 70
     1
102
RTVSPropertyOp8
 70
     1
102
RTVSPropertyOp9
 70
     1
102
RTVSPropertyOp10
 70
     1
102
RTVSPropertyOp11
 70
     1
102
RTVSPropertyOp12
 70
     1
102
RTVSPropertyOp13
 70
     1
102
RTVSPropertyOp14
 70
     1
102
RTVSPropertyOp15
 70
     1
102
RTVSPropertyOp16
 70
     1
102
RTVSPropertyOp17
 70
     1
102
RTVSPropertyOp18
 70
     1
102
RTVSPropertyOp19
 70
     1
102
RTVSPropertyOp20
 70
     1
102
RTVSPropertyOp21
 70
     1
102
RTVSPropertyOp22
 70
     1
102
RTVSPropertyOp23
 70
     1
102
RTVSPropertyOp24
 70
     1
102
RTVSPropertyOp25
 70
     1
102
RTVSPropertyOp26
 70
     1
102
RTVSPropertyOp27
 70
     1
102
RTVSPropertyOp28
 70
     1
102
RTVSPropertyOp29
 70
     1
102
RTVSPropertyOp30
 70
     1
102
RTVSPropertyOp31
 70
     1
102
RTVSPropertyOp32
 70
     1
  0
XRECORD
  5
37E45
102
{ACAD_REACTORS
330
37E44
102
}
330
37E44
100
AcDbXrecord
280
     1
102
RTVSPropertyOp0
 70
     1
102
RTVSPropertyOp1
 70
     1
102
RTVSPropertyOp2
 70
     1
102
RTVSPropertyOp3
 70
     1
102
RTVSPropertyOp4
 70
     1
102
RTVSPropertyOp5
 70
     1
102
RTVSPropertyOp6
 70
     1
102
RTVSPropertyOp7
 70
     1
102
RTVSPropertyOp8
 70
     1
102
RTVSPropertyOp9
 70
     1
102
RTVSPropertyOp10
 70
     1
102
RTVSPropertyOp11
 70
     1
102
RTVSPropertyOp12
 70
     1
102
RTVSPropertyOp13
 70
     1
102
RTVSPropertyOp14
 70
     1
102
RTVSPropertyOp15
 70
     1
102
RTVSPropertyOp16
 70
     1
102
RTVSPropertyOp17
 70
     1
102
RTVSPropertyOp18
 70
     1
102
RTVSPropertyOp19
 70
     1
102
RTVSPropertyOp20
 70
     1
102
RTVSPropertyOp21
 70
     1
102
RTVSPropertyOp22
 70
     1
102
RTVSPropertyOp23
 70
     1
102
RTVSPropertyOp24
 70
     1
102
RTVSPropertyOp25
 70
     1
102
RTVSPropertyOp26
 70
     1
102
RTVSPropertyOp27
 70
     1
102
RTVSPropertyOp28
 70
     1
102
RTVSPropertyOp29
 70
     1
102
RTVSPropertyOp30
 70
     1
102
RTVSPropertyOp31
 70
     1
102
RTVSPropertyOp32
 70
     1
  0
XRECORD
  5
37E2B
102
{ACAD_REACTORS
330
37E2A
102
}
330
37E2A
100
AcDbXrecord
280
     1
102
RTVSPropertyOp0
 70
     1
102
RTVSPropertyOp1
 70
     1
102
RTVSPropertyOp2
 70
     1
102
RTVSPropertyOp3
 70
     1
102
RTVSPropertyOp4
 70
     1
102
RTVSPropertyOp5
 70
     1
102
RTVSPropertyOp6
 70
     1
102
RTVSPropertyOp7
 70
     1
102
RTVSPropertyOp8
 70
     1
102
RTVSPropertyOp9
 70
     1
102
RTVSPropertyOp10
 70
     1
102
RTVSPropertyOp11
 70
     1
102
RTVSPropertyOp12
 70
     1
102
RTVSPropertyOp13
 70
     1
102
RTVSPropertyOp14
 70
     1
102
RTVSPropertyOp15
 70
     1
102
RTVSPropertyOp16
 70
     1
102
RTVSPropertyOp17
 70
     1
102
RTVSPropertyOp18
 70
     1
102
RTVSPropertyOp19
 70
     1
102
RTVSPropertyOp20
 70
     1
102
RTVSPropertyOp21
 70
     1
102
RTVSPropertyOp22
 70
     1
102
RTVSPropertyOp23
 70
     1
102
RTVSPropertyOp24
 70
     1
102
RTVSPropertyOp25
 70
     1
102
RTVSPropertyOp26
 70
     1
102
RTVSPropertyOp27
 70
     1
102
RTVSPropertyOp28
 70
     1
102
RTVSPropertyOp29
 70
     1
102
RTVSPropertyOp30
 70
     1
102
RTVSPropertyOp31
 70
     1
102
RTVSPropertyOp32
 70
     1
  0
XRECORD
  5
37E31
102
{ACAD_REACTORS
330
37E30
102
}
330
37E30
100
AcDbXrecord
280
     1
102
RTVSPropertyOp0
 70
     1
102
RTVSPropertyOp1
 70
     1
102
RTVSPropertyOp2
 70
     1
102
RTVSPropertyOp3
 70
     1
102
RTVSPropertyOp4
 70
     1
102
RTVSPropertyOp5
 70
     1
102
RTVSPropertyOp6
 70
     1
102
RTVSPropertyOp7
 70
     1
102
RTVSPropertyOp8
 70
     1
102
RTVSPropertyOp9
 70
     1
102
RTVSPropertyOp10
 70
     1
102
RTVSPropertyOp11
 70
     1
102
RTVSPropertyOp12
 70
     1
102
RTVSPropertyOp13
 70
     1
102
RTVSPropertyOp14
 70
     1
102
RTVSPropertyOp15
 70
     1
102
RTVSPropertyOp16
 70
     1
102
RTVSPropertyOp17
 70
     1
102
RTVSPropertyOp18
 70
     1
102
RTVSPropertyOp19
 70
     1
102
RTVSPropertyOp20
 70
     1
102
RTVSPropertyOp21
 70
     1
102
RTVSPropertyOp22
 70
     1
102
RTVSPropertyOp23
 70
     1
102
RTVSPropertyOp24
 70
     1
102
RTVSPropertyOp25
 70
     1
102
RTVSPropertyOp26
 70
     1
102
RTVSPropertyOp27
 70
     1
102
RTVSPropertyOp28
 70
     1
102
RTVSPropertyOp29
 70
     1
102
RTVSPropertyOp30
 70
     1
102
RTVSPropertyOp31
 70
     1
102
RTVSPropertyOp32
 70
     1
  0
XRECORD
  5
37E39
102
{ACAD_REACTORS
330
37E38
102
}
330
37E38
100
AcDbXrecord
280
     1
102
RTVSPropertyOp0
 70
     1
102
RTVSPropertyOp1
 70
     1
102
RTVSPropertyOp2
 70
     1
102
RTVSPropertyOp3
 70
     1
102
RTVSPropertyOp4
 70
     1
102
RTVSPropertyOp5
 70
     1
102
RTVSPropertyOp6
 70
     1
102
RTVSPropertyOp7
 70
     1
102
RTVSPropertyOp8
 70
     1
102
RTVSPropertyOp9
 70
     1
102
RTVSPropertyOp10
 70
     1
102
RTVSPropertyOp11
 70
     1
102
RTVSPropertyOp12
 70
     1
102
RTVSPropertyOp13
 70
     1
102
RTVSPropertyOp14
 70
     1
102
RTVSPropertyOp15
 70
     1
102
RTVSPropertyOp16
 70
     1
102
RTVSPropertyOp17
 70
     1
102
RTVSPropertyOp18
 70
     1
102
RTVSPropertyOp19
 70
     1
102
RTVSPropertyOp20
 70
     1
102
RTVSPropertyOp21
 70
     1
102
RTVSPropertyOp22
 70
     1
102
RTVSPropertyOp23
 70
     1
102
RTVSPropertyOp24
 70
     1
102
RTVSPropertyOp25
 70
     1
102
RTVSPropertyOp26
 70
     1
102
RTVSPropertyOp27
 70
     1
102
RTVSPropertyOp28
 70
     1
102
RTVSPropertyOp29
 70
     1
102
RTVSPropertyOp30
 70
     1
102
RTVSPropertyOp31
 70
     1
102
RTVSPropertyOp32
 70
     1
  0
XRECORD
  5
37E47
102
{ACAD_REACTORS
330
37E46
102
}
330
37E46
100
AcDbXrecord
280
     1
102
RTVSPropertyOp0
 70
     1
102
RTVSPropertyOp1
 70
     1
102
RTVSPropertyOp2
 70
     1
102
RTVSPropertyOp3
 70
     1
102
RTVSPropertyOp4
 70
     1
102
RTVSPropertyOp5
 70
     1
102
RTVSPropertyOp6
 70
     1
102
RTVSPropertyOp7
 70
     1
102
RTVSPropertyOp8
 70
     1
102
RTVSPropertyOp9
 70
     1
102
RTVSPropertyOp10
 70
     1
102
RTVSPropertyOp11
 70
     1
102
RTVSPropertyOp12
 70
     1
102
RTVSPropertyOp13
 70
     1
102
RTVSPropertyOp14
 70
     1
102
RTVSPropertyOp15
 70
     1
102
RTVSPropertyOp16
 70
     1
102
RTVSPropertyOp17
 70
     1
102
RTVSPropertyOp18
 70
     1
102
RTVSPropertyOp19
 70
     1
102
RTVSPropertyOp20
 70
     1
102
RTVSPropertyOp21
 70
     1
102
RTVSPropertyOp22
 70
     1
102
RTVSPropertyOp23
 70
     1
102
RTVSPropertyOp24
 70
     1
102
RTVSPropertyOp25
 70
     1
102
RTVSPropertyOp26
 70
     1
102
RTVSPropertyOp27
 70
     1
102
RTVSPropertyOp28
 70
     1
102
RTVSPropertyOp29
 70
     1
102
RTVSPropertyOp30
 70
     1
102
RTVSPropertyOp31
 70
     1
102
RTVSPropertyOp32
 70
     1
  0
XRECORD
  5
37E2F
102
{ACAD_REACTORS
330
37E2E
102
}
330
37E2E
100
AcDbXrecord
280
     1
102
RTVSPropertyOp0
 70
     1
102
RTVSPropertyOp1
 70
     1
102
RTVSPropertyOp2
 70
     1
102
RTVSPropertyOp3
 70
     1
102
RTVSPropertyOp4
 70
     1
102
RTVSPropertyOp5
 70
     1
102
RTVSPropertyOp6
 70
     1
102
RTVSPropertyOp7
 70
     1
102
RTVSPropertyOp8
 70
     1
102
RTVSPropertyOp9
 70
     1
102
RTVSPropertyOp10
 70
     1
102
RTVSPropertyOp11
 70
     1
102
RTVSPropertyOp12
 70
     1
102
RTVSPropertyOp13
 70
     1
102
RTVSPropertyOp14
 70
     1
102
RTVSPropertyOp15
 70
     1
102
RTVSPropertyOp16
 70
     1
102
RTVSPropertyOp17
 70
     1
102
RTVSPropertyOp18
 70
     1
102
RTVSPropertyOp19
 70
     1
102
RTVSPropertyOp20
 70
     1
102
RTVSPropertyOp21
 70
     1
102
RTVSPropertyOp22
 70
     1
102
RTVSPropertyOp23
 70
     1
102
RTVSPropertyOp24
 70
     1
102
RTVSPropertyOp25
 70
     1
102
RTVSPropertyOp26
 70
     1
102
RTVSPropertyOp27
 70
     1
102
RTVSPropertyOp28
 70
     1
102
RTVSPropertyOp29
 70
     1
102
RTVSPropertyOp30
 70
     1
102
RTVSPropertyOp31
 70
     1
102
RTVSPropertyOp32
 70
     1
  0
XRECORD
  5
37E5D
102
{ACAD_REACTORS
330
37E5C
102
}
330
37E5C
100
AcDbXrecord
280
     1
102
RTVSPropertyOp0
 70
     0
102
RTVSPropertyOp1
 70
     0
102
RTVSPropertyOp2
 70
     0
102
RTVSPropertyOp3
 70
     0
102
RTVSPropertyOp4
 70
     0
102
RTVSPropertyOp5
 70
     0
102
RTVSPropertyOp6
 70
     0
102
RTVSPropertyOp7
 70
     0
102
RTVSPropertyOp8
 70
     0
102
RTVSPropertyOp9
 70
     0
102
RTVSPropertyOp10
 70
     0
102
RTVSPropertyOp11
 70
     0
102
RTVSPropertyOp12
 70
     0
102
RTVSPropertyOp13
 70
     0
102
RTVSPropertyOp14
 70
     2
102
RTVSPropertyOp15
 70
     0
102
RTVSPropertyOp16
 70
     0
102
RTVSPropertyOp17
 70
     0
102
RTVSPropertyOp18
 70
     0
102
RTVSPropertyOp19
 70
     0
102
RTVSPropertyOp20
 70
     0
102
RTVSPropertyOp21
 70
     0
102
RTVSPropertyOp22
 70
     0
102
RTVSPropertyOp23
 70
     0
102
RTVSPropertyOp24
 70
     0
102
RTVSPropertyOp25
 70
     0
102
RTVSPropertyOp26
 70
     0
102
RTVSPropertyOp27
 70
     0
102
RTVSPropertyOp28
 70
     1
102
RTVSPropertyOp29
 70
     1
102
RTVSPropertyOp30
 70
     1
102
RTVSPropertyOp31
 70
     1
102
RTVSPropertyOp32
 70
     1
  0
XRECORD
  5
37E37
102
{ACAD_REACTORS
330
37E36
102
}
330
37E36
100
AcDbXrecord
280
     1
102
RTVSPropertyOp0
 70
     1
102
RTVSPropertyOp1
 70
     1
102
RTVSPropertyOp2
 70
     1
102
RTVSPropertyOp3
 70
     1
102
RTVSPropertyOp4
 70
     1
102
RTVSPropertyOp5
 70
     1
102
RTVSPropertyOp6
 70
     1
102
RTVSPropertyOp7
 70
     1
102
RTVSPropertyOp8
 70
     1
102
RTVSPropertyOp9
 70
     1
102
RTVSPropertyOp10
 70
     1
102
RTVSPropertyOp11
 70
     1
102
RTVSPropertyOp12
 70
     1
102
RTVSPropertyOp13
 70
     1
102
RTVSPropertyOp14
 70
     1
102
RTVSPropertyOp15
 70
     1
102
RTVSPropertyOp16
 70
     1
102
RTVSPropertyOp17
 70
     1
102
RTVSPropertyOp18
 70
     1
102
RTVSPropertyOp19
 70
     1
102
RTVSPropertyOp20
 70
     1
102
RTVSPropertyOp21
 70
     1
102
RTVSPropertyOp22
 70
     1
102
RTVSPropertyOp23
 70
     1
102
RTVSPropertyOp24
 70
     1
102
RTVSPropertyOp25
 70
     1
102
RTVSPropertyOp26
 70
     1
102
RTVSPropertyOp27
 70
     1
102
RTVSPropertyOp28
 70
     1
102
RTVSPropertyOp29
 70
     1
102
RTVSPropertyOp30
 70
     1
102
RTVSPropertyOp31
 70
     1
102
RTVSPropertyOp32
 70
     1
  0
XRECORD
  5
37E23
102
{ACAD_REACTORS
330
37E22
102
}
330
37E22
100
AcDbXrecord
280
     1
102
RTVSPropertyOp0
 70
     1
102
RTVSPropertyOp1
 70
     1
102
RTVSPropertyOp2
 70
     1
102
RTVSPropertyOp3
 70
     1
102
RTVSPropertyOp4
 70
     1
102
RTVSPropertyOp5
 70
     1
102
RTVSPropertyOp6
 70
     1
102
RTVSPropertyOp7
 70
     1
102
RTVSPropertyOp8
 70
     1
102
RTVSPropertyOp9
 70
     1
102
RTVSPropertyOp10
 70
     1
102
RTVSPropertyOp11
 70
     1
102
RTVSPropertyOp12
 70
     1
102
RTVSPropertyOp13
 70
     1
102
RTVSPropertyOp14
 70
     1
102
RTVSPropertyOp15
 70
     1
102
RTVSPropertyOp16
 70
     1
102
RTVSPropertyOp17
 70
     1
102
RTVSPropertyOp18
 70
     1
102
RTVSPropertyOp19
 70
     1
102
RTVSPropertyOp20
 70
     1
102
RTVSPropertyOp21
 70
     1
102
RTVSPropertyOp22
 70
     1
102
RTVSPropertyOp23
 70
     1
102
RTVSPropertyOp24
 70
     1
102
RTVSPropertyOp25
 70
     1
102
RTVSPropertyOp26
 70
     1
102
RTVSPropertyOp27
 70
     1
102
RTVSPropertyOp28
 70
     1
102
RTVSPropertyOp29
 70
     1
102
RTVSPropertyOp30
 70
     1
102
RTVSPropertyOp31
 70
     1
102
RTVSPropertyOp32
 70
     1
  0
XRECORD
  5
37E25
102
{ACAD_REACTORS
330
37E24
102
}
330
37E24
100
AcDbXrecord
280
     1
102
RTVSPropertyOp0
 70
     1
102
RTVSPropertyOp1
 70
     1
102
RTVSPropertyOp2
 70
     1
102
RTVSPropertyOp3
 70
     1
102
RTVSPropertyOp4
 70
     1
102
RTVSPropertyOp5
 70
     1
102
RTVSPropertyOp6
 70
     1
102
RTVSPropertyOp7
 70
     1
102
RTVSPropertyOp8
 70
     1
102
RTVSPropertyOp9
 70
     1
102
RTVSPropertyOp10
 70
     1
102
RTVSPropertyOp11
 70
     1
102
RTVSPropertyOp12
 70
     1
102
RTVSPropertyOp13
 70
     1
102
RTVSPropertyOp14
 70
     1
102
RTVSPropertyOp15
 70
     1
102
RTVSPropertyOp16
 70
     1
102
RTVSPropertyOp17
 70
     1
102
RTVSPropertyOp18
 70
     1
102
RTVSPropertyOp19
 70
     1
102
RTVSPropertyOp20
 70
     1
102
RTVSPropertyOp21
 70
     1
102
RTVSPropertyOp22
 70
     1
102
RTVSPropertyOp23
 70
     1
102
RTVSPropertyOp24
 70
     1
102
RTVSPropertyOp25
 70
     1
102
RTVSPropertyOp26
 70
     1
102
RTVSPropertyOp27
 70
     1
102
RTVSPropertyOp28
 70
     1
102
RTVSPropertyOp29
 70
     1
102
RTVSPropertyOp30
 70
     1
102
RTVSPropertyOp31
 70
     1
102
RTVSPropertyOp32
 70
     1
  0
XRECORD
  5
37E27
102
{ACAD_REACTORS
330
37E26
102
}
330
37E26
100
AcDbXrecord
280
     1
102
RTVSPropertyOp0
 70
     1
102
RTVSPropertyOp1
 70
     1
102
RTVSPropertyOp2
 70
     1
102
RTVSPropertyOp3
 70
     1
102
RTVSPropertyOp4
 70
     1
102
RTVSPropertyOp5
 70
     1
102
RTVSPropertyOp6
 70
     1
102
RTVSPropertyOp7
 70
     1
102
RTVSPropertyOp8
 70
     1
102
RTVSPropertyOp9
 70
     1
102
RTVSPropertyOp10
 70
     1
102
RTVSPropertyOp11
 70
     1
102
RTVSPropertyOp12
 70
     1
102
RTVSPropertyOp13
 70
     1
102
RTVSPropertyOp14
 70
     1
102
RTVSPropertyOp15
 70
     1
102
RTVSPropertyOp16
 70
     1
102
RTVSPropertyOp17
 70
     1
102
RTVSPropertyOp18
 70
     1
102
RTVSPropertyOp19
 70
     1
102
RTVSPropertyOp20
 70
     1
102
RTVSPropertyOp21
 70
     1
102
RTVSPropertyOp22
 70
     1
102
RTVSPropertyOp23
 70
     1
102
RTVSPropertyOp24
 70
     1
102
RTVSPropertyOp25
 70
     1
102
RTVSPropertyOp26
 70
     1
102
RTVSPropertyOp27
 70
     1
102
RTVSPropertyOp28
 70
     1
102
RTVSPropertyOp29
 70
     1
102
RTVSPropertyOp30
 70
     1
102
RTVSPropertyOp31
 70
     1
102
RTVSPropertyOp32
 70
     1
  0
XRECORD
  5
37E29
102
{ACAD_REACTORS
330
37E28
102
}
330
37E28
100
AcDbXrecord
280
     1
102
RTVSPropertyOp0
 70
     1
102
RTVSPropertyOp1
 70
     1
102
RTVSPropertyOp2
 70
     1
102
RTVSPropertyOp3
 70
     1
102
RTVSPropertyOp4
 70
     1
102
RTVSPropertyOp5
 70
     1
102
RTVSPropertyOp6
 70
     1
102
RTVSPropertyOp7
 70
     1
102
RTVSPropertyOp8
 70
     1
102
RTVSPropertyOp9
 70
     1
102
RTVSPropertyOp10
 70
     1
102
RTVSPropertyOp11
 70
     1
102
RTVSPropertyOp12
 70
     1
102
RTVSPropertyOp13
 70
     1
102
RTVSPropertyOp14
 70
     1
102
RTVSPropertyOp15
 70
     1
102
RTVSPropertyOp16
 70
     1
102
RTVSPropertyOp17
 70
     1
102
RTVSPropertyOp18
 70
     1
102
RTVSPropertyOp19
 70
     1
102
RTVSPropertyOp20
 70
     1
102
RTVSPropertyOp21
 70
     1
102
RTVSPropertyOp22
 70
     1
102
RTVSPropertyOp23
 70
     1
102
RTVSPropertyOp24
 70
     1
102
RTVSPropertyOp25
 70
     1
102
RTVSPropertyOp26
 70
     1
102
RTVSPropertyOp27
 70
     1
102
RTVSPropertyOp28
 70
     1
102
RTVSPropertyOp29
 70
     1
102
RTVSPropertyOp30
 70
     1
102
RTVSPropertyOp31
 70
     1
102
RTVSPropertyOp32
 70
     1
  0
XRECORD
  5
37E4D
102
{ACAD_REACTORS
330
37E4C
102
}
330
37E4C
100
AcDbXrecord
280
     1
102
RTVSPropertyOp0
 70
     1
102
RTVSPropertyOp1
 70
     1
102
RTVSPropertyOp2
 70
     1
102
RTVSPropertyOp3
 70
     1
102
RTVSPropertyOp4
 70
     1
102
RTVSPropertyOp5
 70
     1
102
RTVSPropertyOp6
 70
     1
102
RTVSPropertyOp7
 70
     1
102
RTVSPropertyOp8
 70
     1
102
RTVSPropertyOp9
 70
     1
102
RTVSPropertyOp10
 70
     1
102
RTVSPropertyOp11
 70
     1
102
RTVSPropertyOp12
 70
     1
102
RTVSPropertyOp13
 70
     1
102
RTVSPropertyOp14
 70
     1
102
RTVSPropertyOp15
 70
     1
102
RTVSPropertyOp16
 70
     1
102
RTVSPropertyOp17
 70
     1
102
RTVSPropertyOp18
 70
     1
102
RTVSPropertyOp19
 70
     1
102
RTVSPropertyOp20
 70
     1
102
RTVSPropertyOp21
 70
     1
102
RTVSPropertyOp22
 70
     1
102
RTVSPropertyOp23
 70
     1
102
RTVSPropertyOp24
 70
     1
102
RTVSPropertyOp25
 70
     1
102
RTVSPropertyOp26
 70
     1
102
RTVSPropertyOp27
 70
     1
102
RTVSPropertyOp28
 70
     1
102
RTVSPropertyOp29
 70
     1
102
RTVSPropertyOp30
 70
     1
102
RTVSPropertyOp31
 70
     1
102
RTVSPropertyOp32
 70
     1
  0
XRECORD
  5
37E59
102
{ACAD_REACTORS
330
37E58
102
}
330
37E58
100
AcDbXrecord
280
     1
102
RTVSPropertyOp0
 70
     0
102
RTVSPropertyOp1
 70
     0
102
RTVSPropertyOp2
 70
     0
102
RTVSPropertyOp3
 70
     0
102
RTVSPropertyOp4
 70
     0
102
RTVSPropertyOp5
 70
     0
102
RTVSPropertyOp6
 70
     0
102
RTVSPropertyOp7
 70
     0
102
RTVSPropertyOp8
 70
     0
102
RTVSPropertyOp9
 70
     0
102
RTVSPropertyOp10
 70
     0
102
RTVSPropertyOp11
 70
     0
102
RTVSPropertyOp12
 70
     0
102
RTVSPropertyOp13
 70
     0
102
RTVSPropertyOp14
 70
     2
102
RTVSPropertyOp15
 70
     0
102
RTVSPropertyOp16
 70
     0
102
RTVSPropertyOp17
 70
     0
102
RTVSPropertyOp18
 70
     0
102
RTVSPropertyOp19
 70
     0
102
RTVSPropertyOp20
 70
     0
102
RTVSPropertyOp21
 70
     0
102
RTVSPropertyOp22
 70
     0
102
RTVSPropertyOp23
 70
     0
102
RTVSPropertyOp24
 70
     0
102
RTVSPropertyOp25
 70
     0
102
RTVSPropertyOp26
 70
     0
102
RTVSPropertyOp27
 70
     0
102
RTVSPropertyOp28
 70
     1
102
RTVSPropertyOp29
 70
     1
102
RTVSPropertyOp30
 70
     1
102
RTVSPropertyOp31
 70
     1
102
RTVSPropertyOp32
 70
     1
  0
XRECORD
  5
37E35
102
{ACAD_REACTORS
330
37E34
102
}
330
37E34
100
AcDbXrecord
280
     1
102
RTVSPropertyOp0
 70
     1
102
RTVSPropertyOp1
 70
     1
102
RTVSPropertyOp2
 70
     1
102
RTVSPropertyOp3
 70
     1
102
RTVSPropertyOp4
 70
     1
102
RTVSPropertyOp5
 70
     1
102
RTVSPropertyOp6
 70
     1
102
RTVSPropertyOp7
 70
     1
102
RTVSPropertyOp8
 70
     1
102
RTVSPropertyOp9
 70
     1
102
RTVSPropertyOp10
 70
     1
102
RTVSPropertyOp11
 70
     1
102
RTVSPropertyOp12
 70
     1
102
RTVSPropertyOp13
 70
     1
102
RTVSPropertyOp14
 70
     1
102
RTVSPropertyOp15
 70
     1
102
RTVSPropertyOp16
 70
     1
102
RTVSPropertyOp17
 70
     1
102
RTVSPropertyOp18
 70
     1
102
RTVSPropertyOp19
 70
     1
102
RTVSPropertyOp20
 70
     1
102
RTVSPropertyOp21
 70
     1
102
RTVSPropertyOp22
 70
     1
102
RTVSPropertyOp23
 70
     1
102
RTVSPropertyOp24
 70
     1
102
RTVSPropertyOp25
 70
     1
102
RTVSPropertyOp26
 70
     1
102
RTVSPropertyOp27
 70
     1
102
RTVSPropertyOp28
 70
     1
102
RTVSPropertyOp29
 70
     1
102
RTVSPropertyOp30
 70
     1
102
RTVSPropertyOp31
 70
     1
102
RTVSPropertyOp32
 70
     1
  0
XRECORD
  5
37E5B
102
{ACAD_REACTORS
330
37E5A
102
}
330
37E5A
100
AcDbXrecord
280
     1
102
RTVSPropertyOp0
 70
     0
102
RTVSPropertyOp1
 70
     0
102
RTVSPropertyOp2
 70
     0
102
RTVSPropertyOp3
 70
     0
102
RTVSPropertyOp4
 70
     0
102
RTVSPropertyOp5
 70
     0
102
RTVSPropertyOp6
 70
     0
102
RTVSPropertyOp7
 70
     0
102
RTVSPropertyOp8
 70
     0
102
RTVSPropertyOp9
 70
     0
102
RTVSPropertyOp10
 70
     0
102
RTVSPropertyOp11
 70
     0
102
RTVSPropertyOp12
 70
     0
102
RTVSPropertyOp13
 70
     0
102
RTVSPropertyOp14
 70
     2
102
RTVSPropertyOp15
 70
     0
102
RTVSPropertyOp16
 70
     0
102
RTVSPropertyOp17
 70
     0
102
RTVSPropertyOp18
 70
     0
102
RTVSPropertyOp19
 70
     0
102
RTVSPropertyOp20
 70
     0
102
RTVSPropertyOp21
 70
     0
102
RTVSPropertyOp22
 70
     0
102
RTVSPropertyOp23
 70
     0
102
RTVSPropertyOp24
 70
     0
102
RTVSPropertyOp25
 70
     0
102
RTVSPropertyOp26
 70
     0
102
RTVSPropertyOp27
 70
     0
102
RTVSPropertyOp28
 70
     1
102
RTVSPropertyOp29
 70
     1
102
RTVSPropertyOp30
 70
     1
102
RTVSPropertyOp31
 70
     1
102
RTVSPropertyOp32
 70
     1
  0
XRECORD
  5
37E49
102
{ACAD_REACTORS
330
37E48
102
}
330
37E48
100
AcDbXrecord
280
     1
102
RTVSPropertyOp0
 70
     1
102
RTVSPropertyOp1
 70
     1
102
RTVSPropertyOp2
 70
     1
102
RTVSPropertyOp3
 70
     1
102
RTVSPropertyOp4
 70
     1
102
RTVSPropertyOp5
 70
     1
102
RTVSPropertyOp6
 70
     1
102
RTVSPropertyOp7
 70
     1
102
RTVSPropertyOp8
 70
     1
102
RTVSPropertyOp9
 70
     1
102
RTVSPropertyOp10
 70
     1
102
RTVSPropertyOp11
 70
     1
102
RTVSPropertyOp12
 70
     1
102
RTVSPropertyOp13
 70
     1
102
RTVSPropertyOp14
 70
     1
102
RTVSPropertyOp15
 70
     1
102
RTVSPropertyOp16
 70
     1
102
RTVSPropertyOp17
 70
     1
102
RTVSPropertyOp18
 70
     1
102
RTVSPropertyOp19
 70
     1
102
RTVSPropertyOp20
 70
     1
102
RTVSPropertyOp21
 70
     1
102
RTVSPropertyOp22
 70
     1
102
RTVSPropertyOp23
 70
     1
102
RTVSPropertyOp24
 70
     1
102
RTVSPropertyOp25
 70
     1
102
RTVSPropertyOp26
 70
     1
102
RTVSPropertyOp27
 70
     1
102
RTVSPropertyOp28
 70
     1
102
RTVSPropertyOp29
 70
     1
102
RTVSPropertyOp30
 70
     1
102
RTVSPropertyOp31
 70
     1
102
RTVSPropertyOp32
 70
     1
  0
XRECORD
  5
37E57
102
{ACAD_REACTORS
330
37E56
102
}
330
37E56
100
AcDbXrecord
280
     1
102
RTVSPropertyOp0
 70
     1
102
RTVSPropertyOp1
 70
     1
102
RTVSPropertyOp2
 70
     1
102
RTVSPropertyOp3
 70
     1
102
RTVSPropertyOp4
 70
     1
102
RTVSPropertyOp5
 70
     1
102
RTVSPropertyOp6
 70
     1
102
RTVSPropertyOp7
 70
     1
102
RTVSPropertyOp8
 70
     1
102
RTVSPropertyOp9
 70
     1
102
RTVSPropertyOp10
 70
     1
102
RTVSPropertyOp11
 70
     1
102
RTVSPropertyOp12
 70
     1
102
RTVSPropertyOp13
 70
     1
102
RTVSPropertyOp14
 70
     1
102
RTVSPropertyOp15
 70
     1
102
RTVSPropertyOp16
 70
     1
102
RTVSPropertyOp17
 70
     1
102
RTVSPropertyOp18
 70
     1
102
RTVSPropertyOp19
 70
     1
102
RTVSPropertyOp20
 70
     1
102
RTVSPropertyOp21
 70
     1
102
RTVSPropertyOp22
 70
     1
102
RTVSPropertyOp23
 70
     1
102
RTVSPropertyOp24
 70
     1
102
RTVSPropertyOp25
 70
     1
102
RTVSPropertyOp26
 70
     1
102
RTVSPropertyOp27
 70
     1
102
RTVSPropertyOp28
 70
     1
102
RTVSPropertyOp29
 70
     1
102
RTVSPropertyOp30
 70
     1
102
RTVSPropertyOp31
 70
     1
102
RTVSPropertyOp32
 70
     1
  0
XRECORD
  5
37E55
102
{ACAD_REACTORS
330
37E54
102
}
330
37E54
100
AcDbXrecord
280
     1
102
RTVSPropertyOp0
 70
     1
102
RTVSPropertyOp1
 70
     1
102
RTVSPropertyOp2
 70
     1
102
RTVSPropertyOp3
 70
     1
102
RTVSPropertyOp4
 70
     1
102
RTVSPropertyOp5
 70
     1
102
RTVSPropertyOp6
 70
     1
102
RTVSPropertyOp7
 70
     1
102
RTVSPropertyOp8
 70
     1
102
RTVSPropertyOp9
 70
     1
102
RTVSPropertyOp10
 70
     1
102
RTVSPropertyOp11
 70
     1
102
RTVSPropertyOp12
 70
     1
102
RTVSPropertyOp13
 70
     1
102
RTVSPropertyOp14
 70
     1
102
RTVSPropertyOp15
 70
     1
102
RTVSPropertyOp16
 70
     1
102
RTVSPropertyOp17
 70
     1
102
RTVSPropertyOp18
 70
     1
102
RTVSPropertyOp19
 70
     1
102
RTVSPropertyOp20
 70
     1
102
RTVSPropertyOp21
 70
     1
102
RTVSPropertyOp22
 70
     1
102
RTVSPropertyOp23
 70
     1
102
RTVSPropertyOp24
 70
     1
102
RTVSPropertyOp25
 70
     1
102
RTVSPropertyOp26
 70
     1
102
RTVSPropertyOp27
 70
     1
102
RTVSPropertyOp28
 70
     1
102
RTVSPropertyOp29
 70
     1
102
RTVSPropertyOp30
 70
     1
102
RTVSPropertyOp31
 70
     1
102
RTVSPropertyOp32
 70
     1
  0
XRECORD
  5
37E4F
102
{ACAD_REACTORS
330
37E4E
102
}
330
37E4E
100
AcDbXrecord
280
     1
102
RTVSPropertyOp0
 70
     1
102
RTVSPropertyOp1
 70
     1
102
RTVSPropertyOp2
 70
     1
102
RTVSPropertyOp3
 70
     1
102
RTVSPropertyOp4
 70
     1
102
RTVSPropertyOp5
 70
     1
102
RTVSPropertyOp6
 70
     1
102
RTVSPropertyOp7
 70
     1
102
RTVSPropertyOp8
 70
     1
102
RTVSPropertyOp9
 70
     1
102
RTVSPropertyOp10
 70
     1
102
RTVSPropertyOp11
 70
     1
102
RTVSPropertyOp12
 70
     1
102
RTVSPropertyOp13
 70
     1
102
RTVSPropertyOp14
 70
     1
102
RTVSPropertyOp15
 70
     1
102
RTVSPropertyOp16
 70
     1
102
RTVSPropertyOp17
 70
     1
102
RTVSPropertyOp18
 70
     1
102
RTVSPropertyOp19
 70
     1
102
RTVSPropertyOp20
 70
     1
102
RTVSPropertyOp21
 70
     1
102
RTVSPropertyOp22
 70
     1
102
RTVSPropertyOp23
 70
     1
102
RTVSPropertyOp24
 70
     1
102
RTVSPropertyOp25
 70
     1
102
RTVSPropertyOp26
 70
     1
102
RTVSPropertyOp27
 70
     1
102
RTVSPropertyOp28
 70
     1
102
RTVSPropertyOp29
 70
     1
102
RTVSPropertyOp30
 70
     1
102
RTVSPropertyOp31
 70
     1
102
RTVSPropertyOp32
 70
     1
  0
XRECORD
  5
37E51
102
{ACAD_REACTORS
330
37E50
102
}
330
37E50
100
AcDbXrecord
280
     1
102
RTVSPropertyOp0
 70
     1
102
RTVSPropertyOp1
 70
     1
102
RTVSPropertyOp2
 70
     1
102
RTVSPropertyOp3
 70
     1
102
RTVSPropertyOp4
 70
     1
102
RTVSPropertyOp5
 70
     1
102
RTVSPropertyOp6
 70
     1
102
RTVSPropertyOp7
 70
     1
102
RTVSPropertyOp8
 70
     1
102
RTVSPropertyOp9
 70
     1
102
RTVSPropertyOp10
 70
     1
102
RTVSPropertyOp11
 70
     1
102
RTVSPropertyOp12
 70
     1
102
RTVSPropertyOp13
 70
     1
102
RTVSPropertyOp14
 70
     1
102
RTVSPropertyOp15
 70
     1
102
RTVSPropertyOp16
 70
     1
102
RTVSPropertyOp17
 70
     1
102
RTVSPropertyOp18
 70
     1
102
RTVSPropertyOp19
 70
     1
102
RTVSPropertyOp20
 70
     1
102
RTVSPropertyOp21
 70
     1
102
RTVSPropertyOp22
 70
     1
102
RTVSPropertyOp23
 70
     1
102
RTVSPropertyOp24
 70
     1
102
RTVSPropertyOp25
 70
     1
102
RTVSPropertyOp26
 70
     1
102
RTVSPropertyOp27
 70
     1
102
RTVSPropertyOp28
 70
     1
102
RTVSPropertyOp29
 70
     1
102
RTVSPropertyOp30
 70
     1
102
RTVSPropertyOp31
 70
     1
102
RTVSPropertyOp32
 70
     1
  0
XRECORD
  5
37E33
102
{ACAD_REACTORS
330
37E32
102
}
330
37E32
100
AcDbXrecord
280
     1
102
RTVSPropertyOp0
 70
     1
102
RTVSPropertyOp1
 70
     1
102
RTVSPropertyOp2
 70
     1
102
RTVSPropertyOp3
 70
     1
102
RTVSPropertyOp4
 70
     1
102
RTVSPropertyOp5
 70
     1
102
RTVSPropertyOp6
 70
     1
102
RTVSPropertyOp7
 70
     1
102
RTVSPropertyOp8
 70
     1
102
RTVSPropertyOp9
 70
     1
102
RTVSPropertyOp10
 70
     1
102
RTVSPropertyOp11
 70
     1
102
RTVSPropertyOp12
 70
     1
102
RTVSPropertyOp13
 70
     1
102
RTVSPropertyOp14
 70
     1
102
RTVSPropertyOp15
 70
     1
102
RTVSPropertyOp16
 70
     1
102
RTVSPropertyOp17
 70
     1
102
RTVSPropertyOp18
 70
     1
102
RTVSPropertyOp19
 70
     1
102
RTVSPropertyOp20
 70
     1
102
RTVSPropertyOp21
 70
     1
102
RTVSPropertyOp22
 70
     1
102
RTVSPropertyOp23
 70
     1
102
RTVSPropertyOp24
 70
     1
102
RTVSPropertyOp25
 70
     1
102
RTVSPropertyOp26
 70
     1
102
RTVSPropertyOp27
 70
     1
102
RTVSPropertyOp28
 70
     1
102
RTVSPropertyOp29
 70
     1
102
RTVSPropertyOp30
 70
     1
102
RTVSPropertyOp31
 70
     1
102
RTVSPropertyOp32
 70
     1
  0
XRECORD
  5
37E4B
102
{ACAD_REACTORS
330
37E4A
102
}
330
37E4A
100
AcDbXrecord
280
     1
102
RTVSPropertyOp0
 70
     1
102
RTVSPropertyOp1
 70
     1
102
RTVSPropertyOp2
 70
     1
102
RTVSPropertyOp3
 70
     1
102
RTVSPropertyOp4
 70
     1
102
RTVSPropertyOp5
 70
     1
102
RTVSPropertyOp6
 70
     1
102
RTVSPropertyOp7
 70
     1
102
RTVSPropertyOp8
 70
     1
102
RTVSPropertyOp9
 70
     1
102
RTVSPropertyOp10
 70
     1
102
RTVSPropertyOp11
 70
     1
102
RTVSPropertyOp12
 70
     1
102
RTVSPropertyOp13
 70
     1
102
RTVSPropertyOp14
 70
     1
102
RTVSPropertyOp15
 70
     1
102
RTVSPropertyOp16
 70
     1
102
RTVSPropertyOp17
 70
     1
102
RTVSPropertyOp18
 70
     1
102
RTVSPropertyOp19
 70
     1
102
RTVSPropertyOp20
 70
     1
102
RTVSPropertyOp21
 70
     1
102
RTVSPropertyOp22
 70
     1
102
RTVSPropertyOp23
 70
     1
102
RTVSPropertyOp24
 70
     1
102
RTVSPropertyOp25
 70
     1
102
RTVSPropertyOp26
 70
     1
102
RTVSPropertyOp27
 70
     1
102
RTVSPropertyOp28
 70
     1
102
RTVSPropertyOp29
 70
     1
102
RTVSPropertyOp30
 70
     1
102
RTVSPropertyOp31
 70
     1
102
RTVSPropertyOp32
 70
     1
  0
XRECORD
  5
37E53
102
{ACAD_REACTORS
330
37E52
102
}
330
37E52
100
AcDbXrecord
280
     1
102
RTVSPropertyOp0
 70
     1
102
RTVSPropertyOp1
 70
     1
102
RTVSPropertyOp2
 70
     1
102
RTVSPropertyOp3
 70
     1
102
RTVSPropertyOp4
 70
     1
102
RTVSPropertyOp5
 70
     1
102
RTVSPropertyOp6
 70
     1
102
RTVSPropertyOp7
 70
     1
102
RTVSPropertyOp8
 70
     1
102
RTVSPropertyOp9
 70
     1
102
RTVSPropertyOp10
 70
     1
102
RTVSPropertyOp11
 70
     1
102
RTVSPropertyOp12
 70
     1
102
RTVSPropertyOp13
 70
     1
102
RTVSPropertyOp14
 70
     1
102
RTVSPropertyOp15
 70
     1
102
RTVSPropertyOp16
 70
     1
102
RTVSPropertyOp17
 70
     1
102
RTVSPropertyOp18
 70
     1
102
RTVSPropertyOp19
 70
     1
102
RTVSPropertyOp20
 70
     1
102
RTVSPropertyOp21
 70
     1
102
RTVSPropertyOp22
 70
     1
102
RTVSPropertyOp23
 70
     1
102
RTVSPropertyOp24
 70
     1
102
RTVSPropertyOp25
 70
     1
102
RTVSPropertyOp26
 70
     1
102
RTVSPropertyOp27
 70
     1
102
RTVSPropertyOp28
 70
     1
102
RTVSPropertyOp29
 70
     1
102
RTVSPropertyOp30
 70
     1
102
RTVSPropertyOp31
 70
     1
102
RTVSPropertyOp32
 70
     1
  0
ENDSEC
  0
EOF
