  0
SECTION
  2
HEADER
  9
$ACADVER
  1
AC1015
  9
$ACADMAINTVER
 70
    20
  9
$DWGCODEPAGE
  3
ANSI_1252
  9
$INSBASE
 10
1.235102848601107
 20
11.24774640129371
 30
0.0
  9
$EXTMIN
 10
421.5286957330556
 20
101.5916482839677
 30
0.0
  9
$EXTMAX
 10
541.8744496246666
 20
167.7488524645122
 30
0.0
  9
$LIMMIN
 10
0.0
 20
0.0
  9
$LIMMAX
 10
12.0
 20
9.0
  9
$ORTHOMODE
 70
     1
  9
$REGENMODE
 70
     1
  9
$FILLMODE
 70
     1
  9
$QTEXTMODE
 70
     0
  9
$MIRRTEXT
 70
     0
  9
$LTSCALE
 40
1.0
  9
$ATTMODE
 70
     1
  9
$TEXTSIZE
 40
1.125
  9
$TRACEWID
 40
0.05
  9
$TEXTSTYLE
  7
STD
  9
$CLAYER
  8
0
  9
$CELTYPE
  6
BYLAYER
  9
$CECOLOR
 62
   256
  9
$CELTSCALE
 40
1.0
  9
$DISPSILH
 70
     0
  9
$DIMSCALE
 40
1.0
  9
$DIMASZ
 40
0.18
  9
$DIMEXO
 40
0.0625
  9
$DIMDLI
 40
0.38
  9
$DIMRND
 40
0.0
  9
$DIMDLE
 40
0.0
  9
$DIMEXE
 40
0.18
  9
$DIMTP
 40
0.0
  9
$DIMTM
 40
0.0
  9
$DIMTXT
 40
0.18
  9
$DIMCEN
 40
0.09
  9
$DIMTSZ
 40
0.0
  9
$DIMTOL
 70
     0
  9
$DIMLIM
 70
     0
  9
$DIMTIH
 70
     1
  9
$DIMTOH
 70
     1
  9
$DIMSE1
 70
     0
  9
$DIMSE2
 70
     0
  9
$DIMTAD
 70
     0
  9
$DIMZIN
 70
     0
  9
$DIMBLK
  1

  9
$DIMASO
 70
     1
  9
$DIMSHO
 70
     1
  9
$DIMPOST
  1

  9
$DIMAPOST
  1

  9
$DIMALT
 70
     0
  9
$DIMALTD
 70
     2
  9
$DIMALTF
 40
25.4
  9
$DIMLFAC
 40
1.0
  9
$DIMTOFL
 70
     0
  9
$DIMTVP
 40
0.0
  9
$DIMTIX
 70
     0
  9
$DIMSOXD
 70
     0
  9
$DIMSAH
 70
     0
  9
$DIMBLK1
  1

  9
$DIMBLK2
  1

  9
$DIMSTYLE
  2
Standard
  9
$DIMCLRD
 70
     0
  9
$DIMCLRE
 70
     0
  9
$DIMCLRT
 70
     0
  9
$DIMTFAC
 40
1.0
  9
$DIMGAP
 40
0.09
  9
$DIMJUST
 70
     0
  9
$DIMSD1
 70
     0
  9
$DIMSD2
 70
     0
  9
$DIMTOLJ
 70
     1
  9
$DIMTZIN
 70
     0
  9
$DIMALTZ
 70
     0
  9
$DIMALTTZ
 70
     0
  9
$DIMUPT
 70
     0
  9
$DIMDEC
 70
     4
  9
$DIMTDEC
 70
     4
  9
$DIMALTU
 70
     2
  9
$DIMALTTD
 70
     2
  9
$DIMTXSTY
  7
STANDARD
  9
$DIMAUNIT
 70
     0
  9
$DIMADEC
 70
     0
  9
$DIMALTRND
 40
0.0
  9
$DIMAZIN
 70
     0
  9
$DIMDSEP
 70
    46
  9
$DIMATFIT
 70
     3
  9
$DIMFRAC
 70
     0
  9
$DIMLDRBLK
  1

  9
$DIMLUNIT
 70
     2
  9
$DIMLWD
 70
    -2
  9
$DIMLWE
 70
    -2
  9
$DIMTMOVE
 70
     0
  9
$LUNITS
 70
     5
  9
$LUPREC
 70
     6
  9
$SKETCHINC
 40
0.1
  9
$FILLETRAD
 40
0.0
  9
$AUNITS
 70
     0
  9
$AUPREC
 70
     0
  9
$MENU
  1
.
  9
$ELEVATION
 40
0.0
  9
$PELEVATION
 40
0.0
  9
$THICKNESS
 40
0.0
  9
$LIMCHECK
 70
     0
  9
$CHAMFERA
 40
0.5
  9
$CHAMFERB
 40
0.5
  9
$CHAMFERC
 40
1.0
  9
$CHAMFERD
 40
0.0
  9
$SKPOLY
 70
     0
  9
$TDCREATE
 40
2451225.386950695
  9
$TDUCREATE
 40
2451225.595284028
  9
$TDUPDATE
 40
2456114.529428797
  9
$TDUUPDATE
 40
2456114.737762129
  9
$TDINDWG
 40
0.6385729398
  9
$TDUSRTIMER
 40
0.6385729398
  9
$USRTIMER
 70
     1
  9
$ANGBASE
 50
0.0
  9
$ANGDIR
 70
     0
  9
$PDMODE
 70
     3
  9
$PDSIZE
 40
0.0
  9
$PLINEWID
 40
0.0
  9
$SPLFRAME
 70
     0
  9
$SPLINETYPE
 70
     6
  9
$SPLINESEGS
 70
     8
  9
$HANDSEED
  5
369F8
  9
$SURFTAB1
 70
     6
  9
$SURFTAB2
 70
     6
  9
$SURFTYPE
 70
     6
  9
$SURFU
 70
     6
  9
$SURFV
 70
     6
  9
$UCSBASE
  2

  9
$UCSNAME
  2

  9
$UCSORG
 10
0.0
 20
0.0
 30
0.0
  9
$UCSXDIR
 10
1.0
 20
0.0
 30
0.0
  9
$UCSYDIR
 10
0.0
 20
1.0
 30
0.0
  9
$UCSORTHOREF
  2

  9
$UCSORTHOVIEW
 70
     0
  9
$UCSORGTOP
 10
0.0
 20
0.0
 30
0.0
  9
$UCSORGBOTTOM
 10
0.0
 20
0.0
 30
0.0
  9
$UCSORGLEFT
 10
0.0
 20
0.0
 30
0.0
  9
$UCSORGRIGHT
 10
0.0
 20
0.0
 30
0.0
  9
$UCSORGFRONT
 10
0.0
 20
0.0
 30
0.0
  9
$UCSORGBACK
 10
0.0
 20
0.0
 30
0.0
  9
$PUCSBASE
  2

  9
$PUCSNAME
  2

  9
$PUCSORG
 10
0.0
 20
0.0
 30
0.0
  9
$PUCSXDIR
 10
1.0
 20
0.0
 30
0.0
  9
$PUCSYDIR
 10
0.0
 20
1.0
 30
0.0
  9
$PUCSORTHOREF
  2

  9
$PUCSORTHOVIEW
 70
     0
  9
$PUCSORGTOP
 10
0.0
 20
0.0
 30
0.0
  9
$PUCSORGBOTTOM
 10
0.0
 20
0.0
 30
0.0
  9
$PUCSORGLEFT
 10
0.0
 20
0.0
 30
0.0
  9
$PUCSORGRIGHT
 10
0.0
 20
0.0
 30
0.0
  9
$PUCSORGFRONT
 10
0.0
 20
0.0
 30
0.0
  9
$PUCSORGBACK
 10
0.0
 20
0.0
 30
0.0
  9
$USERI1
 70
     0
  9
$USERI2
 70
     0
  9
$USERI3
 70
     0
  9
$USERI4
 70
     0
  9
$USERI5
 70
     0
  9
$USERR1
 40
0.0
  9
$USERR2
 40
0.0
  9
$USERR3
 40
0.0
  9
$USERR4
 40
0.0
  9
$USERR5
 40
0.0
  9
$WORLDVIEW
 70
     1
  9
$SHADEDGE
 70
     3
  9
$SHADEDIF
 70
    70
  9
$TILEMODE
 70
     1
  9
$MAXACTVP
 70
    48
  9
$PINSBASE
 10
0.0
 20
0.0
 30
0.0
  9
$PLIMCHECK
 70
     0
  9
$PEXTMIN
 10
0.0
 20
0.0
 30
0.0
  9
$PEXTMAX
 10
10.205
 20
7.764780009564798
 30
0.0
  9
$PLIMMIN
 10
-0.2079161059762549
 20
-0.2079166691697489
  9
$PLIMMAX
 10
10.79208365372785
 20
8.29208309053436
  9
$UNITMODE
 70
     0
  9
$VISRETAIN
 70
     1
  9
$PLINEGEN
 70
     0
  9
$PSLTSCALE
 70
     1
  9
$TREEDEPTH
 70
     0
  9
$CMLSTYLE
  2
STANDARD
  9
$CMLJUST
 70
     0
  9
$CMLSCALE
 40
1.0
  9
$PROXYGRAPHICS
 70
     1
  9
$MEASUREMENT
 70
     0
  9
$CELWEIGHT
370
    -1
  9
$ENDCAPS
280
     0
  9
$JOINSTYLE
280
     0
  9
$LWDISPLAY
290
     0
  9
$INSUNITS
 70
     1
  9
$HYPERLINKBASE
  1

  9
$STYLESHEET
  1
5000N-BLACK.CTB
  9
$XEDIT
290
     1
  9
$CEPSNTYPE
380
     0
  9
$PSTYLEMODE
290
     1
  9
$FINGERPRINTGUID
  2
{B3E5E9A9-FEC4-11D2-95EF-00104B2EF1F9}
  9
$VERSIONGUID
  2
{FEB11C10-3E79-4EB1-9A17-3390F16BAE80}
  9
$EXTNAMES
290
     1
  9
$PSVPSCALE
 40
0.0
  9
$OLESTARTUP
290
     0
  0
ENDSEC
  0
SECTION
  2
CLASSES
  0
CLASS
  1
IDBUFFER
  2
AcDbIdBuffer
  3
ObjectDBX Classes
 90
    32768
280
     0
281
     0
  0
CLASS
  1
ACDBDICTIONARYWDFLT
  2
AcDbDictionaryWithDefault
  3
ObjectDBX Classes
 90
        0
280
     0
281
     0
  0
CLASS
  1
ACDBPLACEHOLDER
  2
AcDbPlaceHolder
  3
ObjectDBX Classes
 90
        0
280
     0
281
     0
  0
CLASS
  1
LAYOUT
  2
AcDbLayout
  3
ObjectDBX Classes
 90
        0
280
     0
281
     0
  0
CLASS
  1
DICTIONARYVAR
  2
AcDbDictionaryVar
  3
ObjectDBX Classes
 90
        0
280
     0
281
     0
  0
CLASS
  1
TABLESTYLE
  2
AcDbTableStyle
  3
ObjectDBX Classes
 90
     4095
280
     0
281
     0
  0
CLASS
  1
PLOTSETTINGS
  2
AcDbPlotSettings
  3
ObjectDBX Classes
 90
        0
280
     0
281
     0
  0
CLASS
  1
MATERIAL
  2
AcDbMaterial
  3
ObjectDBX Classes
 90
     1153
280
     0
281
     0
  0
CLASS
  1
VISUALSTYLE
  2
AcDbVisualStyle
  3
ObjectDBX Classes
 90
     4095
280
     0
281
     0
  0
CLASS
  1
SORTENTSTABLE
  2
AcDbSortentsTable
  3
ObjectDBX Classes
 90
        0
280
     0
281
     0
  0
CLASS
  1
FIELD
  2
AcDbField
  3
ObjectDBX Classes
 90
    33920
280
     0
281
     0
  0
CLASS
  1
FIELDLIST
  2
AcDbFieldList
  3
ObjectDBX Classes
 90
     1152
280
     0
281
     0
  0
CLASS
  1
EXACTERMXREFMAP
  2
ExAcTermXrefMap
  3
EXAC_SERVICE
 90
    33793
280
     0
281
     0
  0
CLASS
  1
NPOCOLLECTION
  2
AcDbImpNonPersistentObjectsCollection
  3
ObjectDBX Classes
 90
    33921
280
     0
281
     0
  0
CLASS
  1
EXACXREFPANELOBJECT
  2
ExAcXREFPanelObject
  3
EXAC_ESW
 90
    33793
280
     0
281
     0
  0
CLASS
  1
ACAD_EVALUATION_GRAPH
  2
AcDbEvalGraph
  3
ObjectDBX Classes
 90
    33921
280
     0
281
     0
  0
CLASS
  1
BLOCKBASEPOINTPARAMETER
  2
AcDbBlockBasepointParameter
  3
ObjectDBX Classes
 90
    33921
280
     0
281
     0
  0
CLASS
  1
BLOCKVISIBILITYPARAMETER
  2
AcDbBlockVisibilityParameter
  3
ObjectDBX Classes
 90
    33921
280
     0
281
     0
  0
CLASS
  1
BLOCKVISIBILITYGRIP
  2
AcDbBlockVisibilityGrip
  3
ObjectDBX Classes
 90
    33921
280
     0
281
     0
  0
CLASS
  1
BLOCKGRIPLOCATIONCOMPONENT
  2
AcDbBlockGripExpr
  3
ObjectDBX Classes
 90
    33921
280
     0
281
     0
  0
CLASS
  1
ACDB_DYNAMICBLOCKPURGEPREVENTER_VERSION
  2
AcDbDynamicBlockPurgePreventer
  3
ObjectDBX Classes
 90
    33921
280
     0
281
     0
  0
CLASS
  1
ACAECUSTOBJ
  2
AcAeEditorObj
  3
AcAeEditorObj
 90
    33792
280
     0
281
     0
  0
CLASS
  1
BASEPOINTPARAMETERENTITY
  2
AcDbBlockBasepointParameterEntity
  3
ObjectDBX Classes
 90
    33793
280
     0
281
     1
  0
CLASS
  1
ACAEEEMGROBJ
  2
AcAeEEMgrObj
  3
AcAeEEMgrObj
 90
    33792
280
     0
281
     0
  0
CLASS
  1
VISIBILITYPARAMETERENTITY
  2
AcDbBlockVisibilityParameterEntity
  3
ObjectDBX Classes
 90
    33793
280
     0
281
     1
  0
CLASS
  1
VISIBILITYGRIPENTITY
  2
AcDbBlockVisibilityGripEntity
  3
ObjectDBX Classes
 90
    33793
280
     0
281
     1
  0
CLASS
  1
ACDB_BLOCKREPRESENTATION_DATA
  2
AcDbBlockRepresentationData
  3
ObjectDBX Classes
 90
    33921
280
     0
281
     0
  0
CLASS
  1
DIMASSOC
  2
AcDbDimAssoc
  3
"AcDbDimAssoc|Product Desc:     AcDim ARX App For Dimension|Company:          Autodesk, Inc.|WEB Address:      www.autodesk.com"
 90
    32768
280
     0
281
     0
  0
CLASS
  1
SCALE
  2
AcDbScale
  3
ObjectDBX Classes
 90
     1153
280
     0
281
     0
  0
CLASS
  1
MLEADERSTYLE
  2
AcDbMLeaderStyle
  3
ACDB_MLEADERSTYLE_CLASS
 90
     4095
280
     0
281
     0
  0
CLASS
  1
CELLSTYLEMAP
  2
AcDbCellStyleMap
  3
ObjectDBX Classes
 90
     1152
280
     0
281
     0
  0
ENDSEC
  0
SECTION
  2
TABLES
  0
TABLE
  2
VPORT
  5
1A
102
{ACAD_XDICTIONARY
360
139C
102
}
330
0
100
AcDbSymbolTable
 70
     1
  0
VPORT
  5
882
330
1A
100
AcDbSymbolTableRecord
100
AcDbViewportTableRecord
  2
*Active
 70
     0
 10
0.0
 20
0.0
 11
1.0
 21
1.0
 12
481.6974149322052
 22
140.2213564398445
 13
0.0
 23
0.0
 14
0.5
 24
0.5
 15
0.5
 25
0.5
 16
0.0
 26
0.0
 36
1.0
 17
0.0
 27
0.0
 37
0.0
 40
66.71173960174946
 41
2.570469798657718
 42
50.0
 43
0.0
 44
0.0
 50
0.0
 51
0.0
 71
     0
 72
   100
 73
     1
 74
     1
 75
     0
 76
     0
 77
     0
 78
     1
281
     0
 65
     1
110
0.0
120
0.0
130
0.0
111
1.0
121
0.0
131
0.0
112
0.0
122
1.0
132
0.0
 79
     0
146
0.0
1001
ACAD_NAV_VCDISPLAY
1070
     3
  0
ENDTAB
  0
TABLE
  2
LTYPE
  5
15
330
0
100
AcDbSymbolTable
 70
     4
  0
LTYPE
  5
16
330
15
100
AcDbSymbolTableRecord
100
AcDbLinetypeTableRecord
  2
BYBLOCK
 70
     0
  3

 72
    65
 73
     0
 40
0.0
  0
LTYPE
  5
17
330
15
100
AcDbSymbolTableRecord
100
AcDbLinetypeTableRecord
  2
BYLAYER
 70
     0
  3

 72
    65
 73
     0
 40
0.0
  0
LTYPE
  5
8
330
15
100
AcDbSymbolTableRecord
100
AcDbLinetypeTableRecord
  2
CONTINUOUS
 70
     0
  3
Solid line
 72
    65
 73
     0
 40
0.0
  0
LTYPE
  5
1A5A
330
15
100
AcDbSymbolTableRecord
100
AcDbLinetypeTableRecord
  2
HIDDEN
 70
     0
  3
Hidden __ __ __ __ __ __ __ __ __ __ __ __ __ _
 72
    65
 73
     2
 40
0.375
 49
0.25
 74
     0
 49
-0.125
 74
     0
  0
LTYPE
  5
1A5D
330
15
100
AcDbSymbolTableRecord
100
AcDbLinetypeTableRecord
  2
PHANTOM
 70
     0
  3
Phantom ______  __  __  ______  __  __  ______
 72
    65
 73
     6
 40
2.5
 49
1.25
 74
     0
 49
-0.25
 74
     0
 49
0.25
 74
     0
 49
-0.25
 74
     0
 49
0.25
 74
     0
 49
-0.25
 74
     0
  0
LTYPE
  5
1A5E
330
15
100
AcDbSymbolTableRecord
100
AcDbLinetypeTableRecord
  2
PHANTOM2
 70
     0
  3
Phantom (.5x) ___ _ _ ___ _ _ ___ _ _ ___ _ _
 72
    65
 73
     6
 40
1.25
 49
0.625
 74
     0
 49
-0.125
 74
     0
 49
0.125
 74
     0
 49
-0.125
 74
     0
 49
0.125
 74
     0
 49
-0.125
 74
     0
  0
ENDTAB
  0
TABLE
  2
LAYER
  5
11
102
{ACAD_XDICTIONARY
360
899
102
}
330
0
100
AcDbSymbolTable
 70
     7
  0
LAYER
  5
4
102
{ACAD_XDICTIONARY
360
3668C
102
}
330
11
100
AcDbSymbolTableRecord
100
AcDbLayerTableRecord
  2
0
 70
     0
 62
     7
  6
CONTINUOUS
370
    -3
390
5
1001
RAK
1000
{ACET-LAYISO
1070
     0
1070
     7
1000
CONTINUOUS
1071
       -3
1071
        1
1005
5
1000
ACET-LAYISO}
  0
LAYER
  5
32
102
{ACAD_XDICTIONARY
360
3668E
102
}
330
11
100
AcDbSymbolTableRecord
100
AcDbLayerTableRecord
  2
TEXT
 70
     0
 62
     3
  6
CONTINUOUS
370
    -3
390
5
1001
RAK
1000
{ACET-LAYISO
1070
     0
1070
     3
1000
CONTINUOUS
1071
       -3
1071
        1
1005
5
1000
ACET-LAYISO}
  0
LAYER
  5
73
330
11
100
AcDbSymbolTableRecord
100
AcDbLayerTableRecord
  2
Defpoints
 70
     0
 62
   252
  6
CONTINUOUS
290
     0
370
    -3
390
5
  0
LAYER
  5
1A61
102
{ACAD_XDICTIONARY
360
1A62
102
}
330
11
100
AcDbSymbolTableRecord
100
AcDbLayerTableRecord
  2
DIM
 70
     0
 62
     1
  6
CONTINUOUS
370
    -3
390
5
  0
LAYER
  5
1A7C
102
{ACAD_XDICTIONARY
360
1A7D
102
}
330
11
100
AcDbSymbolTableRecord
100
AcDbLayerTableRecord
  2
SECTION
 70
     0
 62
   253
  6
PHANTOM
370
    -3
390
5
  0
LAYER
  5
1A7F
102
{ACAD_XDICTIONARY
360
1A80
102
}
330
11
100
AcDbSymbolTableRecord
100
AcDbLayerTableRecord
  2
DETAIL
 70
     0
 62
     1
  6
CONTINUOUS
370
    -3
390
5
  0
LAYER
  5
1A91
102
{ACAD_XDICTIONARY
360
1A92
102
}
330
11
100
AcDbSymbolTableRecord
100
AcDbLayerTableRecord
  2
PANEL
 70
     0
 62
    60
  6
CONTINUOUS
370
    -3
390
5
1001
AcAecLayerStandard
1000

1000

  0
ENDTAB
  0
TABLE
  2
STYLE
  5
12
330
0
100
AcDbSymbolTable
 70
     2
  0
STYLE
  5
13
330
12
100
AcDbSymbolTableRecord
100
AcDbTextStyleTableRecord
  2
STANDARD
 70
     0
 40
0.0
 41
1.0
 50
0.0
 71
     0
 42
0.2
  3
arial.ttf
  4

1001
ACAD
1000
Arial CYR
1071
    52258
  0
STYLE
  5
20
330
12
100
AcDbSymbolTableRecord
100
AcDbTextStyleTableRecord
  2
STD
 70
     0
 40
0.0
 41
1.0
 50
0.0
 71
     0
 42
1.125
  3
arial.ttf
  4

1001
ACAD
1000
Arial CYR
1071
    52258
  0
ENDTAB
  0
TABLE
  2
VIEW
  5
18
330
0
100
AcDbSymbolTable
 70
     0
  0
ENDTAB
  0
TABLE
  2
UCS
  5
19
330
0
100
AcDbSymbolTable
 70
     0
  0
ENDTAB
  0
TABLE
  2
APPID
  5
1C
330
0
100
AcDbSymbolTable
 70
    25
  0
APPID
  5
1D
330
1C
100
AcDbSymbolTableRecord
100
AcDbRegAppTableRecord
  2
ACAD
 70
     0
  0
APPID
  5
9
330
1C
100
AcDbSymbolTableRecord
100
AcDbRegAppTableRecord
  2
RAK
 70
     0
  0
APPID
  5
3A
330
1C
100
AcDbSymbolTableRecord
100
AcDbRegAppTableRecord
  2
DCO15
 70
     0
  0
APPID
  5
126
330
1C
100
AcDbSymbolTableRecord
100
AcDbRegAppTableRecord
  2
ABNSLEADERTOOLS
 70
     0
  0
APPID
  5
895
330
1C
100
AcDbSymbolTableRecord
100
AcDbRegAppTableRecord
  2
ACAD_PSEXT
 70
     0
  0
APPID
  5
A2A
330
1C
100
AcDbSymbolTableRecord
100
AcDbRegAppTableRecord
  2
ACAD_DSTYLE_DIMTEXT_FILL
 70
     0
  0
APPID
  5
10A5
330
1C
100
AcDbSymbolTableRecord
100
AcDbRegAppTableRecord
  2
AcAecLayerStandard
 70
     0
  0
APPID
  5
198C
330
1C
100
AcDbSymbolTableRecord
100
AcDbRegAppTableRecord
  2
AcDbBlockRepETag
 70
     0
  0
APPID
  5
198D
330
1C
100
AcDbSymbolTableRecord
100
AcDbRegAppTableRecord
  2
AcLayerTools
 70
     0
  0
APPID
  5
1A37
330
1C
100
AcDbSymbolTableRecord
100
AcDbRegAppTableRecord
  2
ACAD_DSTYLE_DIMJAG
 70
     0
  0
APPID
  5
1A38
330
1C
100
AcDbSymbolTableRecord
100
AcDbRegAppTableRecord
  2
ACAD_DSTYLE_DIMBREAK
 70
     0
  0
APPID
  5
1A39
330
1C
100
AcDbSymbolTableRecord
100
AcDbRegAppTableRecord
  2
AcadAnnotative
 70
     0
  0
APPID
  5
1A3A
330
1C
100
AcDbSymbolTableRecord
100
AcDbRegAppTableRecord
  2
ACAD_DSTYLE_DIMTALN
 70
     0
  0
APPID
  5
1A3B
330
1C
100
AcDbSymbolTableRecord
100
AcDbRegAppTableRecord
  2
AcadAnnoAV
 70
     0
  0
APPID
  5
1D4C
330
1C
100
AcDbSymbolTableRecord
100
AcDbRegAppTableRecord
  2
ACAD_MLEADERVER
 70
     0
  0
APPID
  5
1D4D
330
1C
100
AcDbSymbolTableRecord
100
AcDbRegAppTableRecord
  2
AcadAnnoPO
 70
     0
  0
APPID
  5
1D4E
330
1C
100
AcDbSymbolTableRecord
100
AcDbRegAppTableRecord
  2
ACAD_DSTYLE_DIMRADIAL_EXTENSION
 70
     0
  0
APPID
  5
8637
330
1C
100
AcDbSymbolTableRecord
100
AcDbRegAppTableRecord
  2
AcDbDynamicBlockTrueName
 70
     0
  0
APPID
  5
8638
330
1C
100
AcDbSymbolTableRecord
100
AcDbRegAppTableRecord
  2
AcDbDynamicBlockGUID
 70
     0
  0
APPID
  5
EECA
330
1C
100
AcDbSymbolTableRecord
100
AcDbRegAppTableRecord
  2
ACAUTHENVIRON
 70
     0
  0
APPID
  5
EED2
330
1C
100
AcDbSymbolTableRecord
100
AcDbRegAppTableRecord
  2
AcDbBlockRepBTag
 70
     0
  0
APPID
  5
31EA1
330
1C
100
AcDbSymbolTableRecord
100
AcDbRegAppTableRecord
  2
ACAD_EXEMPT_FROM_CAD_STANDARDS
 70
     0
  0
APPID
  5
3666F
330
1C
100
AcDbSymbolTableRecord
100
AcDbRegAppTableRecord
  2
GradientColor1ACI
 70
     0
  0
APPID
  5
36670
330
1C
100
AcDbSymbolTableRecord
100
AcDbRegAppTableRecord
  2
GradientColor2ACI
 70
     0
  0
APPID
  5
3671A
330
1C
100
AcDbSymbolTableRecord
100
AcDbRegAppTableRecord
  2
ACAD_NAV_VCDISPLAY
 70
     0
  0
ENDTAB
  0
TABLE
  2
DIMSTYLE
  5
1E
330
0
100
AcDbSymbolTable
 70
     1
100
AcDbDimStyleTable
 71
     0
  0
DIMSTYLE
105
172
330
1E
100
AcDbSymbolTableRecord
100
AcDbDimStyleTableRecord
  2
Standard
 70
     0
340
13
  0
ENDTAB
  0
TABLE
  2
BLOCK_RECORD
  5
1
330
0
100
AcDbSymbolTable
 70
     0
  0
BLOCK_RECORD
  5
2
102
{ACAD_XDICTIONARY
360
31E97
102
}
330
1
100
AcDbSymbolTableRecord
100
AcDbBlockTableRecord
  2
*MODEL_SPACE
340
B
  0
BLOCK_RECORD
  5
D
102
{ACAD_XDICTIONARY
360
1D72
102
}
330
1
100
AcDbSymbolTableRecord
100
AcDbBlockTableRecord
  2
*PAPER_SPACE
340
10
  0
ENDTAB
  0
ENDSEC
  0
SECTION
  2
BLOCKS
  0
BLOCK
  5
3
330
2
100
AcDbEntity
  8
0
100
AcDbBlockBegin
  2
*MODEL_SPACE
 70
     0
 10
0.0
 20
0.0
 30
0.0
  3
*MODEL_SPACE
  1

  0
ENDBLK
  5
A
330
2
100
AcDbEntity
  8
0
100
AcDbBlockEnd
  0
BLOCK
  5
E
330
D
100
AcDbEntity
 67
     1
  8
0
100
AcDbBlockBegin
  2
*PAPER_SPACE
 70
     0
 10
0.0
 20
0.0
 30
0.0
  3
*PAPER_SPACE
  1

  0
ENDBLK
  5
F
330
D
100
AcDbEntity
 67
     1
  8
0
100
AcDbBlockEnd
  0
ENDSEC
  0
SECTION
  2
ENTITIES
  0
LINE
  5
34081
330
2
100
AcDbEntity
  8
DETAIL
100
AcDbLine
 10
489.1210256492448
 20
119.7886175369614
 30
0.0
 11
489.931625427187
 21
120.2566175369614
 31
0.0
  0
LINE
  5
34082
330
2
100
AcDbEntity
  8
DETAIL
100
AcDbLine
 10
489.931625427187
 20
120.2246175369614
 30
0.0
 11
489.1210256492448
 21
119.7566175369614
 31
0.0
  0
LINE
  5
34084
330
2
100
AcDbEntity
  8
DETAIL
100
AcDbLine
 10
489.9870510530293
 20
120.2246175369614
 30
0.0
 11
489.9870510530293
 21
118.3526175369614
 31
0.0
  0
LINE
  5
34085
330
2
100
AcDbEntity
  8
DETAIL
100
AcDbLine
 10
489.9593382401083
 20
118.3366175369614
 30
0.0
 11
489.9593382401083
 21
120.2086175369614
 31
0.0
  0
LINE
  5
34086
330
2
100
AcDbEntity
  8
DETAIL
100
AcDbLine
 10
470.0684667606208
 20
108.788617533863
 30
0.0
 11
428.4992473843344
 21
132.7886175369614
 31
0.0
  0
LINE
  5
34087
330
2
100
AcDbEntity
  8
DETAIL
100
AcDbLine
 10
469.2024413622028
 20
108.2246175369613
 30
0.0
 11
427.6332219805497
 21
132.2246175369614
 31
0.0
  0
LINE
  5
34088
330
2
100
AcDbEntity
  8
DETAIL
100
AcDbLine
 10
469.2578669880449
 20
108.3206175369613
 30
0.0
 11
427.688647606392
 21
132.3206175369614
 31
0.0
  0
LINE
  5
34089
330
2
100
AcDbEntity
  8
DETAIL
100
AcDbLine
 10
469.2186751554607
 20
106.316735296375
 30
0.0
 11
427.6494557727919
 21
130.3167352969614
 31
0.0
  0
LINE
  5
3408A
330
2
100
AcDbEntity
  8
DETAIL
100
AcDbLine
 10
469.230154165115
 20
108.1766033240995
 30
0.0
 11
489.9593382401083
 21
120.1446175369614
 31
0.0
  0
LINE
  5
3408C
330
2
100
AcDbEntity
  8
DETAIL
100
AcDbLine
 10
469.2301541751239
 20
108.2406175369614
 30
0.0
 11
469.2301541751239
 21
106.3686175369614
 31
0.0
  0
LINE
  5
3408D
330
2
100
AcDbEntity
  8
DETAIL
100
AcDbLine
 10
469.2024413622028
 20
106.3526175369614
 30
0.0
 11
469.2024413622028
 21
108.2246175369613
 31
0.0
  0
LINE
  5
3408E
330
2
100
AcDbEntity
  8
DETAIL
100
AcDbLine
 10
469.2578669880449
 20
106.3526175369614
 30
0.0
 11
489.931613114905
 21
118.2886104284624
 31
0.0
  0
LINE
  5
3408F
330
2
100
AcDbEntity
  8
DETAIL
100
AcDbLine
 10
489.9316007882096
 20
118.2566033282851
 30
0.0
 11
469.2578669880449
 21
106.3206175369614
 31
0.0
  0
LINE
  5
34090
330
2
100
AcDbEntity
  8
DETAIL
100
AcDbLine
 10
489.9349875517451
 20
118.3467941769614
 30
0.0
 11
469.2301541751239
 21
106.3928530534428
 31
0.0
  0
ELLIPSE
  5
34091
330
2
100
AcDbEntity
  8
DETAIL
100
AcDbEllipse
 10
469.2578916270225
 20
106.3846317456377
 30
0.0
 11
0.0391918335999932
 21
0.0678822400000288
 31
0.0
210
0.0
220
0.0
230
0.9999999999999998
 40
0.5773502699998802
 41
2.355749999999464
 42
3.92654632679525
  0
ELLIPSE
  5
34092
330
2
100
AcDbEntity
  8
DETAIL
100
AcDbEllipse
 10
469.2578916270225
 20
106.3846317456377
 30
0.0
 11
0.0195959167999925
 21
0.0339411200000204
 31
0.0
210
0.0
220
0.0
230
1.0
 40
0.5773502699999017
 41
2.355749999999261
 42
3.926546326795037
  0
LINE
  5
34093
330
2
100
AcDbEntity
  8
DETAIL
100
AcDbLine
 10
489.0378872104816
 20
119.8046175369613
 30
0.0
 11
488.6603001294274
 21
119.5866175340719
 31
0.0
  0
LINE
  5
34094
330
2
100
AcDbEntity
  8
DETAIL
100
AcDbLine
 10
469.2024413615227
 20
109.2886175365689
 30
0.0
 11
469.635447907243
 21
109.5386139823012
 31
0.0
  0
LINE
  5
34095
330
2
100
AcDbEntity
  8
DETAIL
100
AcDbLine
 10
470.0684667659873
 20
108.7566175369614
 30
0.0
 11
469.2578669880449
 21
108.2886175369614
 31
0.0
  0
LINE
  5
34096
330
2
100
AcDbEntity
  8
DETAIL
100
AcDbLine
 10
469.2578669880449
 20
108.3206175369614
 30
0.0
 11
470.0684667659873
 21
108.7886175369613
 31
0.0
  0
ELLIPSE
  5
34097
330
2
100
AcDbEntity
  8
DETAIL
100
AcDbEllipse
 10
469.2578669880449
 20
108.2566175369614
 30
0.0
 11
0.0195959168000413
 21
0.0339411200000858
 31
0.0
210
0.0
220
0.0
230
0.9999999999999998
 40
0.5773502699973526
 41
0.7849536732077334
 42
2.35574999999739
  0
ELLIPSE
  5
34098
330
2
100
AcDbEntity
  8
DETAIL
100
AcDbEllipse
 10
469.2578669880449
 20
108.2566175369614
 30
0.0
 11
0.0391918335999915
 21
0.0678822400000259
 31
0.0
210
0.0
220
0.0
230
1.0
 40
0.5773502699999299
 41
0.7849536732054144
 42
2.355749999999508
  0
ARC
  5
34099
330
2
100
AcDbEntity
  8
DETAIL
100
AcDbCircle
 10
469.1011016260937
 20
108.8522919728119
 30
0.0
 40
0.0529701551798424
100
AcDbArc
 50
160.5048995672283
 51
215.6571314953374
  0
ARC
  5
3409B
330
2
100
AcDbEntity
  8
DETAIL
100
AcDbCircle
 10
469.1488223794259
 20
108.8865286992702
 30
0.0
 40
0.1117019501224253
100
AcDbArc
 50
215.6571298247166
 51
240.0000000000002
  0
ARC
  5
3409C
330
2
100
AcDbEntity
  8
DETAIL
100
AcDbCircle
 10
469.1804432188628
 20
108.9412975997529
 30
0.0
 40
0.1749436289962763
100
AcDbArc
 50
240.0000000000002
 51
256.5505244738396
  0
ARC
  5
3409D
330
2
100
AcDbEntity
  8
DETAIL
100
AcDbCircle
 10
469.2012245798379
 20
109.0281957033614
 30
0.0
 40
0.264292078197812
100
AcDbArc
 50
256.5505244738665
 51
283.4494978152164
  0
ARC
  5
3409F
330
2
100
AcDbEntity
  8
DETAIL
100
AcDbCircle
 10
469.2220059408128
 20
108.9412975997528
 30
0.0
 40
0.1749436289961171
100
AcDbArc
 50
283.4494755261368
 51
300.0000000000001
  0
ARC
  5
340A0
330
2
100
AcDbEntity
  8
DETAIL
100
AcDbCircle
 10
469.2536267802496
 20
108.8865286992703
 30
0.0
 40
0.1117019501224754
100
AcDbArc
 50
300.0000000000004
 51
324.3428701752723
  0
ARC
  5
340A1
330
2
100
AcDbEntity
  8
DETAIL
100
AcDbCircle
 10
469.301347533582
 20
108.8522919728119
 30
0.0
 40
0.0529701551798363
100
AcDbArc
 50
324.3428701752579
 51
19.49510056235043
  0
ARC
  5
340A3
330
2
100
AcDbEntity
  8
DETAIL
100
AcDbCircle
 10
469.2012245798379
 20
108.8184765437864
 30
0.0
 40
0.1586456038630306
100
AcDbArc
 50
18.38362174873401
 51
161.616378251261
  0
LINE
  5
340A4
330
2
100
AcDbEntity
  8
DETAIL
100
AcDbLine
 10
470.0684667659873
 20
108.7886175369613
 30
0.0
 11
470.0684667659873
 21
108.7566175369614
 31
0.0
  0
LINE
  5
340A5
330
2
100
AcDbEntity
  8
DETAIL
100
AcDbLine
 10
489.9381675200317
 20
118.3488404578964
 30
0.0
 11
489.9593382401083
 21
118.3366175369614
 31
0.0
  0
LINE
  5
340A6
330
2
100
AcDbEntity
  8
DETAIL
100
AcDbLine
 10
489.8829117290373
 20
118.3167281867029
 30
0.0
 11
489.9316131149054
 21
118.2886104284622
 31
0.0
  0
ELLIPSE
  5
340A7
330
2
100
AcDbEntity
  8
DETAIL
100
AcDbEllipse
 10
489.8761998013451
 20
118.4486175369614
 30
0.0
 11
-0.0587877503999641
 21
0.1018233600000512
 31
0.0
210
0.0
220
0.0
230
0.9999999999999998
 40
0.5773502699989601
 41
3.141592627675336
 42
3.926842653590771
  0
ELLIPSE
  5
340A8
330
2
100
AcDbEntity
  8
DETAIL
100
AcDbEllipse
 10
489.931625427187
 20
118.3206175369614
 30
0.0
 11
0.0391918335997994
 21
0.0678822399999512
 31
0.0
210
0.0
220
0.0
230
0.9999999999999998
 40
0.5773502700010253
 41
3.926546326792355
 42
5.497342653589549
  0
ELLIPSE
  5
340A9
330
2
100
AcDbEntity
  8
DETAIL
100
AcDbEllipse
 10
489.931625427187
 20
118.3206175369614
 30
0.0
 11
0.0195959168000349
 21
0.0339411200001002
 31
0.0
210
0.0
220
0.0
230
0.9999999999999998
 40
0.5773502699972948
 41
3.9265463267972
 42
5.497342653586913
  0
LINE
  5
340AA
330
2
100
AcDbEntity
  8
DETAIL
100
AcDbLine
 10
489.1210256492448
 20
119.7566175369614
 30
0.0
 11
489.1210256492448
 21
119.7886175369614
 31
0.0
  0
LINE
  5
340AB
330
2
100
AcDbEntity
  8
DETAIL
100
AcDbLine
 10
428.5756615831072
 20
132.7444997787112
 30
0.0
 11
447.6005076534598
 21
143.7284997787206
 31
0.0
  0
LINE
  5
340AC
330
2
100
AcDbEntity
  8
DETAIL
100
AcDbLine
 10
447.6349447063553
 20
143.7086175369613
 30
0.0
 11
428.610098635995
 21
132.7246175369477
 31
0.0
  0
LINE
  5
340AD
330
2
100
AcDbEntity
  8
DETAIL
100
AcDbLine
 10
489.9708008245266
 20
120.2605092584858
 30
0.0
 11
448.401622411171
 21
144.2604855956392
 31
0.0
  0
LINE
  5
340AE
330
2
100
AcDbEntity
  8
DETAIL
100
AcDbLine
 10
489.1210256492448
 20
119.7886175369614
 30
0.0
 11
447.5518062675917
 21
143.7886175369615
 31
0.0
  0
LINE
  5
340AF
330
2
100
AcDbEntity
  8
DETAIL
100
AcDbLine
 10
489.1210256492448
 20
119.7566175369614
 30
0.0
 11
447.5518062675917
 21
143.7566175369614
 31
0.0
  0
LINE
  5
340B0
330
2
100
AcDbEntity
  8
DETAIL
100
AcDbLine
 10
431.3415427595546
 20
131.1476175369614
 30
0.0
 11
450.3663888298911
 21
142.1316175369614
 31
0.0
  0
LINE
  5
340B1
330
2
100
AcDbEntity
  8
DETAIL
100
AcDbLine
 10
431.3692555724759
 20
131.1316175369614
 30
0.0
 11
450.3941016428123
 21
142.1156175369614
 31
0.0
  0
LINE
  5
340B2
330
2
100
AcDbEntity
  8
DETAIL
100
AcDbLine
 10
427.688647606392
 20
132.3206175369614
 30
0.0
 11
428.4992473843344
 21
132.7886175369614
 31
0.0
  0
LINE
  5
340B3
330
2
100
AcDbEntity
  8
DETAIL
100
AcDbLine
 10
427.6332219805497
 20
130.3526175369614
 30
0.0
 11
427.6332219805497
 21
132.2246175369614
 31
0.0
  0
ELLIPSE
  5
340B4
330
2
100
AcDbEntity
  8
DETAIL
100
AcDbEllipse
 10
427.688647606392
 20
130.3846175369614
 30
0.0
 11
0.0391918336000056
 21
0.0678822399999959
 31
0.0
210
0.0
220
0.0
230
0.9999999999999998
 40
0.5773502699999411
 41
2.35574999999996
 42
3.141592679506208
  0
ELLIPSE
  5
340B5
330
2
100
AcDbEntity
  8
DETAIL
100
AcDbEllipse
 10
427.688647606392
 20
132.2566175369614
 30
0.0
 11
0.0391918336000018
 21
0.067882240000004
 31
0.0
210
0.0
220
0.0
230
1.0
 40
0.5773502699999643
 41
0.7849536732050364
 42
2.355749999999857
  0
ARC
  5
340B6
330
2
100
AcDbEntity
  8
DETAIL
100
AcDbCircle
 10
430.1453215096795
 20
131.3434221095156
 30
0.0
 40
0.0529701551798427
100
AcDbArc
 50
160.5048995672276
 51
215.6571314953374
  0
ARC
  5
340B8
330
2
100
AcDbEntity
  8
DETAIL
100
AcDbCircle
 10
430.1930422630118
 20
131.3776588359739
 30
0.0
 40
0.1117019501224264
100
AcDbArc
 50
215.6571298247166
 51
240.0000000000002
  0
ARC
  5
340B9
330
2
100
AcDbEntity
  8
DETAIL
100
AcDbCircle
 10
430.2246631024486
 20
131.4324277364566
 30
0.0
 40
0.1749436289962771
100
AcDbArc
 50
240.0000000000002
 51
256.5505244738396
  0
ARC
  5
340BA
330
2
100
AcDbEntity
  8
DETAIL
100
AcDbCircle
 10
430.2454444634236
 20
131.5193258400651
 30
0.0
 40
0.264292078197812
100
AcDbArc
 50
256.5505244738665
 51
283.4494978152164
  0
ARC
  5
340BC
330
2
100
AcDbEntity
  8
DETAIL
100
AcDbCircle
 10
430.2662258243986
 20
131.4324277364565
 30
0.0
 40
0.1749436289961179
100
AcDbArc
 50
283.4494755261368
 51
300.0000000000001
  0
ARC
  5
340BD
330
2
100
AcDbEntity
  8
DETAIL
100
AcDbCircle
 10
430.2978466638355
 20
131.3776588359739
 30
0.0
 40
0.1117019501224736
100
AcDbArc
 50
300.0000000000001
 51
324.3428701752716
  0
ARC
  5
340BE
330
2
100
AcDbEntity
  8
DETAIL
100
AcDbCircle
 10
430.3455674171678
 20
131.3434221095156
 30
0.0
 40
0.0529701551798392
100
AcDbArc
 50
324.3428701752592
 51
19.49510056235043
  0
ARC
  5
340C0
330
2
100
AcDbEntity
  8
DETAIL
100
AcDbCircle
 10
430.2454444634236
 20
131.30960668049
 30
0.0
 40
0.1586456038630306
100
AcDbArc
 50
18.38362174873401
 51
161.616378251261
  0
ARC
  5
340C1
330
2
100
AcDbEntity
  8
DETAIL
100
AcDbCircle
 10
428.48576406582
 20
132.3015680464635
 30
0.0
 40
0.0529701551798427
100
AcDbArc
 50
160.5048995672276
 51
215.6571314953374
  0
ARC
  5
340C3
330
2
100
AcDbEntity
  8
DETAIL
100
AcDbCircle
 10
428.5334848191522
 20
132.3358047729218
 30
0.0
 40
0.1117019501224264
100
AcDbArc
 50
215.6571298247166
 51
240.0000000000002
  0
ARC
  5
340C4
330
2
100
AcDbEntity
  8
DETAIL
100
AcDbCircle
 10
428.5651056585892
 20
132.3905736734046
 30
0.0
 40
0.1749436289962771
100
AcDbArc
 50
240.0000000000002
 51
256.5505244738396
  0
ARC
  5
340C5
330
2
100
AcDbEntity
  8
DETAIL
100
AcDbCircle
 10
428.5858870195641
 20
132.477471777013
 30
0.0
 40
0.264292078197812
100
AcDbArc
 50
256.5505244738665
 51
283.4494978152164
  0
ARC
  5
340C7
330
2
100
AcDbEntity
  8
DETAIL
100
AcDbCircle
 10
428.606668380539
 20
132.3905736734044
 30
0.0
 40
0.1749436289961179
100
AcDbArc
 50
283.4494755261368
 51
300.0000000000001
  0
ARC
  5
340C8
330
2
100
AcDbEntity
  8
DETAIL
100
AcDbCircle
 10
428.6382892199759
 20
132.3358047729219
 30
0.0
 40
0.1117019501224736
100
AcDbArc
 50
300.0000000000001
 51
324.3428701752716
  0
ARC
  5
340C9
330
2
100
AcDbEntity
  8
DETAIL
100
AcDbCircle
 10
428.6860099733083
 20
132.3015680464635
 30
0.0
 40
0.0529701551798392
100
AcDbArc
 50
324.3428701752592
 51
19.49510056235043
  0
ARC
  5
340CB
330
2
100
AcDbEntity
  8
DETAIL
100
AcDbCircle
 10
428.5858870195641
 20
132.267752617438
 30
0.0
 40
0.1586456038630306
100
AcDbArc
 50
18.38362174873401
 51
161.616378251261
  0
LINE
  5
340CC
330
2
100
AcDbEntity
  8
DETAIL
100
AcDbLine
 10
449.5835018648702
 20
141.6476175369614
 30
0.0
 11
466.5771546610759
 21
131.8363275205569
 31
0.0
  0
LINE
  5
340CD
330
2
100
AcDbEntity
  8
DETAIL
100
AcDbLine
 10
469.0108003567121
 20
130.4312615230692
 30
0.0
 11
486.4017058813616
 21
120.3906175369614
 31
0.0
  0
LINE
  5
340CE
330
2
100
AcDbEntity
  8
DETAIL
100
AcDbLine
 10
449.5280639267462
 20
141.6156104284622
 30
0.0
 11
466.5217167229521
 21
131.8043204120577
 31
0.0
  0
LINE
  5
340CF
330
2
100
AcDbEntity
  8
DETAIL
100
AcDbLine
 10
469.0108003567121
 20
130.3672473060709
 30
0.0
 11
486.3462679432378
 21
120.3586104284623
 31
0.0
  0
ARC
  5
340D0
330
2
100
AcDbEntity
  8
DETAIL
100
AcDbCircle
 10
488.9875249149648
 20
120.3487756834036
 30
0.0
 40
0.0529701551798427
100
AcDbArc
 50
160.5048995672276
 51
215.6571314953374
  0
ARC
  5
340D2
330
2
100
AcDbEntity
  8
DETAIL
100
AcDbCircle
 10
489.0352456682971
 20
120.3830124098619
 30
0.0
 40
0.1117019501224264
100
AcDbArc
 50
215.6571298247166
 51
240.0000000000002
  0
ARC
  5
340D3
330
2
100
AcDbEntity
  8
DETAIL
100
AcDbCircle
 10
489.066866507734
 20
120.4377813103446
 30
0.0
 40
0.1749436289962771
100
AcDbArc
 50
240.0000000000002
 51
256.5505244738396
  0
ARC
  5
340D4
330
2
100
AcDbEntity
  8
DETAIL
100
AcDbCircle
 10
489.0876478687088
 20
120.5246794139531
 30
0.0
 40
0.264292078197812
100
AcDbArc
 50
256.5505244738665
 51
283.4494978152164
  0
ARC
  5
340D6
330
2
100
AcDbEntity
  8
DETAIL
100
AcDbCircle
 10
489.1084292296838
 20
120.4377813103445
 30
0.0
 40
0.1749436289961179
100
AcDbArc
 50
283.4494755261368
 51
300.0000000000001
  0
ARC
  5
340D7
330
2
100
AcDbEntity
  8
DETAIL
100
AcDbCircle
 10
489.1400500691207
 20
120.3830124098619
 30
0.0
 40
0.1117019501224754
100
AcDbArc
 50
300.0000000000004
 51
324.3428701752723
  0
ARC
  5
340D8
330
2
100
AcDbEntity
  8
DETAIL
100
AcDbCircle
 10
489.1877708224531
 20
120.3487756834036
 30
0.0
 40
0.0529701551798363
100
AcDbArc
 50
324.3428701752579
 51
19.49510056235043
  0
ARC
  5
340DA
330
2
100
AcDbEntity
  8
DETAIL
100
AcDbCircle
 10
489.0876478687088
 20
120.3149602543781
 30
0.0
 40
0.1586456038630306
100
AcDbArc
 50
18.38362174873401
 51
161.616378251261
  0
ELLIPSE
  5
340DB
330
2
100
AcDbEntity
  8
DETAIL
100
AcDbEllipse
 10
489.876199801345
 20
120.1926175369614
 30
0.0
 11
-0.0587877503999112
 21
0.1018233599996143
 31
0.0
210
0.0
220
0.0
230
1.0
 40
0.5773502700019561
 41
3.926842653586462
 42
4.71053268663163
  0
ELLIPSE
  5
340DC
330
2
100
AcDbEntity
  8
DETAIL
100
AcDbEllipse
 10
489.931625427187
 20
120.1926175369614
 30
0.0
 11
0.0391918336000003
 21
0.0678822400000202
 31
0.0
210
0.0
220
0.0
230
1.0
 40
0.577350269999849
 41
-0.7858426535901325
 42
0.7849536732056373
  0
ELLIPSE
  5
340DD
330
2
100
AcDbEntity
  8
DETAIL
100
AcDbEllipse
 10
489.931625427187
 20
120.1926175369613
 30
0.0
 11
0.019595916799995
 21
0.0339411200000304
 31
0.0
210
0.0
220
0.0
230
1.0
 40
0.5773502699996551
 41
-0.7858426535900779
 42
0.7849536732053754
  0
ARC
  5
340DE
330
2
100
AcDbEntity
  8
DETAIL
100
AcDbCircle
 10
450.0317447985503
 20
142.8399058201073
 30
0.0
 40
0.0529701551798427
100
AcDbArc
 50
160.5048995672276
 51
215.6571314953374
  0
ARC
  5
340E0
330
2
100
AcDbEntity
  8
DETAIL
100
AcDbCircle
 10
450.0794655518827
 20
142.8741425465655
 30
0.0
 40
0.1117019501224264
100
AcDbArc
 50
215.6571298247166
 51
240.0000000000002
  0
ARC
  5
340E1
330
2
100
AcDbEntity
  8
DETAIL
100
AcDbCircle
 10
450.1110863913196
 20
142.9289114470483
 30
0.0
 40
0.1749436289962771
100
AcDbArc
 50
240.0000000000002
 51
256.5505244738396
  0
ARC
  5
340E2
330
2
100
AcDbEntity
  8
DETAIL
100
AcDbCircle
 10
450.1318677522944
 20
143.0158095506568
 30
0.0
 40
0.264292078197812
100
AcDbArc
 50
256.5505244738665
 51
283.4494978152164
  0
ARC
  5
340E4
330
2
100
AcDbEntity
  8
DETAIL
100
AcDbCircle
 10
450.1526491132694
 20
142.9289114470481
 30
0.0
 40
0.1749436289961179
100
AcDbArc
 50
283.4494755261368
 51
300.0000000000001
  0
ARC
  5
340E5
330
2
100
AcDbEntity
  8
DETAIL
100
AcDbCircle
 10
450.1842699527062
 20
142.8741425465656
 30
0.0
 40
0.1117019501224754
100
AcDbArc
 50
300.0000000000004
 51
324.3428701752723
  0
ARC
  5
340E6
330
2
100
AcDbEntity
  8
DETAIL
100
AcDbCircle
 10
450.2319907060385
 20
142.8399058201073
 30
0.0
 40
0.0529701551798363
100
AcDbArc
 50
324.3428701752579
 51
19.49510056235043
  0
ARC
  5
340E8
330
2
100
AcDbEntity
  8
DETAIL
100
AcDbCircle
 10
450.1318677522944
 20
142.8060903910816
 30
0.0
 40
0.1586456038630306
100
AcDbArc
 50
18.38362174873401
 51
161.616378251261
  0
LINE
  5
340E9
330
2
100
AcDbEntity
  8
DETAIL
100
AcDbLine
 10
447.5518062675917
 20
143.7886175369614
 30
0.0
 11
448.3624060455339
 21
144.2566175369614
 31
0.0
  0
ARC
  5
340EA
330
2
100
AcDbEntity
  8
DETAIL
100
AcDbCircle
 10
448.3721873546907
 20
143.7980517570552
 30
0.0
 40
0.0529701551798427
100
AcDbArc
 50
160.5048995672276
 51
215.6571314953374
  0
ARC
  5
340EC
330
2
100
AcDbEntity
  8
DETAIL
100
AcDbCircle
 10
448.4199081080229
 20
143.8322884835135
 30
0.0
 40
0.1117019501224264
100
AcDbArc
 50
215.6571298247166
 51
240.0000000000002
  0
ARC
  5
340ED
330
2
100
AcDbEntity
  8
DETAIL
100
AcDbCircle
 10
448.4515289474598
 20
143.8870573839962
 30
0.0
 40
0.1749436289962771
100
AcDbArc
 50
240.0000000000002
 51
256.5505244738396
  0
ARC
  5
340EE
330
2
100
AcDbEntity
  8
DETAIL
100
AcDbCircle
 10
448.4723103084348
 20
143.9739554876046
 30
0.0
 40
0.264292078197812
100
AcDbArc
 50
256.5505244738665
 51
283.4494978152164
  0
ARC
  5
340F0
330
2
100
AcDbEntity
  8
DETAIL
100
AcDbCircle
 10
448.4930916694098
 20
143.887057383996
 30
0.0
 40
0.1749436289961179
100
AcDbArc
 50
283.4494755261368
 51
300.0000000000001
  0
ARC
  5
340F1
330
2
100
AcDbEntity
  8
DETAIL
100
AcDbCircle
 10
448.5247125088466
 20
143.8322884835135
 30
0.0
 40
0.1117019501224754
100
AcDbArc
 50
300.0000000000004
 51
324.3428701752723
  0
ARC
  5
340F2
330
2
100
AcDbEntity
  8
DETAIL
100
AcDbCircle
 10
448.5724332621789
 20
143.7980517570552
 30
0.0
 40
0.0529701551798363
100
AcDbArc
 50
324.3428701752579
 51
19.49510056235043
  0
ARC
  5
340F4
330
2
100
AcDbEntity
  8
DETAIL
100
AcDbCircle
 10
448.4723103084348
 20
143.7642363280296
 30
0.0
 40
0.1586456038630306
100
AcDbArc
 50
18.38362174873401
 51
161.616378251261
  0
LINE
  5
340F5
330
2
100
AcDbEntity
  8
DETAIL
100
AcDbLine
 10
447.5518062675917
 20
143.7566175369614
 30
0.0
 11
447.5518062675917
 21
143.7886175369614
 31
0.0
  0
ELLIPSE
  5
340F6
330
2
100
AcDbEntity
  8
DETAIL
100
AcDbEllipse
 10
448.3624060455339
 20
144.1926175369614
 30
0.0
 11
0.0391918336000031
 21
0.0678822399999828
 31
0.0
210
0.0
220
0.0
230
1.0
 40
0.577350270000078
 41
-0.0006286039294394
 42
0.7849536732052389
  0
ARC
  5
340FB
330
2
100
AcDbEntity
  8
DETAIL
100
AcDbCircle
 10
447.3712937258716
 20
140.9060311591344
 30
0.0
 40
0.0529701551798427
100
AcDbArc
 50
160.5048995672276
 51
215.6571314953374
  0
ARC
  5
340FD
330
2
100
AcDbEntity
  8
DETAIL
100
AcDbCircle
 10
447.4190144792038
 20
140.9402678855927
 30
0.0
 40
0.1117019501224264
100
AcDbArc
 50
215.6571298247166
 51
240.0000000000002
  0
ARC
  5
340FE
330
2
100
AcDbEntity
  8
DETAIL
100
AcDbCircle
 10
447.4506353186406
 20
140.9950367860754
 30
0.0
 40
0.1749436289962771
100
AcDbArc
 50
240.0000000000002
 51
256.5505244738396
  0
ARC
  5
340FF
330
2
100
AcDbEntity
  8
DETAIL
100
AcDbCircle
 10
447.4714166796156
 20
141.0819348896839
 30
0.0
 40
0.264292078197812
100
AcDbArc
 50
256.5505244738665
 51
283.4494978152164
  0
ARC
  5
34101
330
2
100
AcDbEntity
  8
DETAIL
100
AcDbCircle
 10
447.4921980405906
 20
140.9950367860753
 30
0.0
 40
0.1749436289961179
100
AcDbArc
 50
283.4494755261368
 51
300.0000000000001
  0
ARC
  5
34102
330
2
100
AcDbEntity
  8
DETAIL
100
AcDbCircle
 10
447.5238188800275
 20
140.9402678855927
 30
0.0
 40
0.1117019501224754
100
AcDbArc
 50
300.0000000000004
 51
324.3428701752723
  0
ARC
  5
34103
330
2
100
AcDbEntity
  8
DETAIL
100
AcDbCircle
 10
447.5715396333598
 20
140.9060311591344
 30
0.0
 40
0.0529701551798363
100
AcDbArc
 50
324.3428701752579
 51
19.49510056235043
  0
ARC
  5
34105
330
2
100
AcDbEntity
  8
DETAIL
100
AcDbCircle
 10
447.4714166796156
 20
140.8722157301089
 30
0.0
 40
0.1586456038630306
100
AcDbArc
 50
18.38362174873401
 51
161.616378251261
  0
ARC
  5
34106
330
2
100
AcDbEntity
  8
DETAIL
100
AcDbCircle
 10
443.9071921107339
 20
138.9060311591344
 30
0.0
 40
0.0529701551798427
100
AcDbArc
 50
160.5048995672276
 51
215.6571314953374
  0
ARC
  5
34108
330
2
100
AcDbEntity
  8
DETAIL
100
AcDbCircle
 10
443.9549128640662
 20
138.9402678855927
 30
0.0
 40
0.1117019501224264
100
AcDbArc
 50
215.6571298247166
 51
240.0000000000002
  0
ARC
  5
34109
330
2
100
AcDbEntity
  8
DETAIL
100
AcDbCircle
 10
443.9865337035031
 20
138.9950367860754
 30
0.0
 40
0.1749436289962771
100
AcDbArc
 50
240.0000000000002
 51
256.5505244738396
  0
ARC
  5
3410A
330
2
100
AcDbEntity
  8
DETAIL
100
AcDbCircle
 10
444.0073150644781
 20
139.0819348896839
 30
0.0
 40
0.264292078197812
100
AcDbArc
 50
256.5505244738665
 51
283.4494978152164
  0
ARC
  5
3410C
330
2
100
AcDbEntity
  8
DETAIL
100
AcDbCircle
 10
444.028096425453
 20
138.9950367860752
 30
0.0
 40
0.1749436289961179
100
AcDbArc
 50
283.4494755261368
 51
300.0000000000001
  0
ARC
  5
3410D
330
2
100
AcDbEntity
  8
DETAIL
100
AcDbCircle
 10
444.0597172648899
 20
138.9402678855927
 30
0.0
 40
0.1117019501224736
100
AcDbArc
 50
300.0000000000001
 51
324.3428701752716
  0
ARC
  5
3410E
330
2
100
AcDbEntity
  8
DETAIL
100
AcDbCircle
 10
444.1074380182222
 20
138.9060311591344
 30
0.0
 40
0.0529701551798392
100
AcDbArc
 50
324.3428701752592
 51
19.49510056235043
  0
ARC
  5
34110
330
2
100
AcDbEntity
  8
DETAIL
100
AcDbCircle
 10
444.0073150644781
 20
138.8722157301088
 30
0.0
 40
0.1586456038630306
100
AcDbArc
 50
18.38362174873401
 51
161.616378251261
  0
ARC
  5
34111
330
2
100
AcDbEntity
  8
DETAIL
100
AcDbCircle
 10
440.4430904955961
 20
136.9060311591344
 30
0.0
 40
0.0529701551798427
100
AcDbArc
 50
160.5048995672276
 51
215.6571314953374
  0
ARC
  5
34113
330
2
100
AcDbEntity
  8
DETAIL
100
AcDbCircle
 10
440.4908112489283
 20
136.9402678855927
 30
0.0
 40
0.1117019501224264
100
AcDbArc
 50
215.6571298247166
 51
240.0000000000002
  0
ARC
  5
34114
330
2
100
AcDbEntity
  8
DETAIL
100
AcDbCircle
 10
440.5224320883653
 20
136.9950367860754
 30
0.0
 40
0.1749436289962771
100
AcDbArc
 50
240.0000000000002
 51
256.5505244738396
  0
ARC
  5
34115
330
2
100
AcDbEntity
  8
DETAIL
100
AcDbCircle
 10
440.5432134493402
 20
137.0819348896839
 30
0.0
 40
0.264292078197812
100
AcDbArc
 50
256.5505244738665
 51
283.4494978152164
  0
ARC
  5
34117
330
2
100
AcDbEntity
  8
DETAIL
100
AcDbCircle
 10
440.5639948103152
 20
136.9950367860752
 30
0.0
 40
0.1749436289961179
100
AcDbArc
 50
283.4494755261368
 51
300.0000000000001
  0
ARC
  5
34118
330
2
100
AcDbEntity
  8
DETAIL
100
AcDbCircle
 10
440.5956156497519
 20
136.9402678855927
 30
0.0
 40
0.1117019501224736
100
AcDbArc
 50
300.0000000000001
 51
324.3428701752716
  0
ARC
  5
34119
330
2
100
AcDbEntity
  8
DETAIL
100
AcDbCircle
 10
440.6433364030844
 20
136.9060311591344
 30
0.0
 40
0.0529701551798392
100
AcDbArc
 50
324.3428701752592
 51
19.49510056235043
  0
ARC
  5
3411B
330
2
100
AcDbEntity
  8
DETAIL
100
AcDbCircle
 10
440.5432134493402
 20
136.8722157301088
 30
0.0
 40
0.1586456038630306
100
AcDbArc
 50
18.38362174873401
 51
161.616378251261
  0
ARC
  5
3411C
330
2
100
AcDbEntity
  8
DETAIL
100
AcDbCircle
 10
436.9789888804582
 20
134.9060311591344
 30
0.0
 40
0.0529701551798427
100
AcDbArc
 50
160.5048995672276
 51
215.6571314953374
  0
ARC
  5
3411E
330
2
100
AcDbEntity
  8
DETAIL
100
AcDbCircle
 10
437.0267096337905
 20
134.9402678855927
 30
0.0
 40
0.1117019501224264
100
AcDbArc
 50
215.6571298247166
 51
240.0000000000002
  0
ARC
  5
3411F
330
2
100
AcDbEntity
  8
DETAIL
100
AcDbCircle
 10
437.0583304732274
 20
134.9950367860754
 30
0.0
 40
0.1749436289962771
100
AcDbArc
 50
240.0000000000002
 51
256.5505244738396
  0
ARC
  5
34120
330
2
100
AcDbEntity
  8
DETAIL
100
AcDbCircle
 10
437.0791118342023
 20
135.0819348896839
 30
0.0
 40
0.264292078197812
100
AcDbArc
 50
256.5505244738665
 51
283.4494978152164
  0
ARC
  5
34122
330
2
100
AcDbEntity
  8
DETAIL
100
AcDbCircle
 10
437.0998931951773
 20
134.9950367860753
 30
0.0
 40
0.1749436289961179
100
AcDbArc
 50
283.4494755261368
 51
300.0000000000001
  0
ARC
  5
34123
330
2
100
AcDbEntity
  8
DETAIL
100
AcDbCircle
 10
437.1315140346141
 20
134.9402678855927
 30
0.0
 40
0.1117019501224736
100
AcDbArc
 50
300.0000000000001
 51
324.3428701752716
  0
ARC
  5
34124
330
2
100
AcDbEntity
  8
DETAIL
100
AcDbCircle
 10
437.1792347879464
 20
134.9060311591344
 30
0.0
 40
0.0529701551798392
100
AcDbArc
 50
324.3428701752592
 51
19.49510056235043
  0
ARC
  5
34126
330
2
100
AcDbEntity
  8
DETAIL
100
AcDbCircle
 10
437.0791118342023
 20
134.8722157301089
 30
0.0
 40
0.1586456038630306
100
AcDbArc
 50
18.38362174873401
 51
161.616378251261
  0
ARC
  5
34127
330
2
100
AcDbEntity
  8
DETAIL
100
AcDbCircle
 10
433.5148872653205
 20
132.9060311591344
 30
0.0
 40
0.0529701551798427
100
AcDbArc
 50
160.5048995672276
 51
215.6571314953374
  0
ARC
  5
34129
330
2
100
AcDbEntity
  8
DETAIL
100
AcDbCircle
 10
433.5626080186528
 20
132.9402678855927
 30
0.0
 40
0.1117019501224264
100
AcDbArc
 50
215.6571298247166
 51
240.0000000000002
  0
ARC
  5
3412A
330
2
100
AcDbEntity
  8
DETAIL
100
AcDbCircle
 10
433.5942288580898
 20
132.9950367860754
 30
0.0
 40
0.1749436289962771
100
AcDbArc
 50
240.0000000000002
 51
256.5505244738396
  0
ARC
  5
3412B
330
2
100
AcDbEntity
  8
DETAIL
100
AcDbCircle
 10
433.6150102190647
 20
133.0819348896839
 30
0.0
 40
0.264292078197812
100
AcDbArc
 50
256.5505244738665
 51
283.4494978152164
  0
ARC
  5
3412D
330
2
100
AcDbEntity
  8
DETAIL
100
AcDbCircle
 10
433.6357915800396
 20
132.9950367860753
 30
0.0
 40
0.1749436289961179
100
AcDbArc
 50
283.4494755261368
 51
300.0000000000001
  0
ARC
  5
3412E
330
2
100
AcDbEntity
  8
DETAIL
100
AcDbCircle
 10
433.6674124194765
 20
132.9402678855927
 30
0.0
 40
0.1117019501224736
100
AcDbArc
 50
300.0000000000001
 51
324.3428701752716
  0
ARC
  5
3412F
330
2
100
AcDbEntity
  8
DETAIL
100
AcDbCircle
 10
433.7151331728088
 20
132.9060311591344
 30
0.0
 40
0.0529701551798392
100
AcDbArc
 50
324.3428701752592
 51
19.49510056235043
  0
ARC
  5
34131
330
2
100
AcDbEntity
  8
DETAIL
100
AcDbCircle
 10
433.6150102190647
 20
132.8722157301089
 30
0.0
 40
0.1586456038630306
100
AcDbArc
 50
18.38362174873401
 51
161.616378251261
  0
ARC
  5
34132
330
2
100
AcDbEntity
  8
DETAIL
100
AcDbCircle
 10
486.0843613208394
 20
118.5390240527031
 30
0.0
 40
0.0529701551798427
100
AcDbArc
 50
160.5048995672276
 51
215.6571314953374
  0
ARC
  5
34134
330
2
100
AcDbEntity
  8
DETAIL
100
AcDbCircle
 10
486.1320820741718
 20
118.5732607791614
 30
0.0
 40
0.1117019501224253
100
AcDbArc
 50
215.6571298247166
 51
240.0000000000002
  0
ARC
  5
34135
330
2
100
AcDbEntity
  8
DETAIL
100
AcDbCircle
 10
486.1637029136087
 20
118.6280296796441
 30
0.0
 40
0.1749436289962756
100
AcDbArc
 50
239.9999999999999
 51
256.5505244738396
  0
ARC
  5
34136
330
2
100
AcDbEntity
  8
DETAIL
100
AcDbCircle
 10
486.1844842745837
 20
118.7149277832526
 30
0.0
 40
0.264292078197812
100
AcDbArc
 50
256.5505244738665
 51
283.4494978152164
  0
ARC
  5
34138
330
2
100
AcDbEntity
  8
DETAIL
100
AcDbCircle
 10
486.2052656355586
 20
118.628029679644
 30
0.0
 40
0.1749436289961179
100
AcDbArc
 50
283.4494755261368
 51
300.0000000000001
  0
ARC
  5
34139
330
2
100
AcDbEntity
  8
DETAIL
100
AcDbCircle
 10
486.2368864749953
 20
118.5732607791614
 30
0.0
 40
0.1117019501224754
100
AcDbArc
 50
300.0000000000004
 51
324.3428701752723
  0
ARC
  5
3413A
330
2
100
AcDbEntity
  8
DETAIL
100
AcDbCircle
 10
486.2846072283278
 20
118.5390240527031
 30
0.0
 40
0.0529701551798363
100
AcDbArc
 50
324.3428701752579
 51
19.49510056235043
  0
ARC
  5
3413C
330
2
100
AcDbEntity
  8
DETAIL
100
AcDbCircle
 10
486.1844842745837
 20
118.5052086236775
 30
0.0
 40
0.1586456038630306
100
AcDbArc
 50
18.38362174873401
 51
161.616378251261
  0
ARC
  5
3413D
330
2
100
AcDbEntity
  8
DETAIL
100
AcDbCircle
 10
482.6202597057017
 20
116.5390240527031
 30
0.0
 40
0.0529701551798427
100
AcDbArc
 50
160.5048995672276
 51
215.6571314953374
  0
ARC
  5
3413F
330
2
100
AcDbEntity
  8
DETAIL
100
AcDbCircle
 10
482.6679804590339
 20
116.5732607791614
 30
0.0
 40
0.1117019501224253
100
AcDbArc
 50
215.6571298247166
 51
240.0000000000002
  0
ARC
  5
34140
330
2
100
AcDbEntity
  8
DETAIL
100
AcDbCircle
 10
482.6996012984708
 20
116.6280296796441
 30
0.0
 40
0.1749436289962756
100
AcDbArc
 50
239.9999999999999
 51
256.5505244738396
  0
ARC
  5
34141
330
2
100
AcDbEntity
  8
DETAIL
100
AcDbCircle
 10
482.7203826594458
 20
116.7149277832526
 30
0.0
 40
0.264292078197812
100
AcDbArc
 50
256.5505244738665
 51
283.4494978152164
  0
ARC
  5
34143
330
2
100
AcDbEntity
  8
DETAIL
100
AcDbCircle
 10
482.7411640204208
 20
116.628029679644
 30
0.0
 40
0.1749436289961179
100
AcDbArc
 50
283.4494755261368
 51
300.0000000000001
  0
ARC
  5
34144
330
2
100
AcDbEntity
  8
DETAIL
100
AcDbCircle
 10
482.7727848598576
 20
116.5732607791614
 30
0.0
 40
0.1117019501224754
100
AcDbArc
 50
300.0000000000004
 51
324.3428701752723
  0
ARC
  5
34145
330
2
100
AcDbEntity
  8
DETAIL
100
AcDbCircle
 10
482.8205056131898
 20
116.5390240527031
 30
0.0
 40
0.0529701551798363
100
AcDbArc
 50
324.3428701752579
 51
19.49510056235043
  0
ARC
  5
34147
330
2
100
AcDbEntity
  8
DETAIL
100
AcDbCircle
 10
482.7203826594458
 20
116.5052086236775
 30
0.0
 40
0.1586456038630306
100
AcDbArc
 50
18.38362174873401
 51
161.616378251261
  0
ARC
  5
34148
330
2
100
AcDbEntity
  8
DETAIL
100
AcDbCircle
 10
479.1561580905638
 20
114.5390240527031
 30
0.0
 40
0.0529701551798427
100
AcDbArc
 50
160.5048995672276
 51
215.6571314953374
  0
ARC
  5
3414A
330
2
100
AcDbEntity
  8
DETAIL
100
AcDbCircle
 10
479.2038788438961
 20
114.5732607791614
 30
0.0
 40
0.1117019501224253
100
AcDbArc
 50
215.6571298247166
 51
240.0000000000002
  0
ARC
  5
3414B
330
2
100
AcDbEntity
  8
DETAIL
100
AcDbCircle
 10
479.235499683333
 20
114.6280296796441
 30
0.0
 40
0.1749436289962756
100
AcDbArc
 50
239.9999999999999
 51
256.5505244738396
  0
ARC
  5
3414C
330
2
100
AcDbEntity
  8
DETAIL
100
AcDbCircle
 10
479.2562810443079
 20
114.7149277832526
 30
0.0
 40
0.264292078197812
100
AcDbArc
 50
256.5505244738665
 51
283.4494978152164
  0
ARC
  5
3414E
330
2
100
AcDbEntity
  8
DETAIL
100
AcDbCircle
 10
479.2770624052829
 20
114.628029679644
 30
0.0
 40
0.1749436289961179
100
AcDbArc
 50
283.4494755261368
 51
300.0000000000001
  0
ARC
  5
3414F
330
2
100
AcDbEntity
  8
DETAIL
100
AcDbCircle
 10
479.3086832447198
 20
114.5732607791614
 30
0.0
 40
0.1117019501224754
100
AcDbArc
 50
300.0000000000004
 51
324.3428701752723
  0
ARC
  5
34150
330
2
100
AcDbEntity
  8
DETAIL
100
AcDbCircle
 10
479.3564039980521
 20
114.5390240527031
 30
0.0
 40
0.0529701551798363
100
AcDbArc
 50
324.3428701752579
 51
19.49510056235043
  0
ARC
  5
34152
330
2
100
AcDbEntity
  8
DETAIL
100
AcDbCircle
 10
479.2562810443079
 20
114.5052086236775
 30
0.0
 40
0.1586456038630306
100
AcDbArc
 50
18.38362174873401
 51
161.616378251261
  0
ARC
  5
34153
330
2
100
AcDbEntity
  8
DETAIL
100
AcDbCircle
 10
475.6920564754262
 20
112.5390240527031
 30
0.0
 40
0.0529701551798427
100
AcDbArc
 50
160.5048995672276
 51
215.6571314953374
  0
ARC
  5
34155
330
2
100
AcDbEntity
  8
DETAIL
100
AcDbCircle
 10
475.7397772287584
 20
112.5732607791614
 30
0.0
 40
0.1117019501224253
100
AcDbArc
 50
215.6571298247166
 51
240.0000000000002
  0
ARC
  5
34156
330
2
100
AcDbEntity
  8
DETAIL
100
AcDbCircle
 10
475.7713980681955
 20
112.6280296796441
 30
0.0
 40
0.1749436289962756
100
AcDbArc
 50
239.9999999999999
 51
256.5505244738396
  0
ARC
  5
34157
330
2
100
AcDbEntity
  8
DETAIL
100
AcDbCircle
 10
475.7921794291704
 20
112.7149277832526
 30
0.0
 40
0.264292078197812
100
AcDbArc
 50
256.5505244738665
 51
283.4494978152164
  0
ARC
  5
34159
330
2
100
AcDbEntity
  8
DETAIL
100
AcDbCircle
 10
475.8129607901453
 20
112.628029679644
 30
0.0
 40
0.1749436289961179
100
AcDbArc
 50
283.4494755261368
 51
300.0000000000001
  0
ARC
  5
3415A
330
2
100
AcDbEntity
  8
DETAIL
100
AcDbCircle
 10
475.8445816295822
 20
112.5732607791614
 30
0.0
 40
0.1117019501224754
100
AcDbArc
 50
300.0000000000004
 51
324.3428701752723
  0
ARC
  5
3415B
330
2
100
AcDbEntity
  8
DETAIL
100
AcDbCircle
 10
475.8923023829145
 20
112.5390240527031
 30
0.0
 40
0.0529701551798363
100
AcDbArc
 50
324.3428701752579
 51
19.49510056235043
  0
ARC
  5
3415D
330
2
100
AcDbEntity
  8
DETAIL
100
AcDbCircle
 10
475.7921794291704
 20
112.5052086236776
 30
0.0
 40
0.1586456038630306
100
AcDbArc
 50
18.38362174873401
 51
161.616378251261
  0
ARC
  5
3415E
330
2
100
AcDbEntity
  8
DETAIL
100
AcDbCircle
 10
472.2279548602885
 20
110.5390240527031
 30
0.0
 40
0.0529701551798424
100
AcDbArc
 50
160.5048995672283
 51
215.6571314953374
  0
ARC
  5
34160
330
2
100
AcDbEntity
  8
DETAIL
100
AcDbCircle
 10
472.2756756136207
 20
110.5732607791614
 30
0.0
 40
0.1117019501224253
100
AcDbArc
 50
215.6571298247166
 51
240.0000000000002
  0
ARC
  5
34161
330
2
100
AcDbEntity
  8
DETAIL
100
AcDbCircle
 10
472.3072964530577
 20
110.6280296796441
 30
0.0
 40
0.1749436289962763
100
AcDbArc
 50
240.0000000000002
 51
256.5505244738396
  0
ARC
  5
34162
330
2
100
AcDbEntity
  8
DETAIL
100
AcDbCircle
 10
472.3280778140326
 20
110.7149277832526
 30
0.0
 40
0.264292078197812
100
AcDbArc
 50
256.5505244738665
 51
283.4494978152164
  0
ARC
  5
34164
330
2
100
AcDbEntity
  8
DETAIL
100
AcDbCircle
 10
472.3488591750076
 20
110.628029679644
 30
0.0
 40
0.1749436289961171
100
AcDbArc
 50
283.4494755261368
 51
300.0000000000001
  0
ARC
  5
34165
330
2
100
AcDbEntity
  8
DETAIL
100
AcDbCircle
 10
472.3804800144443
 20
110.5732607791614
 30
0.0
 40
0.1117019501224754
100
AcDbArc
 50
300.0000000000004
 51
324.3428701752723
  0
ARC
  5
34166
330
2
100
AcDbEntity
  8
DETAIL
100
AcDbCircle
 10
472.4282007677767
 20
110.5390240527031
 30
0.0
 40
0.0529701551798363
100
AcDbArc
 50
324.3428701752579
 51
19.49510056235043
  0
ARC
  5
34168
330
2
100
AcDbEntity
  8
DETAIL
100
AcDbCircle
 10
472.3280778140326
 20
110.5052086236776
 30
0.0
 40
0.1586456038630306
100
AcDbArc
 50
18.38362174873401
 51
161.616378251261
  0
LINE
  5
34169
330
2
100
AcDbEntity
  8
DETAIL
100
AcDbLine
 10
487.918110206536
 20
120.062113982301
 30
0.0
 11
488.2550002454605
 21
120.2566175369613
 31
0.0
  0
LINE
  5
3416A
330
2
100
AcDbEntity
  8
DETAIL
100
AcDbLine
 10
470.4460476851853
 20
109.070613982301
 30
0.0
 11
470.0130411401016
 21
108.8206175369362
 31
0.0
  0
LINE
  5
3416B
330
2
100
AcDbEntity
  8
DETAIL
100
AcDbLine
 10
448.2428883879637
 20
143.0776210887324
 30
0.0
 11
449.1089137917482
 21
142.5776210887324
 31
0.0
  0
LINE
  5
3416C
330
2
100
AcDbEntity
  8
DETAIL
100
AcDbLine
 10
449.6285290340188
 20
142.1836210887324
 30
0.0
 11
449.6501796691134
 21
142.1461210887324
 31
0.0
  0
LINE
  5
3416E
330
2
100
AcDbEntity
  8
DETAIL
100
AcDbLine
 10
449.6718303042081
 20
142.1586210887324
 30
0.0
 11
449.9073892140375
 21
142.0226210887324
 31
0.0
  0
LINE
  5
3416F
330
2
100
AcDbEntity
  8
DETAIL
100
AcDbLine
 10
449.9073892140375
 20
142.0226210887324
 30
0.0
 11
449.9749391955326
 21
141.9056210887324
 31
0.0
  0
LINE
  5
34170
330
2
100
AcDbEntity
  8
DETAIL
100
AcDbLine
 10
449.1089137917482
 20
142.5776210887324
 30
0.0
 11
449.190320179704
 21
142.4366210887324
 31
0.0
  0
LINE
  5
34171
330
2
100
AcDbEntity
  8
DETAIL
100
AcDbLine
 10
449.190320179704
 20
142.4366210887324
 30
0.0
 11
449.6285290340188
 21
142.1836210887324
 31
0.0
  0
LINE
  5
34172
330
2
100
AcDbEntity
  8
DETAIL
100
AcDbLine
 10
430.0563549084905
 20
132.5776210887324
 30
0.0
 11
448.2428883879637
 21
143.0776210887324
 31
0.0
  0
LINE
  5
34173
330
2
100
AcDbEntity
  8
DETAIL
100
AcDbLine
 10
430.9223803122751
 20
132.0776210887324
 30
0.0
 11
449.1089137917482
 21
142.5776210887324
 31
0.0
  0
LINE
  5
34174
330
2
100
AcDbEntity
  8
DETAIL
100
AcDbLine
 10
431.0037867002307
 20
131.9366210887324
 30
0.0
 11
449.190320179704
 21
142.4366210887324
 31
0.0
  0
LINE
  5
34175
330
2
100
AcDbEntity
  8
DETAIL
100
AcDbLine
 10
431.7208557345643
 20
131.5226210887324
 30
0.0
 11
449.9073892140375
 21
142.0226210887324
 31
0.0
  0
LINE
  5
34176
330
2
100
AcDbEntity
  8
DETAIL
100
AcDbLine
 10
431.7884057160595
 20
131.4056210887324
 30
0.0
 11
449.9749391955326
 21
141.9056210887324
 31
0.0
  0
LINE
  5
34177
330
2
100
AcDbEntity
  8
DETAIL
100
AcDbLine
 10
431.4419955545458
 20
131.6836210887324
 30
0.0
 11
433.4829466041656
 21
132.8619647266332
 31
0.0
  0
LINE
  5
34179
330
2
100
AcDbEntity
  8
DETAIL
100
AcDbLine
 10
430.5759701507613
 20
132.1746210887324
 30
0.0
 11
430.5543195156666
 21
132.2121210887324
 31
0.0
  0
LINE
  5
3417A
330
2
100
AcDbEntity
  8
DETAIL
100
AcDbLine
 10
430.0563549084905
 20
132.5776210887324
 30
0.0
 11
430.9223803122751
 21
132.0776210887324
 31
0.0
  0
LINE
  5
3417B
330
2
100
AcDbEntity
  8
DETAIL
100
AcDbLine
 10
430.5976207858558
 20
132.1871210887324
 30
0.0
 11
430.5759701507613
 21
132.1746210887324
 31
0.0
  0
LINE
  5
3417C
330
2
100
AcDbEntity
  8
DETAIL
100
AcDbLine
 10
430.8409739243193
 20
132.0466210887324
 30
0.0
 11
430.5976207858558
 21
132.1871210887324
 31
0.0
  0
LINE
  5
3417D
330
2
100
AcDbEntity
  8
DETAIL
100
AcDbLine
 10
431.7208557345643
 20
131.5226210887324
 30
0.0
 11
431.7884057160595
 21
131.4056210887324
 31
0.0
  0
LINE
  5
3417E
330
2
100
AcDbEntity
  8
DETAIL
100
AcDbLine
 10
431.4852968247349
 20
131.6586210887324
 30
0.0
 11
431.7208557345643
 21
131.5226210887324
 31
0.0
  0
LINE
  5
3417F
330
2
100
AcDbEntity
  8
DETAIL
100
AcDbLine
 10
431.4636461896403
 20
131.6461210887324
 30
0.0
 11
433.5231571859726
 21
132.8351803168637
 31
0.0
  0
LINE
  5
34180
330
2
100
AcDbEntity
  8
DETAIL
100
AcDbLine
 10
431.4419955545458
 20
131.6836210887324
 30
0.0
 11
431.4636461896403
 21
131.6461210887324
 31
0.0
  0
LINE
  5
34181
330
2
100
AcDbEntity
  8
DETAIL
100
AcDbLine
 10
431.0037867002307
 20
131.9366210887324
 30
0.0
 11
431.4419955545458
 21
131.6836210887324
 31
0.0
  0
LINE
  5
34182
330
2
100
AcDbEntity
  8
DETAIL
100
AcDbLine
 10
431.7884057160595
 20
131.4056210887324
 30
0.0
 11
430.9223803122751
 21
131.9056210887324
 31
0.0
  0
LINE
  5
34183
330
2
100
AcDbEntity
  8
DETAIL
100
AcDbLine
 10
430.9223803122751
 20
131.9056210887324
 30
0.0
 11
430.8409739243193
 21
132.0466210887324
 31
0.0
  0
LINE
  5
34184
330
2
100
AcDbEntity
  8
DETAIL
100
AcDbLine
 10
430.9223803122751
 20
132.0776210887324
 30
0.0
 11
431.0037867002307
 21
131.9366210887324
 31
0.0
  0
LINE
  5
34185
330
2
100
AcDbEntity
  8
DETAIL
100
AcDbLine
 10
430.5543195156666
 20
132.2121210887324
 30
0.0
 11
430.1239048899859
 21
132.4606210887324
 31
0.0
  0
LINE
  5
34186
330
2
100
AcDbEntity
  8
DETAIL
100
AcDbLine
 10
430.1239048899859
 20
132.4606210887324
 30
0.0
 11
430.0563549084905
 21
132.5776210887324
 31
0.0
  0
LINE
  5
34187
330
2
100
AcDbEntity
  8
DETAIL
100
AcDbLine
 10
447.6013565598604
 20
140.9632325150831
 30
0.0
 11
449.6718303042081
 21
142.1586210887324
 31
0.0
  0
LINE
  5
34188
330
2
100
AcDbEntity
  8
DETAIL
100
AcDbLine
 10
447.5710049941621
 20
140.9957090304569
 30
0.0
 11
449.6285290340191
 21
142.1836210887324
 31
0.0
  0
LINE
  5
34189
330
2
100
AcDbEntity
  8
DETAIL
100
AcDbLine
 10
444.1069033790243
 20
138.9957090304569
 30
0.0
 11
447.3393530647165
 21
140.8619647266331
 31
0.0
  0
LINE
  5
3418A
330
2
100
AcDbEntity
  8
DETAIL
100
AcDbLine
 10
444.1372549447226
 20
138.9632325150832
 30
0.0
 11
447.3795636465235
 21
140.8351803168637
 31
0.0
  0
LINE
  5
3418B
330
2
100
AcDbEntity
  8
DETAIL
100
AcDbLine
 10
440.6731533295848
 20
136.9632325150831
 30
0.0
 11
443.9154620313858
 21
138.8351803168637
 31
0.0
  0
LINE
  5
3418C
330
2
100
AcDbEntity
  8
DETAIL
100
AcDbLine
 10
440.6428017638868
 20
136.9957090304569
 30
0.0
 11
443.8752514495788
 21
138.8619647266332
 31
0.0
  0
LINE
  5
3418D
330
2
100
AcDbEntity
  8
DETAIL
100
AcDbLine
 10
433.7449500993094
 20
132.9632325150831
 30
0.0
 11
436.9872588011102
 21
134.8351803168637
 31
0.0
  0
LINE
  5
3418E
330
2
100
AcDbEntity
  8
DETAIL
100
AcDbLine
 10
433.7145985336111
 20
132.9957090304569
 30
0.0
 11
436.9470482193032
 21
134.8619647266332
 31
0.0
  0
LINE
  5
3418F
330
2
100
AcDbEntity
  8
DETAIL
100
AcDbLine
 10
486.9559559829315
 20
120.7106139823012
 30
0.0
 11
487.8219813867159
 21
120.2106139823012
 31
0.0
  0
LINE
  5
34190
330
2
100
AcDbEntity
  8
DETAIL
100
AcDbLine
 10
488.3415966289867
 20
119.8166139823012
 30
0.0
 11
488.3632472640813
 21
119.7791139823012
 31
0.0
  0
LINE
  5
34192
330
2
100
AcDbEntity
  8
DETAIL
100
AcDbLine
 10
488.384897899176
 20
119.7916139823012
 30
0.0
 11
488.6204568090053
 21
119.6556139823012
 31
0.0
  0
LINE
  5
34193
330
2
100
AcDbEntity
  8
DETAIL
100
AcDbLine
 10
488.6204568090053
 20
119.6556139823012
 30
0.0
 11
488.6880067905004
 21
119.5386139823012
 31
0.0
  0
LINE
  5
34194
330
2
100
AcDbEntity
  8
DETAIL
100
AcDbLine
 10
487.8219813867159
 20
120.2106139823012
 30
0.0
 11
487.9033877746717
 21
120.0696139823012
 31
0.0
  0
LINE
  5
34195
330
2
100
AcDbEntity
  8
DETAIL
100
AcDbLine
 10
487.9033877746717
 20
120.0696139823012
 30
0.0
 11
488.3415966289867
 21
119.8166139823012
 31
0.0
  0
LINE
  5
34196
330
2
100
AcDbEntity
  8
DETAIL
100
AcDbLine
 10
468.7694225034584
 20
110.2106139823012
 30
0.0
 11
486.9559559829315
 21
120.7106139823012
 31
0.0
  0
LINE
  5
34197
330
2
100
AcDbEntity
  8
DETAIL
100
AcDbLine
 10
469.635447907243
 20
109.7106139823011
 30
0.0
 11
487.8219813867159
 21
120.2106139823012
 31
0.0
  0
LINE
  5
34198
330
2
100
AcDbEntity
  8
DETAIL
100
AcDbLine
 10
469.7168542951986
 20
109.5696139823012
 30
0.0
 11
487.9033877746717
 21
120.0696139823012
 31
0.0
  0
LINE
  5
34199
330
2
100
AcDbEntity
  8
DETAIL
100
AcDbLine
 10
470.433923329532
 20
109.1556139823012
 30
0.0
 11
488.6204568090053
 21
119.6556139823012
 31
0.0
  0
LINE
  5
3419A
330
2
100
AcDbEntity
  8
DETAIL
100
AcDbLine
 10
470.5014733110274
 20
109.0386139823012
 30
0.0
 11
488.6880067905004
 21
119.5386139823012
 31
0.0
  0
LINE
  5
3419B
330
2
100
AcDbEntity
  8
DETAIL
100
AcDbLine
 10
470.1550631495136
 20
109.3166139823012
 30
0.0
 11
472.1960141991332
 21
110.494957620202
 31
0.0
  0
LINE
  5
3419D
330
2
100
AcDbEntity
  8
DETAIL
100
AcDbLine
 10
469.2890377457291
 20
109.8076139823012
 30
0.0
 11
469.2673871106345
 21
109.8451139823012
 31
0.0
  0
LINE
  5
3419E
330
2
100
AcDbEntity
  8
DETAIL
100
AcDbLine
 10
468.7694225034584
 20
110.2106139823012
 30
0.0
 11
469.635447907243
 21
109.7106139823011
 31
0.0
  0
LINE
  5
3419F
330
2
100
AcDbEntity
  8
DETAIL
100
AcDbLine
 10
469.3106883808236
 20
109.8201139823012
 30
0.0
 11
469.2890377457291
 21
109.8076139823012
 31
0.0
  0
LINE
  5
341A0
330
2
100
AcDbEntity
  8
DETAIL
100
AcDbLine
 10
469.5540415192872
 20
109.6796139823012
 30
0.0
 11
469.3106883808236
 21
109.8201139823012
 31
0.0
  0
LINE
  5
341A1
330
2
100
AcDbEntity
  8
DETAIL
100
AcDbLine
 10
470.433923329532
 20
109.1556139823012
 30
0.0
 11
470.5014733110274
 21
109.0386139823012
 31
0.0
  0
LINE
  5
341A2
330
2
100
AcDbEntity
  8
DETAIL
100
AcDbLine
 10
470.1983644197028
 20
109.2916139823012
 30
0.0
 11
470.433923329532
 21
109.1556139823012
 31
0.0
  0
LINE
  5
341A3
330
2
100
AcDbEntity
  8
DETAIL
100
AcDbLine
 10
470.1767137846082
 20
109.2791139823012
 30
0.0
 11
472.2362247809401
 21
110.4681732104324
 31
0.0
  0
LINE
  5
341A4
330
2
100
AcDbEntity
  8
DETAIL
100
AcDbLine
 10
470.1550631495136
 20
109.3166139823012
 30
0.0
 11
470.1767137846082
 21
109.2791139823012
 31
0.0
  0
LINE
  5
341A5
330
2
100
AcDbEntity
  8
DETAIL
100
AcDbLine
 10
469.7168542951986
 20
109.5696139823012
 30
0.0
 11
470.1550631495136
 21
109.3166139823012
 31
0.0
  0
LINE
  5
341A6
330
2
100
AcDbEntity
  8
DETAIL
100
AcDbLine
 10
470.5014733110274
 20
109.0386139823012
 30
0.0
 11
469.635447907243
 21
109.5386139823012
 31
0.0
  0
LINE
  5
341A7
330
2
100
AcDbEntity
  8
DETAIL
100
AcDbLine
 10
469.635447907243
 20
109.5386139823012
 30
0.0
 11
469.5540415192872
 21
109.6796139823012
 31
0.0
  0
LINE
  5
341A8
330
2
100
AcDbEntity
  8
DETAIL
100
AcDbLine
 10
469.635447907243
 20
109.7106139823011
 30
0.0
 11
469.7168542951986
 21
109.5696139823012
 31
0.0
  0
LINE
  5
341A9
330
2
100
AcDbEntity
  8
DETAIL
100
AcDbLine
 10
469.2673871106345
 20
109.8451139823012
 30
0.0
 11
468.8369724849536
 21
110.0936139823011
 31
0.0
  0
LINE
  5
341AA
330
2
100
AcDbEntity
  8
DETAIL
100
AcDbLine
 10
468.8369724849536
 20
110.0936139823011
 30
0.0
 11
468.7694225034584
 21
110.2106139823012
 31
0.0
  0
LINE
  5
341AB
330
2
100
AcDbEntity
  8
DETAIL
100
AcDbLine
 10
472.4580176942771
 20
110.5962254086519
 30
0.0
 11
475.7003263960781
 21
112.4681732104325
 31
0.0
  0
LINE
  5
341AC
330
2
100
AcDbEntity
  8
DETAIL
100
AcDbLine
 10
472.427666128579
 20
110.6287019240257
 30
0.0
 11
475.6601158142711
 21
112.494957620202
 31
0.0
  0
LINE
  5
341AD
330
2
100
AcDbEntity
  8
DETAIL
100
AcDbLine
 10
475.8917677437167
 20
112.6287019240257
 30
0.0
 11
479.1242174294088
 21
114.494957620202
 31
0.0
  0
LINE
  5
341AE
330
2
100
AcDbEntity
  8
DETAIL
100
AcDbLine
 10
475.9221193094151
 20
112.5962254086519
 30
0.0
 11
479.1644280112158
 21
114.4681732104325
 31
0.0
  0
LINE
  5
341AF
330
2
100
AcDbEntity
  8
DETAIL
100
AcDbLine
 10
479.3862209245528
 20
114.5962254086519
 30
0.0
 11
482.6285296263535
 21
116.4681732104325
 31
0.0
  0
LINE
  5
341B0
330
2
100
AcDbEntity
  8
DETAIL
100
AcDbLine
 10
479.3558693588543
 20
114.6287019240257
 30
0.0
 11
482.5883190445464
 21
116.4949576202019
 31
0.0
  0
LINE
  5
341B1
330
2
100
AcDbEntity
  8
DETAIL
100
AcDbLine
 10
482.8199709739921
 20
116.6287019240257
 30
0.0
 11
486.0524206596845
 21
118.4949576202019
 31
0.0
  0
LINE
  5
341B2
330
2
100
AcDbEntity
  8
DETAIL
100
AcDbLine
 10
482.8503225396905
 20
116.5962254086519
 30
0.0
 11
486.0926312414911
 21
118.4681732104325
 31
0.0
  0
LINE
  5
341B3
330
2
100
AcDbEntity
  8
DETAIL
100
AcDbLine
 10
486.3144241548281
 20
118.596225408652
 30
0.0
 11
488.384897899176
 21
119.7916139823012
 31
0.0
  0
LINE
  5
341B4
330
2
100
AcDbEntity
  8
DETAIL
100
AcDbLine
 10
486.2840725891301
 20
118.6287019240257
 30
0.0
 11
488.3415966289867
 21
119.8166139823012
 31
0.0
  0
LINE
  5
341B5
330
2
100
AcDbEntity
  8
DETAIL
100
AcDbLine
 10
437.2090517144472
 20
134.9632325150831
 30
0.0
 11
440.451360416248
 21
136.8351803168637
 31
0.0
  0
LINE
  5
341B6
330
2
100
AcDbEntity
  8
DETAIL
100
AcDbLine
 10
437.1787001487488
 20
134.9957090304569
 30
0.0
 11
440.4111498344411
 21
136.8619647266331
 31
0.0
  0
LINE
  5
341B9
330
2
100
AcDbEntity
  8
DETAIL
100
AcDbLine
 10
451.4217100718709
 20
119.5543275304058
 30
0.0
 11
469.4160879151802
 21
129.9433864221403
 31
0.0
  0
LINE
  5
341BA
330
2
100
AcDbEntity
  8
DETAIL
100
AcDbLine
 10
451.4494228847883
 20
119.5383275304038
 30
0.0
 11
469.4160879151802
 21
129.9113864221403
 31
0.0
  0
LINE
  5
341BB
330
2
100
AcDbEntity
  8
DETAIL
100
AcDbLine
 10
450.9609968952656
 20
119.8203204070068
 30
0.0
 11
469.0108003500393
 21
130.2413792904402
 31
0.0
  0
LINE
  5
341BC
330
2
100
AcDbEntity
  8
DETAIL
100
AcDbLine
 10
451.0718481469358
 20
119.7563204069985
 30
0.0
 11
469.0662259758815
 21
130.1453792904402
 31
0.0
  0
LINE
  5
341BD
330
2
100
AcDbEntity
  8
DETAIL
100
AcDbLine
 10
450.0949591734626
 20
120.3203275189473
 30
0.0
 11
469.1198052465869
 21
131.3043275205569
 31
0.0
  0
LINE
  5
341BE
330
2
100
AcDbEntity
  8
DETAIL
100
AcDbLine
 10
450.1226719863801
 20
120.3043275189452
 30
0.0
 11
469.1475180595082
 21
131.2883275205569
 31
0.0
  0
LINE
  5
341BF
330
2
100
AcDbEntity
  8
DETAIL
100
AcDbLine
 10
448.3629083661173
 20
121.3203275190764
 30
0.0
 11
467.3877544390181
 21
132.3043275205569
 31
0.0
  0
ARC
  5
341CD
330
2
100
AcDbEntity
  8
DETAIL
100
AcDbCircle
 10
469.1603978589541
 20
131.8199634124514
 30
0.0
 40
0.1586456038630306
100
AcDbArc
 50
18.38362174873401
 51
161.616378251261
  0
ARC
  5
341DB
330
2
100
AcDbEntity
  8
DETAIL
100
AcDbCircle
 10
468.1073677419658
 20
132.4279306339594
 30
0.0
 40
0.1586456038630306
100
AcDbArc
 50
18.38362174873401
 51
161.616378251261
  0
ELLIPSE
  5
341DC
330
2
100
AcDbEntity
  8
DETAIL
100
AcDbEllipse
 10
469.0662259758815
 20
130.2093792904402
 30
0.0
 11
-0.0391918336000432
 21
0.067882240000062
 31
0.0
210
0.0
220
0.0
230
1.0
 40
0.5773502699995098
 41
0.7852500000003624
 42
2.356046326793687
  0
LINE
  5
341DD
330
2
100
AcDbEntity
  8
DETAIL
100
AcDbLine
 10
469.0108003567121
 20
130.2413698070929
 30
0.0
 11
469.0108003567121
 21
131.2093935180445
 31
0.0
  0
LINE
  5
341DE
330
2
100
AcDbEntity
  8
DETAIL
100
AcDbLine
 10
469.4160879008618
 20
129.9433864138736
 30
0.0
 11
469.4160879008618
 21
129.9113864138736
 31
0.0
  0
LINE
  5
341DF
330
2
100
AcDbEntity
  8
DETAIL
100
AcDbLine
 10
469.0662259758815
 20
130.1453792904402
 30
0.0
 11
469.4160879008618
 21
129.9433864138736
 31
0.0
  0
ARC
  5
341ED
330
2
100
AcDbEntity
  8
DETAIL
100
AcDbCircle
 10
449.2845770901083
 20
120.3446529411935
 30
0.0
 40
0.1586456038630306
100
AcDbArc
 50
18.38362174873401
 51
161.616378251261
  0
ARC
  5
341FB
330
2
100
AcDbEntity
  8
DETAIL
100
AcDbCircle
 10
448.2315469731201
 20
120.9526201627015
 30
0.0
 40
0.1586456038630306
100
AcDbArc
 50
18.38362174873401
 51
161.616378251261
  0
LINE
  5
34201
330
2
100
AcDbEntity
  8
DETAIL
100
AcDbLine
 10
472.6698279121945
 20
159.2587046838368
 30
0.0
 11
472.6698279121945
 21
156.2587046838368
 31
0.0
  0
LINE
  5
34202
330
2
100
AcDbEntity
  8
DETAIL
100
AcDbLine
 10
472.6698279121945
 20
156.2587046838368
 30
0.0
 11
526.1063771364848
 21
156.2587046838368
 31
0.0
  0
LINE
  5
34203
330
2
100
AcDbEntity
  8
DETAIL
100
AcDbLine
 10
526.1063771364848
 20
156.2587046838368
 30
0.0
 11
526.1063771364848
 21
159.2587046838368
 31
0.0
  0
LINE
  5
34204
330
2
100
AcDbEntity
  8
DETAIL
100
AcDbLine
 10
526.1063771364848
 20
159.2587046838368
 30
0.0
 11
472.6698279121945
 21
159.2587046838368
 31
0.0
  0
LINE
  5
34297
330
2
100
AcDbEntity
  8
DETAIL
  6
Continuous
100
AcDbLine
 10
519.1565321997087
 20
149.4437710088893
 30
0.0
 11
519.1565321997087
 21
149.7918796772674
 31
0.0
  0
LINE
  5
34298
330
2
100
AcDbEntity
  8
DETAIL
  6
Continuous
100
AcDbLine
 10
518.7346571997087
 20
149.0218960088893
 30
0.0
 11
518.7346571997087
 21
149.3700046772674
 31
0.0
  0
ARC
  5
34299
330
2
100
AcDbEntity
  8
DETAIL
  6
Continuous
100
AcDbCircle
 10
517.3498647663604
 20
148.1703940171232
 30
0.0
 40
1.386285345504487
100
AcDbArc
 50
310.0819439860964
 51
0.3239793257842088
  0
LINE
  5
3429A
330
2
100
AcDbEntity
  8
DETAIL
  6
Continuous
100
AcDbLine
 10
519.1565321997087
 20
148.2347133431582
 30
0.0
 11
519.1565321997087
 21
148.5986369840151
 31
0.0
  0
LINE
  5
3429B
330
2
100
AcDbEntity
  8
DETAIL
  6
Continuous
100
AcDbLine
 10
518.7346571997087
 20
148.2264008800544
 30
0.0
 11
518.7346571997087
 21
148.5745095484326
 31
0.0
  0
LINE
  5
3429C
330
2
100
AcDbEntity
  8
DETAIL
  6
Continuous
100
AcDbLine
 10
518.6644571997089
 20
148.9020571128501
 30
0.0
 11
518.6644571997089
 21
148.9516960088894
 31
0.0
  0
LINE
  5
3429D
330
2
100
AcDbEntity
  8
DETAIL
  6
Continuous
100
AcDbLine
 10
518.6644571997089
 20
148.5043095484327
 30
0.0
 11
518.6644571997089
 21
148.5539484444719
 31
0.0
  0
LINE
  5
3429E
330
2
100
AcDbEntity
  8
DETAIL
  6
Continuous
100
AcDbLine
 10
518.7346571997087
 20
148.6241484444719
 30
0.0
 11
518.7346571997087
 21
148.97225711285
 31
0.0
  0
LINE
  5
3429F
330
2
100
AcDbEntity
  8
DETAIL
  6
Continuous
100
AcDbLine
 10
518.6644571997089
 20
148.1065619840151
 30
0.0
 11
518.6644571997089
 21
148.1562008800545
 31
0.0
  0
LINE
  5
342A0
330
2
100
AcDbEntity
  8
DETAIL
  6
Continuous
100
AcDbLine
 10
519.2267321997087
 20
148.7184758800544
 30
0.0
 11
518.6644571997089
 21
148.1562008800545
 31
0.0
  0
LINE
  5
342A1
330
2
100
AcDbEntity
  8
DETAIL
  6
Continuous
100
AcDbLine
 10
519.2267321997087
 20
148.6688369840151
 30
0.0
 11
518.6644571997089
 21
148.1065619840151
 31
0.0
  0
LINE
  5
342A2
330
2
100
AcDbEntity
  8
DETAIL
  6
Continuous
100
AcDbLine
 10
519.2267321997087
 20
149.0665845484326
 30
0.0
 11
518.6644571997089
 21
148.5043095484327
 31
0.0
  0
LINE
  5
342A3
330
2
100
AcDbEntity
  8
DETAIL
  6
Continuous
100
AcDbLine
 10
519.2267321997087
 20
149.1162234444719
 30
0.0
 11
518.6644571997089
 21
148.5539484444719
 31
0.0
  0
LINE
  5
342A4
330
2
100
AcDbEntity
  8
DETAIL
  6
Continuous
100
AcDbLine
 10
519.2267321997087
 20
149.46433211285
 30
0.0
 11
518.6644571997089
 21
148.9020571128501
 31
0.0
  0
LINE
  5
342A5
330
2
100
AcDbEntity
  8
DETAIL
  6
Continuous
100
AcDbLine
 10
519.2267321997087
 20
149.5139710088893
 30
0.0
 11
518.6644571997089
 21
148.9516960088894
 31
0.0
  0
LINE
  5
342A6
330
2
100
AcDbEntity
  8
DETAIL
  6
Continuous
100
AcDbLine
 10
519.2267321997087
 20
149.46433211285
 30
0.0
 11
519.2267321997087
 21
149.5139710088893
 31
0.0
  0
LINE
  5
342A7
330
2
100
AcDbEntity
  8
DETAIL
  6
Continuous
100
AcDbLine
 10
519.2267321997087
 20
148.6688369840151
 30
0.0
 11
519.2267321997087
 21
148.7184758800544
 31
0.0
  0
LINE
  5
342A8
330
2
100
AcDbEntity
  8
DETAIL
  6
Continuous
100
AcDbLine
 10
519.2267321997087
 20
149.0665845484326
 30
0.0
 11
519.2267321997087
 21
149.1162234444719
 31
0.0
  0
LINE
  5
342A9
330
2
100
AcDbEntity
  8
DETAIL
  6
Continuous
100
AcDbLine
 10
519.1565321997087
 20
148.6482758800545
 30
0.0
 11
519.1565321997087
 21
148.9963845484326
 31
0.0
  0
LINE
  5
342AA
330
2
100
AcDbEntity
  8
DETAIL
  6
Continuous
100
AcDbLine
 10
519.1565321997087
 20
149.0460234444719
 30
0.0
 11
519.1565321997087
 21
149.39413211285
 31
0.0
  0
LINE
  5
342AB
330
2
100
AcDbEntity
  8
DETAIL
  6
Continuous
100
AcDbLine
 10
518.6644571997089
 20
150.8907949349372
 30
0.0
 11
518.6644571997089
 21
150.9404338309765
 31
0.0
  0
LINE
  5
342AC
330
2
100
AcDbEntity
  8
DETAIL
  6
Continuous
100
AcDbLine
 10
519.2260673443853
 20
151.4524050796138
 30
0.0
 11
519.2095210457057
 21
151.4854976769734
 31
0.0
  0
LINE
  5
342AD
330
2
100
AcDbEntity
  8
DETAIL
  6
Continuous
100
AcDbLine
 10
519.2095210457057
 20
151.4854976769734
 30
0.0
 11
518.6644571997089
 21
150.9404338309765
 31
0.0
  0
LINE
  5
342AE
330
2
100
AcDbEntity
  8
DETAIL
  6
Continuous
100
AcDbLine
 10
519.2260673443853
 20
151.4524050796138
 30
0.0
 11
518.6644571997089
 21
150.8907949349372
 31
0.0
  0
LINE
  5
342AF
330
2
100
AcDbEntity
  8
DETAIL
  6
Continuous
100
AcDbLine
 10
519.148259050369
 20
151.4242356816366
 30
0.0
 11
519.0322228275763
 21
151.6563081272221
 31
0.0
  0
LINE
  5
342B0
330
2
100
AcDbEntity
  8
DETAIL
  6
Continuous
100
AcDbLine
 10
519.0156765288965
 20
151.6894007245817
 30
0.0
 11
518.9455946997087
 21
151.8295643829569
 31
0.0
  0
LINE
  5
342B1
330
2
100
AcDbEntity
  8
DETAIL
  6
Continuous
100
AcDbLine
 10
519.0845468182498
 20
151.7086321178956
 30
0.0
 11
519.06800051957
 21
151.7417247152551
 31
0.0
  0
LINE
  5
342B2
330
2
100
AcDbEntity
  8
DETAIL
  6
Continuous
100
AcDbLine
 10
518.7346571997087
 20
151.0106338309766
 30
0.0
 11
518.7346571997087
 21
151.3587424993547
 31
0.0
  0
LINE
  5
342B3
330
2
100
AcDbEntity
  8
DETAIL
  6
Continuous
100
AcDbLine
 10
518.9455946997087
 20
151.8295643829569
 30
0.0
 11
518.7346571997087
 21
151.4076893829569
 31
0.0
  0
LINE
  5
342B4
330
2
100
AcDbEntity
  8
DETAIL
  6
Continuous
100
AcDbLine
 10
518.6644571997089
 20
151.2885424993546
 30
0.0
 11
518.6644571997089
 21
151.3381813953939
 31
0.0
  0
LINE
  5
342B5
330
2
100
AcDbEntity
  8
DETAIL
  6
Continuous
100
AcDbLine
 10
519.0845468182498
 20
151.7086321178956
 30
0.0
 11
518.6644571997089
 21
151.2885424993546
 31
0.0
  0
LINE
  5
342B6
330
2
100
AcDbEntity
  8
DETAIL
  6
Continuous
100
AcDbLine
 10
519.06800051957
 20
151.7417247152551
 30
0.0
 11
518.6644571997089
 21
151.3381813953939
 31
0.0
  0
LINE
  5
342B7
330
2
100
AcDbEntity
  8
DETAIL
  6
Continuous
100
AcDbLine
 10
519.6487196997089
 20
147.1097133431582
 30
0.0
 11
518.2424696997087
 21
147.1097133431582
 31
0.0
  0
LINE
  5
342B8
330
2
100
AcDbEntity
  8
DETAIL
  6
Continuous
100
AcDbLine
 10
518.6644571997089
 20
149.2998046772675
 30
0.0
 11
518.6644571997089
 21
149.3494435733068
 31
0.0
  0
ARC
  5
342B9
330
2
100
AcDbEntity
  8
DETAIL
  6
Continuous
100
AcDbCircle
 10
520.5413246330572
 20
148.1703940171232
 30
0.0
 40
1.386285345504487
100
AcDbArc
 50
177.3406994474114
 51
229.918056013901
  0
LINE
  5
342BA
330
2
100
AcDbEntity
  8
DETAIL
  6
Continuous
100
AcDbLine
 10
519.1565321997087
 20
150.2392661377242
 30
0.0
 11
519.1565321997087
 21
150.5873748061023
 31
0.0
  0
LINE
  5
342BB
330
2
100
AcDbEntity
  8
DETAIL
  6
Continuous
100
AcDbLine
 10
518.7346571997087
 20
150.2151387021416
 30
0.0
 11
518.7346571997087
 21
150.5632473705198
 31
0.0
  0
LINE
  5
342BC
330
2
100
AcDbEntity
  8
DETAIL
  6
Continuous
100
AcDbLine
 10
518.7346571997087
 20
149.8173911377242
 30
0.0
 11
518.7346571997087
 21
150.1654998061023
 31
0.0
  0
LINE
  5
342BD
330
2
100
AcDbEntity
  8
DETAIL
  6
Continuous
100
AcDbLine
 10
519.1565321997087
 20
149.8415185733068
 30
0.0
 11
519.1565321997087
 21
150.1896272416849
 31
0.0
  0
LINE
  5
342BE
330
2
100
AcDbEntity
  8
DETAIL
  6
Continuous
100
AcDbLine
 10
519.2267321997087
 20
150.259827241685
 30
0.0
 11
519.2267321997087
 21
150.3094661377243
 31
0.0
  0
LINE
  5
342BF
330
2
100
AcDbEntity
  8
DETAIL
  6
Continuous
100
AcDbLine
 10
519.2267321997087
 20
149.8620796772675
 30
0.0
 11
519.2267321997087
 21
149.9117185733068
 31
0.0
  0
LINE
  5
342C0
330
2
100
AcDbEntity
  8
DETAIL
  6
Continuous
100
AcDbLine
 10
519.2267321997087
 20
150.6575748061024
 30
0.0
 11
519.2267321997087
 21
150.7072137021417
 31
0.0
  0
LINE
  5
342C1
330
2
100
AcDbEntity
  8
DETAIL
  6
Continuous
100
AcDbLine
 10
519.2267321997087
 20
150.7072137021417
 30
0.0
 11
518.6644571997089
 21
150.1449387021416
 31
0.0
  0
LINE
  5
342C2
330
2
100
AcDbEntity
  8
DETAIL
  6
Continuous
100
AcDbLine
 10
519.2267321997087
 20
150.6575748061024
 30
0.0
 11
518.6644571997089
 21
150.0952998061024
 31
0.0
  0
LINE
  5
342C3
330
2
100
AcDbEntity
  8
DETAIL
  6
Continuous
100
AcDbLine
 10
519.2267321997087
 20
150.3094661377243
 30
0.0
 11
518.6644571997089
 21
149.7471911377242
 31
0.0
  0
LINE
  5
342C4
330
2
100
AcDbEntity
  8
DETAIL
  6
Continuous
100
AcDbLine
 10
519.2267321997087
 20
150.259827241685
 30
0.0
 11
518.6644571997089
 21
149.697552241685
 31
0.0
  0
LINE
  5
342C5
330
2
100
AcDbEntity
  8
DETAIL
  6
Continuous
100
AcDbLine
 10
518.6644571997089
 20
149.697552241685
 30
0.0
 11
518.6644571997089
 21
149.7471911377242
 31
0.0
  0
LINE
  5
342C6
330
2
100
AcDbEntity
  8
DETAIL
  6
Continuous
100
AcDbLine
 10
518.6644571997089
 20
150.0952998061024
 30
0.0
 11
518.6644571997089
 21
150.1449387021416
 31
0.0
  0
LINE
  5
342C7
330
2
100
AcDbEntity
  8
DETAIL
  6
Continuous
100
AcDbLine
 10
518.6644571997089
 20
150.4930473705198
 30
0.0
 11
518.6644571997089
 21
150.5426862665591
 31
0.0
  0
LINE
  5
342C8
330
2
100
AcDbEntity
  8
DETAIL
  6
Continuous
100
AcDbLine
 10
519.1565321997087
 20
151.0347612665591
 30
0.0
 11
519.1565321997087
 21
151.3828699349373
 31
0.0
  0
LINE
  5
342C9
330
2
100
AcDbEntity
  8
DETAIL
  6
Continuous
100
AcDbLine
 10
519.2267321997087
 20
151.0553223705198
 30
0.0
 11
519.2267321997087
 21
151.1049612665591
 31
0.0
  0
LINE
  5
342CA
330
2
100
AcDbEntity
  8
DETAIL
  6
Continuous
100
AcDbLine
 10
518.7346571997087
 20
150.6128862665591
 30
0.0
 11
518.7346571997087
 21
150.9609949349373
 31
0.0
  0
LINE
  5
342CB
330
2
100
AcDbEntity
  8
DETAIL
  6
Continuous
100
AcDbLine
 10
519.1565321997087
 20
150.6370137021417
 30
0.0
 11
519.1565321997087
 21
150.9851223705198
 31
0.0
  0
LINE
  5
342CC
330
2
100
AcDbEntity
  8
DETAIL
  6
Continuous
100
AcDbLine
 10
519.2267321997087
 20
151.0553223705198
 30
0.0
 11
518.6644571997089
 21
150.4930473705198
 31
0.0
  0
LINE
  5
342CD
330
2
100
AcDbEntity
  8
DETAIL
  6
Continuous
100
AcDbLine
 10
519.2267321997087
 20
151.1049612665591
 30
0.0
 11
518.6644571997089
 21
150.5426862665591
 31
0.0
  0
LINE
  5
342CE
330
2
100
AcDbEntity
  8
DETAIL
  6
Continuous
100
AcDbLine
 10
518.7346571997087
 20
149.4196435733068
 30
0.0
 11
518.7346571997087
 21
149.7677522416849
 31
0.0
  0
LINE
  5
342CF
330
2
100
AcDbEntity
  8
DETAIL
  6
Continuous
100
AcDbLine
 10
519.2267321997087
 20
149.8620796772675
 30
0.0
 11
518.6644571997089
 21
149.2998046772675
 31
0.0
  0
LINE
  5
342D0
330
2
100
AcDbEntity
  8
DETAIL
  6
Continuous
100
AcDbLine
 10
519.2267321997087
 20
149.9117185733068
 30
0.0
 11
518.6644571997089
 21
149.3494435733068
 31
0.0
  0
LINE
  5
346C6
330
2
100
AcDbEntity
  8
PANEL
100
AcDbLine
 10
488.9828621222768
 20
136.780094349796
 30
0.0
 11
511.2972217389232
 21
136.780094349796
 31
0.0
  0
LINE
  5
346C7
330
2
100
AcDbEntity
  8
PANEL
100
AcDbLine
 10
511.2972217389232
 20
136.780094349796
 30
0.0
 11
511.2972217389232
 21
149.1640943497958
 31
0.0
  0
LINE
  5
346CB
330
2
100
AcDbEntity
  8
DETAIL
100
AcDbLine
 10
511.2972217389232
 20
148.9120943497955
 30
0.0
 11
511.2972217389232
 21
137.0320943497955
 31
0.0
  0
LINE
  5
346CE
330
2
100
AcDbEntity
  8
PANEL
100
AcDbLine
 10
488.9828621222768
 20
149.1640943497967
 30
0.0
 11
505.1052217389217
 21
149.1640943497967
 31
0.0
  0
LINE
  5
346CF
330
2
100
AcDbEntity
  8
PANEL
100
AcDbLine
 10
511.1052217389215
 20
149.1640943497967
 30
0.0
 11
511.2972217389232
 21
149.1640943497967
 31
0.0
  0
LINE
  5
346D0
330
2
100
AcDbEntity
  8
PANEL
100
AcDbLine
 10
488.9828621222768
 20
136.9720943497958
 30
0.0
 11
511.2972217389232
 21
136.9720943497958
 31
0.0
  0
LINE
  5
346D1
330
2
100
AcDbEntity
  8
PANEL
100
AcDbLine
 10
488.9828621222768
 20
148.9720943497951
 30
0.0
 11
511.2972217389232
 21
148.9720943497951
 31
0.0
  0
LINE
  5
346EB
330
2
100
AcDbEntity
  8
DETAIL
100
AcDbLine
 10
509.5600175791136
 20
138.1513333791125
 30
0.0
 11
508.3386653015958
 21
138.1513333791125
 31
0.0
1001
AcDbBlockRepETag
1070
     1
1071
        0
1005
346EB
  0
LINE
  5
346EC
330
2
100
AcDbEntity
  8
DETAIL
100
AcDbLine
 10
509.6706009898003
 20
138.0779306889146
 30
0.0
 11
508.2280818909089
 21
138.0779306889146
 31
0.0
1001
AcDbBlockRepETag
1070
     1
1071
        1
1005
346EC
  0
LINE
  5
346ED
330
2
100
AcDbEntity
  8
DETAIL
100
AcDbLine
 10
509.6706009898003
 20
137.4234970399926
 30
0.0
 11
508.2280818909089
 21
137.4234970399926
 31
0.0
1001
AcDbBlockRepETag
1070
     1
1071
        2
1005
346ED
  0
LINE
  5
346EE
330
2
100
AcDbEntity
  8
DETAIL
100
AcDbLine
 10
509.5600175791136
 20
137.3500943497954
 30
0.0
 11
508.3386653015958
 21
137.3500943497954
 31
0.0
1001
AcDbBlockRepETag
1070
     1
1071
        3
1005
346EE
  0
LINE
  5
346EF
330
2
100
AcDbEntity
  8
DETAIL
100
AcDbLine
 10
509.6993414403547
 20
136.780094349796
 30
0.0
 11
508.1993414403547
 21
136.780094349796
 31
0.0
1001
AcDbBlockRepETag
1070
     1
1071
        4
1005
346EF
  0
LINE
  5
346F0
330
2
100
AcDbEntity
  8
DETAIL
100
AcDbLine
 10
509.6993414403547
 20
136.7124700447362
 30
0.0
 11
508.1993414403547
 21
136.7124700447362
 31
0.0
1001
AcDbBlockRepETag
1070
     1
1071
        5
1005
346F0
  0
LINE
  5
346F1
330
2
100
AcDbEntity
  8
DETAIL
100
AcDbLine
 10
509.3189124872474
 20
136.5869339477875
 30
0.0
 11
508.5797703934618
 21
136.5869339477875
 31
0.0
1001
AcDbBlockRepETag
1070
     1
1071
        6
1005
346F1
  0
ARC
  5
346F2
330
2
100
AcDbEntity
  8
DETAIL
100
AcDbCircle
 10
509.5600175791136
 20
138.0313333791126
 30
0.0
 40
0.1199999999998966
100
AcDbArc
 50
22.84944035558914
 51
90.0
1001
AcDbBlockRepETag
1070
     1
1071
        7
1005
346F2
  0
ARC
  5
346F3
330
2
100
AcDbEntity
  8
DETAIL
100
AcDbCircle
 10
508.3386653015958
 20
138.0313333791126
 30
0.0
 40
0.1199999999998966
100
AcDbArc
 50
90.0
 51
157.1505596444108
1001
AcDbBlockRepETag
1070
     1
1071
        8
1005
346F3
  0
ARC
  5
346F4
330
2
100
AcDbEntity
  8
DETAIL
100
AcDbCircle
 10
509.0046235547194
 20
137.7507138644534
 30
0.0
 40
0.8426670788894179
100
AcDbArc
 50
157.1505596443935
 51
202.8494403555543
1001
AcDbBlockRepETag
1070
     1
1071
        9
1005
346F4
  0
ARC
  5
346F5
330
2
100
AcDbEntity
  8
DETAIL
100
AcDbCircle
 10
508.89405932599
 20
137.7507138644534
 30
0.0
 40
0.8426670788894178
100
AcDbArc
 50
337.1505596444679
 51
22.8494403556188
1001
AcDbBlockRepETag
1070
     1
1071
       10
1005
346F5
  0
ARC
  5
346F6
330
2
100
AcDbEntity
  8
DETAIL
100
AcDbCircle
 10
509.5600175791136
 20
137.4700943497953
 30
0.0
 40
0.1199999999999465
100
AcDbArc
 50
270.0
 51
337.1505596444107
1001
AcDbBlockRepETag
1070
     1
1071
       11
1005
346F6
  0
ARC
  5
346F7
330
2
100
AcDbEntity
  8
DETAIL
100
AcDbCircle
 10
508.3386653015958
 20
137.4700943497953
 30
0.0
 40
0.1199999999999465
100
AcDbArc
 50
202.8494403555891
 51
270.0
1001
AcDbBlockRepETag
1070
     1
1071
       12
1005
346F7
  0
ARC
  5
346F8
330
2
100
AcDbEntity
  8
DETAIL
100
AcDbCircle
 10
508.9493414403547
 20
137.8830116044151
 30
0.0
 40
0.3750000000000893
100
AcDbArc
 50
45.68621941317849
 51
134.3137805866961
1001
AcDbBlockRepETag
1070
     1
1071
       13
1005
346F8
  0
LINE
  5
346F9
330
2
100
AcDbEntity
  8
DETAIL
100
AcDbLine
 10
508.1993414403547
 20
136.7124700447362
 30
0.0
 11
508.1993414403547
 21
136.780094349796
 31
0.0
1001
AcDbBlockRepETag
1070
     1
1071
       14
1005
346F9
  0
LINE
  5
346FA
330
2
100
AcDbEntity
  8
DETAIL
100
AcDbLine
 10
509.6993414403547
 20
136.7124700447362
 30
0.0
 11
509.6993414403547
 21
136.780094349796
 31
0.0
1001
AcDbBlockRepETag
1070
     1
1071
       15
1005
346FA
  0
ARC
  5
346FB
330
2
100
AcDbEntity
  8
DETAIL
100
AcDbCircle
 10
509.3189124872474
 20
137.2261345598029
 30
0.0
 40
0.6392006120156913
100
AcDbArc
 50
270.0
 51
306.5242974059625
1001
AcDbBlockRepETag
1070
     1
1071
       16
1005
346FB
  0
ARC
  5
346FC
330
2
100
AcDbEntity
  8
DETAIL
100
AcDbCircle
 10
508.5797703934618
 20
137.2261345598029
 30
0.0
 40
0.6392006120156913
100
AcDbArc
 50
233.4757025940375
 51
270.0
1001
AcDbBlockRepETag
1070
     1
1071
       17
1005
346FC
  0
LINE
  5
346FD
330
2
100
AcDbEntity
  8
DETAIL
100
AcDbLine
 10
509.6578978776821
 20
147.7928553204787
 30
0.0
 11
508.4365456001643
 21
147.7928553204787
 31
0.0
1001
AcDbBlockRepETag
1070
     1
1071
        0
1005
346EB
  0
LINE
  5
346FE
330
2
100
AcDbEntity
  8
DETAIL
100
AcDbLine
 10
509.7684812883689
 20
147.8662580106766
 30
0.0
 11
508.3259621894774
 21
147.8662580106766
 31
0.0
1001
AcDbBlockRepETag
1070
     1
1071
        1
1005
346EC
  0
LINE
  5
346FF
330
2
100
AcDbEntity
  8
DETAIL
100
AcDbLine
 10
509.7684812883689
 20
148.5206916595986
 30
0.0
 11
508.3259621894774
 21
148.5206916595986
 31
0.0
1001
AcDbBlockRepETag
1070
     1
1071
        2
1005
346ED
  0
LINE
  5
34700
330
2
100
AcDbEntity
  8
DETAIL
100
AcDbLine
 10
509.6578978776821
 20
148.5940943497959
 30
0.0
 11
508.4365456001643
 21
148.5940943497959
 31
0.0
1001
AcDbBlockRepETag
1070
     1
1071
        3
1005
346EE
  0
LINE
  5
34701
330
2
100
AcDbEntity
  8
DETAIL
100
AcDbLine
 10
509.7972217389232
 20
149.4400943497949
 30
0.0
 11
508.2972217389232
 21
149.4400943497949
 31
0.0
1001
AcDbBlockRepETag
1070
     1
1071
        4
1005
346EF
  0
LINE
  5
34702
330
2
100
AcDbEntity
  8
DETAIL
100
AcDbLine
 10
509.7972217389232
 20
149.5077186548547
 30
0.0
 11
508.2972217389232
 21
149.5077186548547
 31
0.0
1001
AcDbBlockRepETag
1070
     1
1071
        5
1005
346F0
  0
LINE
  5
34703
330
2
100
AcDbEntity
  8
DETAIL
100
AcDbLine
 10
509.4167927858159
 20
149.6332547518035
 30
0.0
 11
508.6776506920304
 21
149.6332547518035
 31
0.0
1001
AcDbBlockRepETag
1070
     1
1071
        6
1005
346F1
  0
ARC
  5
34704
330
2
100
AcDbEntity
  8
DETAIL
100
AcDbCircle
 10
509.6578978776821
 20
147.9128553204786
 30
0.0
 40
0.1199999999998966
100
AcDbArc
 50
270.0
 51
337.1505596444107
1001
AcDbBlockRepETag
1070
     1
1071
        7
1005
346F2
  0
ARC
  5
34705
330
2
100
AcDbEntity
  8
DETAIL
100
AcDbCircle
 10
508.4365456001643
 20
147.9128553204786
 30
0.0
 40
0.1199999999998966
100
AcDbArc
 50
202.8494403555891
 51
270.0
1001
AcDbBlockRepETag
1070
     1
1071
        8
1005
346F3
  0
ARC
  5
34706
330
2
100
AcDbEntity
  8
DETAIL
100
AcDbCircle
 10
509.1025038532879
 20
148.1934748351378
 30
0.0
 40
0.8426670788894179
100
AcDbArc
 50
157.1505596444457
 51
202.8494403556065
1001
AcDbBlockRepETag
1070
     1
1071
        9
1005
346F4
  0
ARC
  5
34707
330
2
100
AcDbEntity
  8
DETAIL
100
AcDbCircle
 10
508.9919396245584
 20
148.1934748351378
 30
0.0
 40
0.8426670788894178
100
AcDbArc
 50
337.1505596443811
 51
22.849440355532
1001
AcDbBlockRepETag
1070
     1
1071
       10
1005
346F5
  0
ARC
  5
34708
330
2
100
AcDbEntity
  8
DETAIL
100
AcDbCircle
 10
509.6578978776821
 20
148.474094349796
 30
0.0
 40
0.1199999999999465
100
AcDbArc
 50
22.84944035558914
 51
90.0
1001
AcDbBlockRepETag
1070
     1
1071
       11
1005
346F6
  0
ARC
  5
34709
330
2
100
AcDbEntity
  8
DETAIL
100
AcDbCircle
 10
508.4365456001643
 20
148.474094349796
 30
0.0
 40
0.1199999999999465
100
AcDbArc
 50
90.0
 51
157.1505596444108
1001
AcDbBlockRepETag
1070
     1
1071
       12
1005
346F7
  0
ARC
  5
3470A
330
2
100
AcDbEntity
  8
DETAIL
100
AcDbCircle
 10
509.0472217389232
 20
148.061177095176
 30
0.0
 40
0.3750000000000893
100
AcDbArc
 50
225.6862194133038
 51
314.3137805868213
1001
AcDbBlockRepETag
1070
     1
1071
       13
1005
346F8
  0
LINE
  5
3470B
330
2
100
AcDbEntity
  8
DETAIL
100
AcDbLine
 10
508.2972217389232
 20
149.5077186548547
 30
0.0
 11
508.2972217389232
 21
149.4400943497949
 31
0.0
1001
AcDbBlockRepETag
1070
     1
1071
       14
1005
346F9
  0
LINE
  5
3470C
330
2
100
AcDbEntity
  8
DETAIL
100
AcDbLine
 10
509.7972217389232
 20
149.5077186548547
 30
0.0
 11
509.7972217389232
 21
149.4400943497949
 31
0.0
1001
AcDbBlockRepETag
1070
     1
1071
       15
1005
346FA
  0
ARC
  5
3470D
330
2
100
AcDbEntity
  8
DETAIL
100
AcDbCircle
 10
509.4167927858159
 20
148.994054139788
 30
0.0
 40
0.6392006120156913
100
AcDbArc
 50
53.47570259403751
 51
90.0
1001
AcDbBlockRepETag
1070
     1
1071
       16
1005
346FB
  0
ARC
  5
3470E
330
2
100
AcDbEntity
  8
DETAIL
100
AcDbCircle
 10
508.6776506920304
 20
148.994054139788
 30
0.0
 40
0.6392006120156913
100
AcDbArc
 50
90.0
 51
126.5242974059624
1001
AcDbBlockRepETag
1070
     1
1071
       17
1005
346FC
  0
TEXT
  5
350D6
330
2
100
AcDbEntity
  8
DIM
100
AcDbText
 10
477.2744769499287
 20
119.5825522346708
 30
0.0
 40
1.5
  1
A
  7
STD
 72
     4
 11
477.9733173319206
 21
120.3325522346708
 31
0.0
100
AcDbText
  0
TEXT
  5
350D7
330
2
100
AcDbEntity
  8
DIM
100
AcDbText
 10
487.5865368248673
 20
113.6288816899755
 30
0.0
 40
1.5
  1
A
  7
STD
 72
     4
 11
488.2853772068592
 21
114.3788816899755
 31
0.0
100
AcDbText
  0
ARC
  5
3513C
330
2
100
AcDbEntity
  8
DETAIL
100
AcDbCircle
 10
448.131424019376
 20
120.986435591727
 30
0.0
 40
0.052970155179877
100
AcDbArc
 50
160.5048995672613
 51
215.6571314953374
  0
ARC
  5
3513E
330
2
100
AcDbEntity
  8
DETAIL
100
AcDbCircle
 10
448.1791447727082
 20
121.0206723181853
 30
0.0
 40
0.1117019501224342
100
AcDbArc
 50
215.6571298247157
 51
239.9999999999989
  0
ARC
  5
3513F
330
2
100
AcDbEntity
  8
DETAIL
100
AcDbCircle
 10
448.2107656121451
 20
121.0754412186681
 30
0.0
 40
0.1749436289963299
100
AcDbArc
 50
240.0000000000078
 51
256.5505244738466
  0
ARC
  5
35140
330
2
100
AcDbEntity
  8
DETAIL
100
AcDbCircle
 10
448.2315469731201
 20
121.1623393222765
 30
0.0
 40
0.2642920781978183
100
AcDbArc
 50
256.5505244738544
 51
283.4494978152164
  0
ARC
  5
35142
330
2
100
AcDbEntity
  8
DETAIL
100
AcDbCircle
 10
448.2523283340952
 20
121.075441218668
 30
0.0
 40
0.1749436289962431
100
AcDbArc
 50
283.4494755261023
 51
299.9999999999669
  0
ARC
  5
35143
330
2
100
AcDbEntity
  8
DETAIL
100
AcDbCircle
 10
448.2839491735318
 20
121.0206723181854
 30
0.0
 40
0.1117019501224993
100
AcDbArc
 50
300.0000000000154
 51
324.3428701752835
  0
ARC
  5
35144
330
2
100
AcDbEntity
  8
DETAIL
100
AcDbCircle
 10
448.3316699268641
 20
120.986435591727
 30
0.0
 40
0.0529701551798214
100
AcDbArc
 50
324.3428701752931
 51
19.49510056235043
  0
ARC
  5
35146
330
2
100
AcDbEntity
  8
DETAIL
100
AcDbCircle
 10
449.1844541363643
 20
120.3784683702191
 30
0.0
 40
0.052970155179877
100
AcDbArc
 50
160.5048995672613
 51
215.6571314953374
  0
ARC
  5
35148
330
2
100
AcDbEntity
  8
DETAIL
100
AcDbCircle
 10
449.2321748896963
 20
120.4127050966774
 30
0.0
 40
0.111701950122388
100
AcDbArc
 50
215.6571298247327
 51
240.0000000000241
  0
ARC
  5
35149
330
2
100
AcDbEntity
  8
DETAIL
100
AcDbCircle
 10
449.2637957291334
 20
120.4674739971602
 30
0.0
 40
0.1749436289963014
100
AcDbArc
 50
240.000000000024
 51
256.5505244738647
  0
ARC
  5
3514A
330
2
100
AcDbEntity
  8
DETAIL
100
AcDbCircle
 10
449.2845770901083
 20
120.5543721007686
 30
0.0
 40
0.2642920781978183
100
AcDbArc
 50
256.5505244738544
 51
283.4494978152164
  0
ARC
  5
3514C
330
2
100
AcDbEntity
  8
DETAIL
100
AcDbCircle
 10
449.3053584510833
 20
120.4674739971601
 30
0.0
 40
0.1749436289962431
100
AcDbArc
 50
283.4494755261023
 51
299.9999999999669
  0
ARC
  5
3514D
330
2
100
AcDbEntity
  8
DETAIL
100
AcDbCircle
 10
449.3369792905201
 20
120.4127050966774
 30
0.0
 40
0.1117019501224709
100
AcDbArc
 50
299.9999999999902
 51
324.3428701752665
  0
ARC
  5
3514E
330
2
100
AcDbEntity
  8
DETAIL
100
AcDbCircle
 10
449.3847000438525
 20
120.378468370219
 30
0.0
 40
0.0529701551798214
100
AcDbArc
 50
324.3428701752931
 51
19.49510056235043
  0
ARC
  5
35150
330
2
100
AcDbEntity
  8
DETAIL
100
AcDbCircle
 10
468.0072447882216
 20
132.4617460629848
 30
0.0
 40
0.0529701551797684
100
AcDbArc
 50
160.5048995670403
 51
215.6571314953374
  0
ARC
  5
35152
330
2
100
AcDbEntity
  8
DETAIL
100
AcDbCircle
 10
468.0549655415541
 20
132.4959827894432
 30
0.0
 40
0.1117019501224425
100
AcDbArc
 50
215.6571298247216
 51
239.9999999999989
  0
ARC
  5
35153
330
2
100
AcDbEntity
  8
DETAIL
100
AcDbCircle
 10
468.0865863809911
 20
132.550751689926
 30
0.0
 40
0.1749436289963744
100
AcDbArc
 50
239.9999999999732
 51
256.5505244738115
  0
ARC
  5
35154
330
2
100
AcDbEntity
  8
DETAIL
100
AcDbCircle
 10
468.1073677419658
 20
132.6376497935344
 30
0.0
 40
0.2642920781977918
100
AcDbArc
 50
256.5505244738784
 51
283.4494978152164
  0
ARC
  5
35156
330
2
100
AcDbEntity
  8
DETAIL
100
AcDbCircle
 10
468.1281491029408
 20
132.5507516899258
 30
0.0
 40
0.1749436289961037
100
AcDbArc
 50
283.4494755261516
 51
300.0000000000156
  0
ARC
  5
35157
330
2
100
AcDbEntity
  8
DETAIL
100
AcDbCircle
 10
468.1597699423776
 20
132.4959827894433
 30
0.0
 40
0.1117019501224586
100
AcDbArc
 50
299.9999999999938
 51
324.3428701752665
  0
ARC
  5
35158
330
2
100
AcDbEntity
  8
DETAIL
100
AcDbCircle
 10
468.2074906957099
 20
132.461746062985
 30
0.0
 40
0.0529701551798332
100
AcDbArc
 50
324.3428701751698
 51
19.49510056235043
  0
ARC
  5
3515A
330
2
100
AcDbEntity
  8
DETAIL
100
AcDbCircle
 10
469.0602749052099
 20
131.8537788414769
 30
0.0
 40
0.052970155179765
100
AcDbArc
 50
160.5048995672347
 51
215.6571314953374
  0
ARC
  5
3515C
330
2
100
AcDbEntity
  8
DETAIL
100
AcDbCircle
 10
469.1079956585423
 20
131.8880155679353
 30
0.0
 40
0.1117019501223963
100
AcDbArc
 50
215.6571298247386
 51
240.0000000000241
  0
ARC
  5
3515D
330
2
100
AcDbEntity
  8
DETAIL
100
AcDbCircle
 10
469.1396164979792
 20
131.9427844684178
 30
0.0
 40
0.1749436289961737
100
AcDbArc
 50
239.9999999999568
 51
256.5505244737963
  0
ARC
  5
3515E
330
2
100
AcDbEntity
  8
DETAIL
100
AcDbCircle
 10
469.1603978589541
 20
132.0296825720264
 30
0.0
 40
0.2642920781977918
100
AcDbArc
 50
256.5505244738784
 51
283.4494978152164
  0
ARC
  5
35160
330
2
100
AcDbEntity
  8
DETAIL
100
AcDbCircle
 10
469.1811792199291
 20
131.9427844684178
 30
0.0
 40
0.1749436289961169
100
AcDbArc
 50
283.4494755261697
 51
300.0000000000318
  0
ARC
  5
35161
330
2
100
AcDbEntity
  8
DETAIL
100
AcDbCircle
 10
469.2128000593658
 20
131.8880155679353
 30
0.0
 40
0.111701950122487
100
AcDbArc
 50
300.000000000019
 51
324.3428701752835
  0
ARC
  5
35162
330
2
100
AcDbEntity
  8
DETAIL
100
AcDbCircle
 10
469.2605208126983
 20
131.8537788414769
 30
0.0
 40
0.0529701551798296
100
AcDbArc
 50
324.3428701752806
 51
19.49510056235043
  0
LINE
  5
35199
330
2
100
AcDbEntity
  8
DETAIL
100
AcDbLine
 10
483.1339494147314
 20
155.2267046838366
 30
0.0
 11
485.1590831229986
 21
155.2267046838366
 31
0.0
  0
LINE
  5
3519A
330
2
100
AcDbEntity
  8
DETAIL
100
AcDbLine
 10
483.6402328417976
 20
155.2267046838353
 30
0.0
 11
483.640232841799
 21
155.5340246838233
 31
0.0
  0
LINE
  5
3519B
330
2
100
AcDbEntity
  8
DETAIL
100
AcDbLine
 10
483.1339494147314
 20
155.4217046838191
 30
0.0
 11
483.1339494147314
 21
155.2267046838366
 31
0.0
  0
LINE
  5
3519C
330
2
100
AcDbEntity
  8
DETAIL
100
AcDbLine
 10
484.6527996959543
 20
155.5340246838302
 30
0.0
 11
484.6527996959538
 21
155.2267046838366
 31
0.0
  0
LINE
  5
3519D
330
2
100
AcDbEntity
  8
DETAIL
100
AcDbLine
 10
485.1590831229993
 20
155.4217046838368
 30
0.0
 11
485.1590831229986
 21
155.2267046838366
 31
0.0
  0
LINE
  5
3519E
330
2
100
AcDbEntity
  8
DETAIL
100
AcDbLine
 10
482.7964031229995
 20
155.7907046838369
 30
0.0
 11
482.7964031229995
 21
155.6467046838376
 31
0.0
  0
LINE
  5
3519F
330
2
100
AcDbEntity
  8
DETAIL
100
AcDbLine
 10
482.7964031230002
 20
155.6467046838144
 30
0.0
 11
485.4964031229997
 21
155.6467046838363
 31
0.0
  0
LINE
  5
351A0
330
2
100
AcDbEntity
  8
DETAIL
100
AcDbLine
 10
485.4964031229997
 20
155.6467046838376
 30
0.0
 11
485.4964031229997
 21
155.7907046838369
 31
0.0
  0
LINE
  5
351A1
330
2
100
AcDbEntity
  8
DETAIL
100
AcDbLine
 10
485.4964031229997
 20
155.7907046838369
 30
0.0
 11
482.7964031229995
 21
155.7907046838369
 31
0.0
  0
ARC
  5
351A2
330
2
100
AcDbEntity
  8
DETAIL
100
AcDbCircle
 10
485.3840831229994
 20
155.4217046838368
 30
0.0
 40
0.225
100
AcDbArc
 50
90.0
 51
179.9999999999739
  0
ARC
  5
351A3
330
2
100
AcDbEntity
  8
DETAIL
100
AcDbCircle
 10
482.9089494147313
 20
155.4217046838191
 30
0.0
 40
0.225
100
AcDbArc
 50
0.0
 51
90.00000000039731
  0
ARC
  5
351A4
330
2
100
AcDbEntity
  8
DETAIL
100
AcDbCircle
 10
483.527552841799
 20
155.5340246838233
 30
0.0
 40
0.11268
100
AcDbArc
 50
359.9999999999349
 51
90.00000000041687
  0
ARC
  5
351A5
330
2
100
AcDbEntity
  8
DETAIL
100
AcDbCircle
 10
484.7654796959544
 20
155.5340246838302
 30
0.0
 40
0.11268
100
AcDbArc
 50
90.00000000038431
 51
179.9999999999739
  0
LINE
  5
351A6
330
2
100
AcDbEntity
  8
DETAIL
100
AcDbLine
 10
484.7086031229997
 20
155.7907046838369
 30
0.0
 11
484.7086031229997
 21
159.9068203082781
 31
0.0
  0
LINE
  5
351A7
330
2
100
AcDbEntity
  8
DETAIL
100
AcDbLine
 10
484.7086031229997
 20
159.9068203082751
 30
0.0
 11
484.1464031230001
 21
161.0312203082768
 31
0.0
  0
LINE
  5
351A8
330
2
100
AcDbEntity
  8
DETAIL
100
AcDbLine
 10
484.1464031230001
 20
161.0312203082768
 30
0.0
 11
483.5842031229981
 21
159.9068203082713
 31
0.0
  0
LINE
  5
351A9
330
2
100
AcDbEntity
  8
DETAIL
100
AcDbLine
 10
483.5842031230176
 20
155.7907046838369
 30
0.0
 11
483.5842031229981
 21
159.9068203082713
 31
0.0
  0
LINE
  5
351AA
330
2
100
AcDbEntity
  8
DETAIL
100
AcDbLine
 10
483.5842031229987
 20
155.9981873573518
 30
0.0
 11
484.7086031229997
 21
157.1225873573532
 31
0.0
  0
LINE
  5
351AB
330
2
100
AcDbEntity
  8
DETAIL
100
AcDbLine
 10
484.7086031229997
 20
157.520334921771
 30
0.0
 11
483.5842031229987
 21
156.3959349217697
 31
0.0
  0
LINE
  5
351AC
330
2
100
AcDbEntity
  8
DETAIL
100
AcDbLine
 10
483.5842031229987
 20
156.7936824861875
 30
0.0
 11
484.7086031229997
 21
157.9180824861889
 31
0.0
  0
LINE
  5
351AD
330
2
100
AcDbEntity
  8
DETAIL
100
AcDbLine
 10
484.7086031229997
 20
158.3158300506067
 30
0.0
 11
483.5842031229987
 21
157.1914300506053
 31
0.0
  0
LINE
  5
351AE
330
2
100
AcDbEntity
  8
DETAIL
100
AcDbLine
 10
483.5842031229987
 20
157.5891776150232
 30
0.0
 11
484.7086031229997
 21
158.7135776150246
 31
0.0
  0
LINE
  5
351AF
330
2
100
AcDbEntity
  8
DETAIL
100
AcDbLine
 10
484.7086031229997
 20
159.1113251794424
 30
0.0
 11
483.5842031229987
 21
157.986925179441
 31
0.0
  0
LINE
  5
351B0
330
2
100
AcDbEntity
  8
DETAIL
100
AcDbLine
 10
483.5842031229987
 20
158.3846727438588
 30
0.0
 11
484.7086031229997
 21
159.5090727438602
 31
0.0
  0
LINE
  5
351B1
330
2
100
AcDbEntity
  8
DETAIL
100
AcDbLine
 10
484.7086031229997
 20
159.9068203082781
 30
0.0
 11
483.5842031229987
 21
158.7824203082766
 31
0.0
  0
LINE
  5
351B2
330
2
100
AcDbEntity
  8
DETAIL
100
AcDbLine
 10
483.5842031229987
 20
159.1801678726946
 30
0.0
 11
484.5760206015256
 21
160.1719853512238
 31
0.0
  0
LINE
  5
351B3
330
2
100
AcDbEntity
  8
DETAIL
100
AcDbLine
 10
484.4434380800533
 20
160.4371503941692
 30
0.0
 11
483.5842031229987
 21
159.5779154371124
 31
0.0
  0
LINE
  5
351B4
330
2
100
AcDbEntity
  8
DETAIL
100
AcDbLine
 10
483.6530458162563
 20
160.0445056947877
 30
0.0
 11
484.3108555585812
 21
160.7023154371139
 31
0.0
  0
TEXT
  5
3671B
330
2
100
AcDbEntity
  8
DIM
100
AcDbText
 10
422.5445797701336
 20
154.7986134412643
 30
0.0
 40
1.5
  1
ALPRO HORIZONTAL CEILING MOUNT
  7
STD
100
AcDbText
  0
TEXT
  5
3671C
330
2
100
AcDbEntity
  8
DIM
100
AcDbText
 10
430.6482632626303
 20
152.2720104399001
 30
0.0
 40
1.5
  1
BAFFLE WITH FLUSHMOUNTS
  7
STD
100
AcDbText
  0
TEXT
  5
3671D
330
2
100
AcDbEntity
  8
DIM
100
AcDbText
 10
433.409859442712
 20
149.7454074385358
 30
0.0
 40
1.5
  1
(INSULATION NOT SHOWN)
  7
STD
100
AcDbText
  0
SOLID
  5
3671E
330
2
100
AcDbEntity
  8
DIM
100
AcDbTrace
 10
460.0795629662159
 20
139.2563418971558
 30
0.0
 11
459.5141018420451
 21
137.8446926074767
 31
0.0
 12
459.5911652979864
 22
139.3634293271745
 32
0.0
 13
459.5911652979864
 23
139.3634293271745
 33
0.0
  0
LWPOLYLINE
  5
3671F
330
2
100
AcDbEntity
  8
DIM
100
AcDbPolyline
 90
        3
 70
     0
 43
0.0
 10
459.835364132101
 20
139.3098856121651
 10
463.5045251998745
 20
156.0439664426286
 10
462.0045251998743
 20
156.0439664426286
  0
SOLID
  5
36720
330
2
100
AcDbEntity
  8
SECTION
  6
PHANTOM2
 48
0.25
100
AcDbTrace
 10
480.2905089705927
 20
120.7590585856169
 30
0.0
 11
481.7145470762693
 21
121.2925522346708
 31
0.0
 12
480.5405089705926
 22
120.3260458837247
 32
0.0
 13
480.5405089705926
 23
120.3260458837247
 33
0.0
  0
LWPOLYLINE
  5
36721
330
2
100
AcDbEntity
  8
SECTION
  6
PHANTOM2
 48
0.25
100
AcDbPolyline
 90
        3
 70
     0
 43
0.0
 10
480.4155089705926
 20
120.5425522346708
 10
479.0125478164618
 20
119.7325522346708
 10
487.2461467223176
 20
114.9788816899755
  0
SOLID
  5
36722
330
2
100
AcDbEntity
  8
SECTION
  6
PHANTOM2
 48
0.25
100
AcDbTrace
 10
488.5241078764485
 20
116.0053880409216
 30
0.0
 11
489.9481459821251
 21
116.5388816899755
 31
0.0
 12
488.7741078764483
 22
115.5723753390294
 32
0.0
 13
488.7741078764483
 23
115.5723753390294
 33
0.0
  0
LWPOLYLINE
  5
36723
330
2
100
AcDbEntity
  8
SECTION
  6
PHANTOM2
 48
0.25
100
AcDbPolyline
 90
        2
 70
     0
 43
0.0
 10
488.6491078764485
 20
115.7888816899755
 10
487.2461467223176
 20
114.9788816899755
  0
TEXT
  5
36724
330
2
100
AcDbEntity
  8
DIM
100
AcDbText
 10
483.6289870190904
 20
102.1220462535898
 30
0.0
 40
1.5
  1
C-CHANNEL
  7
STD
100
AcDbText
  0
SOLID
  5
36725
330
2
100
AcDbEntity
  8
DIM
100
AcDbTrace
 10
476.7102469254789
 20
109.7177088926454
 30
0.0
 11
476.1451646918346
 21
111.1295098946352
 31
0.0
 12
477.1375833459273
 22
109.9772923739348
 32
0.0
 13
477.1375833459273
 23
109.9772923739348
 33
0.0
1001
ACAD
1000
DSTYLE
1002
{
1070
   147
1040
0.09
1070
    77
1070
     0
1002
}
  0
LWPOLYLINE
  5
36726
330
2
100
AcDbEntity
  8
DIM
100
AcDbPolyline
 90
        3
 70
     0
 43
0.0
 10
476.9239151357029
 20
109.8475006332901
 10
481.1533526398273
 20
102.8848361580918
 10
482.6533526398272
 20
102.8848361580918
1001
ACAD
1000
DSTYLE
1002
{
1070
   147
1040
0.09
1070
    77
1070
     0
1002
}
  0
LINE
  5
36727
330
2
100
AcDbEntity
  8
0
 62
     3
100
AcDbLine
 10
515.9680946997086
 20
149.4594714809539
 30
0.0
 11
521.5930946997087
 21
149.4594714809539
 31
0.0
  0
LINE
  5
36728
330
2
100
AcDbEntity
  8
0
 62
     3
100
AcDbLine
 10
521.5930946997087
 20
149.4594714809539
 30
0.0
 11
521.5930946997087
 21
149.1294714809539
 31
0.0
  0
LINE
  5
36729
330
2
100
AcDbEntity
  8
0
 62
     3
100
AcDbLine
 10
521.5930946997087
 20
149.1294714809539
 30
0.0
 11
516.2980946997087
 21
149.1294714809539
 31
0.0
  0
LINE
  5
3672A
330
2
100
AcDbEntity
  8
0
 62
     3
100
AcDbLine
 10
516.2980946997087
 20
149.1294714809539
 30
0.0
 11
516.2980946997087
 21
143.8344714809538
 31
0.0
  0
LINE
  5
3672B
330
2
100
AcDbEntity
  8
0
 62
     3
100
AcDbLine
 10
516.2980946997087
 20
143.8344714809538
 30
0.0
 11
515.9680946997086
 21
143.8344714809538
 31
0.0
  0
LINE
  5
3672C
330
2
100
AcDbEntity
  8
0
 62
     3
100
AcDbLine
 10
515.9680946997086
 20
143.8344714809538
 30
0.0
 11
515.9680946997086
 21
149.4594714809539
 31
0.0
  0
TEXT
  5
3672D
330
2
100
AcDbEntity
  8
DIM
100
AcDbText
 10
491.0648971126313
 20
144.4337210907554
 30
0.0
 40
1.5
  1
C-CHANNEL
  7
STD
100
AcDbText
  0
SOLID
  5
3672E
330
2
100
AcDbEntity
  8
DIM
100
AcDbTrace
 10
506.1374980496436
 20
147.2273002974717
 30
0.0
 11
506.8041118947828
 21
148.5940943497959
 31
0.0
 12
506.6168157879724
 22
147.0849819721468
 32
0.0
 13
506.6168157879724
 23
147.0849819721468
 33
0.0
1001
ACAD
1000
DSTYLE
1002
{
1070
   147
1040
0.09
1070
    77
1070
     0
1002
}
  0
LWPOLYLINE
  5
3672F
330
2
100
AcDbEntity
  8
DIM
100
AcDbPolyline
 90
        3
 70
     0
 43
0.0
 10
506.3771569188081
 20
147.1561411348092
 10
505.7953063895753
 20
145.1965109952574
 10
504.2953063895755
 20
145.1965109952574
1001
ACAD
1000
DSTYLE
1002
{
1070
   147
1040
0.09
1070
    77
1070
     0
1002
}
  0
TEXT
  5
36730
330
2
100
AcDbEntity
  8
DIM
100
AcDbText
 10
469.5860953753197
 20
151.4572431721475
 30
0.0
 40
1.5
  1
HANGER STRIP
  7
STD
100
AcDbText
  0
SOLID
  5
36731
330
2
100
AcDbEntity
  8
DIM
100
AcDbTrace
 10
488.682925575654
 20
154.0929660627135
 30
0.0
 11
489.6964031229996
 21
155.2267046838366
 31
0.0
 12
489.1054071580368
 22
153.8255538106621
 32
0.0
 13
489.1054071580368
 23
153.8255538106621
 33
0.0
1001
ACAD
1000
DSTYLE
1002
{
1070
   147
1040
0.09
1070
    77
1070
     0
1002
}
  0
LWPOLYLINE
  5
36732
330
2
100
AcDbEntity
  8
DIM
100
AcDbPolyline
 90
        3
 70
     0
 43
0.0
 10
488.8941663668454
 20
153.9592599366878
 10
487.7933122921001
 20
152.2200330766495
 10
486.2933122921002
 20
152.2200330766495
1001
ACAD
1000
DSTYLE
1002
{
1070
   147
1040
0.09
1070
    77
1070
     0
1002
}
  0
LINE
  5
36733
330
2
100
AcDbEntity
  8
0
 62
     4
100
AcDbLine
 10
484.2964031229994
 20
155.6407046838371
 30
0.0
 11
484.1464031229996
 21
155.7907046838369
 31
0.0
  0
LINE
  5
36734
330
2
100
AcDbEntity
  8
0
 62
     4
100
AcDbLine
 10
484.1464031229996
 20
155.7907046838369
 30
0.0
 11
481.1644031229996
 21
155.7907046838369
 31
0.0
  0
LINE
  5
36735
330
2
100
AcDbEntity
  8
0
 62
     4
100
AcDbLine
 10
481.1644031229996
 20
155.7907046838369
 30
0.0
 11
480.6964031229997
 21
156.2587046838368
 31
0.0
  0
LINE
  5
36736
330
2
100
AcDbEntity
  8
0
 62
     4
100
AcDbLine
 10
480.6964031229997
 20
156.2587046838368
 30
0.0
 11
486.6964031229996
 21
156.2587046838368
 31
0.0
  0
LINE
  5
36737
330
2
100
AcDbEntity
  8
0
 62
     4
100
AcDbLine
 10
486.6964031229996
 20
156.2587046838368
 30
0.0
 11
487.2604031229996
 21
155.6947046838365
 31
0.0
  0
LINE
  5
36738
330
2
100
AcDbEntity
  8
0
 62
     4
100
AcDbLine
 10
487.2604031229996
 20
155.6947046838365
 30
0.0
 11
490.2964031229997
 21
155.6947046838365
 31
0.0
  0
LINE
  5
36739
330
2
100
AcDbEntity
  8
0
 62
     4
100
AcDbLine
 10
490.2964031229997
 20
155.6947046838365
 30
0.0
 11
490.4464031229998
 21
155.5447046838366
 31
0.0
  0
LINE
  5
3673A
330
2
100
AcDbEntity
  8
0
 62
     4
100
AcDbLine
 10
490.4464031229998
 20
155.5447046838366
 30
0.0
 11
490.5964031229998
 21
155.6947046838365
 31
0.0
  0
LINE
  5
3673B
330
2
100
AcDbEntity
  8
0
 62
     4
100
AcDbLine
 10
490.5964031229998
 20
155.6947046838365
 30
0.0
 11
492.2284031229997
 21
155.6947046838365
 31
0.0
  0
LINE
  5
3673C
330
2
100
AcDbEntity
  8
0
 62
     4
100
AcDbLine
 10
492.2284031229997
 20
155.6947046838365
 30
0.0
 11
492.6964031229998
 21
155.2267046838366
 31
0.0
  0
LINE
  5
3673D
330
2
100
AcDbEntity
  8
0
 62
     4
100
AcDbLine
 10
492.6964031229998
 20
155.2267046838366
 30
0.0
 11
486.6964031229996
 21
155.2267046838366
 31
0.0
  0
LINE
  5
3673E
330
2
100
AcDbEntity
  8
0
 62
     4
100
AcDbLine
 10
486.6964031229996
 20
155.2267046838366
 30
0.0
 11
486.1324031229997
 21
155.7907046838369
 31
0.0
  0
LINE
  5
3673F
330
2
100
AcDbEntity
  8
0
 62
     4
100
AcDbLine
 10
486.1324031229997
 20
155.7907046838369
 30
0.0
 11
484.4464031229994
 21
155.7907046838369
 31
0.0
  0
LINE
  5
36740
330
2
100
AcDbEntity
  8
0
 62
     4
100
AcDbLine
 10
484.4464031229994
 20
155.7907046838369
 30
0.0
 11
484.2964031229994
 21
155.6407046838371
 31
0.0
  0
TEXT
  5
36741
330
2
100
AcDbEntity
  8
DIM
100
AcDbText
 10
507.8675201336817
 20
161.7388264475251
 30
0.0
 40
1.5
  1
FLUSHMOUNT
  7
STD
100
AcDbText
  0
SOLID
  5
36742
330
2
100
AcDbEntity
  8
DIM
100
AcDbTrace
 10
502.9075133644146
 20
151.3969490198362
 30
0.0
 11
502.2972217389231
 21
150.0040943497953
 31
0.0
 12
502.4227879781585
 22
151.5195919972907
 32
0.0
 13
502.4227879781585
 23
151.5195919972907
 33
0.0
1001
ACAD
1000
DSTYLE
1002
{
1070
   147
1040
0.09
1070
    77
1070
     0
1002
}
  0
LWPOLYLINE
  5
36743
330
2
100
AcDbEntity
  8
DIM
100
AcDbPolyline
 90
        3
 70
     0
 43
0.0
 10
502.6651506712864
 20
151.4582705085635
 10
505.4594164501891
 20
162.5021279482071
 10
506.9594164501892
 20
162.5021279482071
1001
ACAD
1000
DSTYLE
1002
{
1070
   147
1040
0.09
1070
    77
1070
     0
1002
}
  0
TEXT
  5
36744
330
2
100
AcDbEntity
  8
DIM
100
AcDbText
 10
472.8025227471118
 20
165.8518538287687
 30
0.0
 40
1.5
  1
FIELD
  7
STD
100
AcDbText
  0
TEXT
  5
36745
330
2
100
AcDbEntity
  8
DIM
100
AcDbText
 10
467.4788528971799
 20
163.3390639242666
 30
0.0
 40
1.5
  1
FASTENER
  7
STD
100
AcDbText
  0
TEXT
  5
36746
330
2
100
AcDbEntity
  8
DIM
100
AcDbText
 10
474.6452921877666
 20
160.8262740197646
 30
0.0
 40
1.5
  1
TYP
  7
STD
100
AcDbText
  0
SOLID
  5
36747
330
2
100
AcDbEntity
  8
DIM
100
AcDbTrace
 10
483.4986580037493
 20
161.9448493486884
 30
0.0
 11
483.8653031229991
 21
160.4690203082741
 31
0.0
 12
483.0398294024933
 22
161.7461628753956
 32
0.0
 13
483.0398294024933
 23
161.7461628753956
 33
0.0
1001
ACAD
1000
DSTYLE
1002
{
1070
   147
1040
0.09
1070
    77
1070
     0
1002
}
  0
LWPOLYLINE
  5
36748
330
2
100
AcDbEntity
  8
DIM
100
AcDbPolyline
 90
        3
 70
     0
 43
0.0
 10
483.2692437031213
 20
161.845506112042
 10
481.2096032382441
 20
166.6018538287687
 10
479.709603238244
 20
166.6018538287687
1001
ACAD
1000
DSTYLE
1002
{
1070
   147
1040
0.09
1070
    77
1070
     0
1002
}
  0
TEXT
  5
36749
330
2
100
AcDbEntity
  8
DIM
100
AcDbText
 10
485.8444091249082
 20
131.2518979405703
 30
0.0
 40
1.5
  1
PANEL
  7
STD
100
AcDbText
  0
TEXT
  5
3674A
330
2
100
AcDbEntity
  8
DIM
100
AcDbText
 10
487.1653504618794
 20
128.7391080360683
 30
0.0
 40
1.5
  1
FACE
  7
STD
100
AcDbText
  0
SOLID
  5
3674B
330
2
100
AcDbEntity
  8
DIM
100
AcDbTrace
 10
495.938544306966
 20
135.4072340632683
 30
0.0
 11
496.592573842748
 21
136.780094349796
 31
0.0
 12
496.4191492396659
 22
135.2693250401243
 32
0.0
 13
496.4191492396659
 23
135.2693250401243
 33
0.0
1001
ACAD
1000
DSTYLE
1002
{
1070
   147
1040
0.09
1070
    77
1070
     0
1002
}
  0
LWPOLYLINE
  5
3674C
330
2
100
AcDbEntity
  8
DIM
100
AcDbPolyline
 90
        3
 70
     0
 43
0.0
 10
496.178846773316
 20
135.3382795516963
 10
495.2214759734757
 20
132.0018979405703
 10
493.7214759734756
 20
132.0018979405703
1001
ACAD
1000
DSTYLE
1002
{
1070
   147
1040
0.09
1070
    77
1070
     0
1002
}
  0
TEXT
  5
3674D
330
2
100
AcDbEntity
  8
DIM
100
AcDbText
 10
499.1853212602279
 20
132.5272905471061
 30
0.0
 40
1.5
  1
RIVET
  7
STD
100
AcDbText
  0
TEXT
  5
3674E
330
2
100
AcDbEntity
  8
DIM
100
AcDbText
 10
501.3299324471311
 20
130.0272905471061
 30
0.0
 40
1.5
  1
TYP
  7
STD
100
AcDbText
  0
SOLID
  5
3674F
330
2
100
AcDbEntity
  8
DIM
100
AcDbTrace
 10
508.2555509936843
 20
135.2337322569413
 30
0.0
 11
508.9493414403547
 21
136.5869339477875
 31
0.0
 12
508.7319294040488
 22
135.0818651764453
 32
0.0
 13
508.7319294040488
 23
135.0818651764453
 33
0.0
1001
ACAD
1000
DSTYLE
1002
{
1070
   147
1040
0.09
1070
    77
1070
     0
1002
}
  0
LWPOLYLINE
  5
36750
330
2
100
AcDbEntity
  8
DIM
100
AcDbPolyline
 90
        3
 70
     0
 43
0.0
 10
508.4937401988666
 20
135.1577987166934
 10
507.8942434976086
 20
133.2772905471061
 10
506.3942434976087
 20
133.2772905471061
1001
ACAD
1000
DSTYLE
1002
{
1070
   147
1040
0.09
1070
    77
1070
     0
1002
}
  0
TEXT
  5
36751
330
2
100
AcDbEntity
  8
DIM
100
AcDbText
 10
442.5710431494141
 20
131.084174219456
 30
0.0
 40
1.5
  1
STABILIZER
  7
STD
100
AcDbText
  0
TEXT
  5
36752
330
2
100
AcDbEntity
  8
DIM
100
AcDbText
 10
439.7132668874768
 20
128.5580828142719
 30
0.0
 40
1.5
  1
(IF REQUIRED)
  7
STD
100
AcDbText
  0
SOLID
  5
36753
330
2
100
AcDbEntity
  8
DIM
100
AcDbTrace
 10
459.504721454856
 20
129.5081092334521
 30
0.0
 11
460.3065915155776
 21
128.2160162005328
 31
0.0
 12
459.1290085825968
 22
129.1782004011682
 32
0.0
 13
459.1290085825968
 23
129.1782004011682
 33
0.0
1001
ACAD
1000
DSTYLE
1002
{
1070
   147
1040
0.09
1070
    77
1070
     0
1002
}
  0
LWPOLYLINE
  5
36754
330
2
100
AcDbEntity
  8
DIM
100
AcDbPolyline
 90
        3
 70
     0
 43
0.0
 10
459.3168650187263
 20
129.3431548173102
 10
457.1183009938888
 20
131.8469641239581
 10
455.6183009938887
 20
131.8469641239581
1001
ACAD
1000
DSTYLE
1002
{
1070
   147
1040
0.09
1070
    77
1070
     0
1002
}
  0
TEXT
  5
36755
330
2
100
AcDbEntity
  8
DIM
100
AcDbText
 10
427.6351131111677
 20
143.9838337214769
 30
0.0
 40
1.5
  1
J-CHANNEL
  7
STD
100
AcDbText
  0
SOLID
  5
36756
330
2
100
AcDbEntity
  8
DIM
100
AcDbTrace
 10
443.5029878851628
 20
143.1183583004651
 30
0.0
 11
444.2357853971074
 21
141.7858764782673
 31
0.0
 12
443.1104422948253
 22
142.808668198094
 32
0.0
 13
443.1104422948253
 23
142.808668198094
 33
0.0
1001
ACAD
1000
DSTYLE
1002
{
1070
   147
1040
0.09
1070
    77
1070
     0
1002
}
  0
LWPOLYLINE
  5
36757
330
2
100
AcDbEntity
  8
DIM
100
AcDbPolyline
 90
        3
 70
     0
 43
0.0
 10
443.3067150899942
 20
142.9635132492796
 10
441.8999698642372
 20
144.7466236259789
 10
440.3999698642373
 20
144.7466236259789
1001
ACAD
1000
DSTYLE
1002
{
1070
   147
1040
0.09
1070
    77
1070
     0
1002
}
  0
TEXT
  5
36758
330
2
100
AcDbEntity
  8
DIM
100
AcDbText
 10
458.5867034853381
 20
117.3997159969876
 30
0.0
 40
1.5
  1
FLUSHMOUNT
  7
STD
100
AcDbText
  0
TEXT
  5
36759
330
2
100
AcDbEntity
  8
DIM
100
AcDbText
 10
469.112283294342
 20
114.8864144963055
 30
0.0
 40
1.5
  1
TYP
  7
STD
100
AcDbText
  0
SOLID
  5
3675A
330
2
100
AcDbEntity
  8
DIM
100
AcDbTrace
 10
477.1136662293793
 20
116.7840430604064
 30
0.0
 11
477.862689243195
 21
115.4606139823012
 31
0.0
 12
476.7249337183081
 22
116.4695799706227
 32
0.0
 13
476.7249337183081
 23
116.4695799706227
 33
0.0
1001
ACAD
1000
DSTYLE
1002
{
1070
   147
1040
0.09
1070
    77
1070
     0
1002
}
  0
LWPOLYLINE
  5
3675B
330
2
100
AcDbEntity
  8
DIM
100
AcDbPolyline
 90
        3
 70
     0
 43
0.0
 10
476.9192999738439
 20
116.6268115155146
 10
475.6765943448197
 20
118.1630174976698
 10
474.1765943448196
 20
118.1630174976698
1001
ACAD
1000
DSTYLE
1002
{
1070
   147
1040
0.09
1070
    77
1070
     0
1002
}
  0
LINE
  5
3675C
330
2
100
AcDbEntity
  8
0
 62
     4
100
AcDbLine
 10
510.9192217389232
 20
137.4100943497959
 30
0.0
 11
510.9192217389232
 21
148.5340943497959
 31
0.0
  0
ARC
  5
3675D
330
2
100
AcDbEntity
  8
0
 62
     4
100
AcDbCircle
 10
510.859221738923
 20
148.5340943497958
 30
0.0
 40
0.0600000000000023
100
AcDbArc
 50
0.0000000000542815
 51
90.00000000005426
  0
LINE
  5
3675E
330
2
100
AcDbEntity
  8
0
 62
     4
100
AcDbLine
 10
510.859221738923
 20
148.5940943497959
 30
0.0
 11
505.3572217389231
 21
148.5940943497959
 31
0.0
  0
ARC
  5
3675F
330
2
100
AcDbEntity
  8
0
 62
     4
100
AcDbCircle
 10
505.3572217389231
 20
148.6540943497958
 30
0.0
 40
0.0599999999999454
100
AcDbArc
 50
180.0
 51
270.0
  0
LINE
  5
36760
330
2
100
AcDbEntity
  8
0
 62
     4
100
AcDbLine
 10
505.2972217389232
 20
148.6540943497958
 30
0.0
 11
505.2972217389232
 21
148.9120943497958
 31
0.0
  0
ARC
  5
36761
330
2
100
AcDbEntity
  8
0
 62
     4
100
AcDbCircle
 10
505.3572217389231
 20
148.9120943497958
 30
0.0
 40
0.0599999999999454
100
AcDbArc
 50
90.0
 51
180.0
  0
ARC
  5
36763
330
2
100
AcDbEntity
  8
0
 62
     4
100
AcDbCircle
 10
511.2372217389232
 20
148.9120943497958
 30
0.0
 40
0.0600000000000023
100
AcDbArc
 50
0.0000000000542815
 51
90.00000000005426
  0
LINE
  5
36764
330
2
100
AcDbEntity
  8
0
 62
     4
100
AcDbLine
 10
511.2972217389232
 20
148.9120943497958
 30
0.0
 11
511.2972217389232
 21
137.0320943497958
 31
0.0
  0
ARC
  5
36765
330
2
100
AcDbEntity
  8
0
 62
     4
100
AcDbCircle
 10
511.237221738923
 20
137.0320943497958
 30
0.0
 40
0.0600000000000591
100
AcDbArc
 50
270.0
 51
0.0
  0
LINE
  5
36766
330
2
100
AcDbEntity
  8
0
 62
     4
100
AcDbLine
 10
511.237221738923
 20
136.9720943497958
 30
0.0
 11
505.3572217389231
 21
136.9720943497958
 31
0.0
  0
ARC
  5
36767
330
2
100
AcDbEntity
  8
0
 62
     4
100
AcDbCircle
 10
505.3572217389231
 20
137.0320943497958
 30
0.0
 40
0.0600000000000591
100
AcDbArc
 50
180.0
 51
270.0
  0
LINE
  5
36768
330
2
100
AcDbEntity
  8
0
 62
     4
100
AcDbLine
 10
505.2972217389231
 20
137.0320943497958
 30
0.0
 11
505.2972217389232
 21
137.2900943497958
 31
0.0
  0
ARC
  5
36769
330
2
100
AcDbEntity
  8
0
 62
     4
100
AcDbCircle
 10
505.3572217389231
 20
137.2900943497958
 30
0.0
 40
0.0600000000000023
100
AcDbArc
 50
90.00000000005426
 51
180.0000000000543
  0
LINE
  5
3676A
330
2
100
AcDbEntity
  8
0
 62
     4
100
AcDbLine
 10
505.3572217389231
 20
137.3500943497958
 30
0.0
 11
510.859221738923
 21
137.3500943497958
 31
0.0
  0
ARC
  5
3676B
330
2
100
AcDbEntity
  8
0
 62
     4
100
AcDbCircle
 10
510.859221738923
 20
137.4100943497959
 30
0.0
 40
0.0600000000000591
100
AcDbArc
 50
270.0
 51
0.0
  0
LINE
  5
3676C
330
2
100
AcDbEntity
  8
SECTION
  6
Continuous
100
AcDbLine
 10
488.9828621222768
 20
135.9702365919173
 30
0.0
 11
488.9828621222768
 21
142.6680306528895
 31
0.0
  0
LINE
  5
3676D
330
2
100
AcDbEntity
  8
SECTION
  6
Continuous
100
AcDbLine
 10
488.9828621222768
 20
142.6680306528895
 30
0.0
 11
489.6010445416541
 21
142.8930306528896
 31
0.0
  0
LINE
  5
3676E
330
2
100
AcDbEntity
  8
SECTION
  6
Continuous
100
AcDbLine
 10
489.6010445416541
 20
142.8930306528896
 30
0.0
 11
488.3646797028994
 21
143.3430306528899
 31
0.0
  0
LINE
  5
3676F
330
2
100
AcDbEntity
  8
SECTION
  6
Continuous
100
AcDbLine
 10
488.3646797028994
 20
143.3430306528899
 30
0.0
 11
488.9828621222768
 21
143.5680306528901
 31
0.0
  0
LINE
  5
36770
330
2
100
AcDbEntity
  8
SECTION
  6
Continuous
100
AcDbLine
 10
488.9828621222768
 20
143.5680306528901
 30
0.0
 11
488.9828621222768
 21
149.931105613614
 31
0.0
  0
LINE
  5
36771
330
2
100
AcDbEntity
  8
0
 62
     4
100
AcDbLine
 10
502.747221738923
 20
149.5360943497954
 30
0.0
 11
499.765221738923
 21
149.5360943497954
 31
0.0
  0
LINE
  5
36772
330
2
100
AcDbEntity
  8
0
 62
     4
100
AcDbLine
 10
499.765221738923
 20
149.5360943497954
 30
0.0
 11
499.2972217389231
 21
150.0040943497953
 31
0.0
  0
LINE
  5
36773
330
2
100
AcDbEntity
  8
0
 62
     4
100
AcDbLine
 10
499.2972217389231
 20
150.0040943497953
 30
0.0
 11
505.2972217389231
 21
150.0040943497953
 31
0.0
  0
LINE
  5
36774
330
2
100
AcDbEntity
  8
0
 62
     4
100
AcDbLine
 10
505.2972217389231
 20
150.0040943497953
 30
0.0
 11
505.8612217389231
 21
149.4400943497949
 31
0.0
  0
LINE
  5
36775
330
2
100
AcDbEntity
  8
0
 62
     4
100
AcDbLine
 10
505.8612217389231
 20
149.4400943497949
 30
0.0
 11
508.8972217389231
 21
149.4400943497949
 31
0.0
  0
LINE
  5
36776
330
2
100
AcDbEntity
  8
0
 62
     4
100
AcDbLine
 10
508.8972217389231
 20
149.4400943497949
 30
0.0
 11
509.0472217389232
 21
149.290094349795
 31
0.0
  0
LINE
  5
36777
330
2
100
AcDbEntity
  8
0
 62
     4
100
AcDbLine
 10
509.0472217389232
 20
149.290094349795
 30
0.0
 11
509.1972217389232
 21
149.4400943497949
 31
0.0
  0
LINE
  5
36778
330
2
100
AcDbEntity
  8
0
 62
     4
100
AcDbLine
 10
509.1972217389232
 20
149.4400943497949
 30
0.0
 11
510.8292217389231
 21
149.4400943497949
 31
0.0
  0
LINE
  5
36779
330
2
100
AcDbEntity
  8
0
 62
     4
100
AcDbLine
 10
510.8292217389231
 20
149.4400943497949
 30
0.0
 11
511.2972217389232
 21
148.9720943497951
 31
0.0
  0
LINE
  5
3677A
330
2
100
AcDbEntity
  8
0
 62
     4
100
AcDbLine
 10
511.2972217389232
 20
148.9720943497951
 30
0.0
 11
505.2972217389231
 21
148.9720943497951
 31
0.0
  0
LINE
  5
3677B
330
2
100
AcDbEntity
  8
0
 62
     4
100
AcDbLine
 10
505.2972217389231
 20
148.9720943497951
 30
0.0
 11
504.7332217389231
 21
149.5360943497954
 31
0.0
  0
LINE
  5
3677C
330
2
100
AcDbEntity
  8
0
 62
     4
100
AcDbLine
 10
504.7332217389231
 20
149.5360943497954
 30
0.0
 11
503.0472217389228
 21
149.5360943497954
 31
0.0
  0
LINE
  5
3677D
330
2
100
AcDbEntity
  8
0
 62
     4
100
AcDbLine
 10
503.0472217389228
 20
149.5360943497954
 30
0.0
 11
502.897221738923
 21
149.3860943497955
 31
0.0
  0
LINE
  5
3677E
330
2
100
AcDbEntity
  8
0
 62
     4
100
AcDbLine
 10
502.897221738923
 20
149.3860943497955
 30
0.0
 11
502.747221738923
 21
149.5360943497954
 31
0.0
  0
TEXT
  5
3677F
330
2
100
AcDbEntity
  8
DIM
100
AcDbText
 10
519.9065096519516
 20
139.8095227350011
 30
0.0
 40
1.5
  1
(2X) FIELD INSTALL
  7
STD
100
AcDbText
  0
TEXT
  5
36780
330
2
100
AcDbEntity
  8
DIM
100
AcDbText
 10
520.0333855046119
 20
137.283942925997
 30
0.0
 40
1.5
  1
AWA-2 WALL ANGLE
  7
STD
100
AcDbText
  0
TEXT
  5
36781
330
2
100
AcDbEntity
  8
DIM
100
AcDbText
 10
519.9065096519516
 20
134.7573399246327
 30
0.0
 40
1.5
  1
(BY ALPRO) 3" LONG
  7
STD
100
AcDbText
  0
TEXT
  5
36782
330
2
100
AcDbEntity
  8
DIM
100
AcDbText
 10
519.9842722713241
 20
132.2307369232684
 30
0.0
 40
1.5
  1
TO PREVENT BAFFLE
  7
STD
100
AcDbText
  0
TEXT
  5
36783
330
2
100
AcDbEntity
  8
DIM
100
AcDbText
 10
519.8614891881044
 20
129.7041339219042
 30
0.0
 40
1.5
  1
FROM SLIPPING
  7
STD
100
AcDbText
  0
SOLID
  5
36784
330
2
100
AcDbEntity
  8
DIM
100
AcDbTrace
 10
516.6427501556341
 20
142.353352776494
 30
0.0
 11
516.2980946997087
 21
143.8344714809538
 31
0.0
 12
517.1044829540575
 22
142.5451933948731
 32
0.0
 13
517.1044829540575
 23
142.5451933948731
 33
0.0
  0
LWPOLYLINE
  5
36785
330
2
100
AcDbEntity
  8
DIM
100
AcDbPolyline
 90
        3
 70
     0
 43
0.0
 10
516.8736165548458
 20
142.4492730856836
 10
517.4533855046119
 20
141.0538525440052
 10
518.9533855046119
 20
141.0538525440052
  0
SOLID
  5
36786
330
2
100
AcDbEntity
  8
DIM
  6
HIDDEN
 48
0.25
100
AcDbTrace
 10
513.3342122826907
 20
146.3969714809539
 30
0.0
 11
511.8342122826907
 21
146.6469714809539
 31
0.0
 12
513.3342122826907
 22
146.8969714809539
 32
0.0
 13
513.3342122826907
 23
146.8969714809539
 33
0.0
  0
LWPOLYLINE
  5
36787
330
2
100
AcDbEntity
  8
DIM
  6
HIDDEN
 48
0.25
100
AcDbPolyline
 90
        2
 70
     0
 43
0.0
 10
513.3342122826907
 20
146.6469714809539
 10
515.1624436705446
 20
146.6469714809539
  0
SOLID
  5
36788
330
2
100
AcDbEntity
  8
DIM
  6
HIDDEN
 48
0.25
100
AcDbTrace
 10
518.6955946997087
 20
154.4827765379307
 30
0.0
 11
518.9455946997087
 21
155.9827765379307
 31
0.0
 12
519.1955946997087
 22
154.4827765379307
 32
0.0
 13
519.1955946997087
 23
154.4827765379307
 33
0.0
  0
LWPOLYLINE
  5
36789
330
2
100
AcDbEntity
  8
DIM
  6
HIDDEN
 48
0.25
100
AcDbPolyline
 90
        2
 70
     0
 43
0.0
 10
518.9455946997087
 20
154.4827765379307
 10
518.9455946997087
 20
152.4383489823438
  0
SOLID
  5
3678A
330
2
100
AcDbEntity
  8
DIM
  6
HIDDEN
 48
0.25
100
AcDbTrace
 10
494.0563699152034
 20
154.9184893146545
 30
0.0
 11
492.8487392802546
 21
155.8426799062173
 31
0.0
 12
494.2908300727402
 22
155.3601095525602
 32
0.0
 13
494.2908300727402
 23
155.3601095525602
 33
0.0
  0
LWPOLYLINE
  5
3678B
330
2
100
AcDbEntity
  8
DIM
  6
HIDDEN
 48
0.25
100
AcDbPolyline
 90
        4
 70
     0
 43
0.0
 10
494.1735999939718
 20
155.1392994336073
 10
496.2500694392786
 20
154.0368831232146
 10
496.2500694392786
 20
150.0158181048333
 10
498.4699445749891
 20
150.0158181048333
  0
LINE
  5
3678C
330
2
100
AcDbEntity
  8
DETAIL
100
AcDbLine
 10
477.4036103312773
 20
156.5537690381568
 30
0.0
 11
477.18816033165
 21
156.7345530533811
 31
0.0
1001
ACAD
1010
0.0
1020
0.0
1030
0.0
  0
LINE
  5
3678D
330
2
100
AcDbEntity
  8
DETAIL
100
AcDbLine
 10
474.8182103357506
 20
158.7231772208489
 30
0.0
 11
474.6027603361234
 21
158.9039612360732
 31
0.0
1001
ACAD
1010
0.0
1020
0.0
1030
0.0
  0
LINE
  5
3678E
330
2
100
AcDbEntity
  8
DETAIL
100
AcDbLine
 10
480.2243308329884
 20
157.0740865402177
 30
0.0
 11
480.0088808333612
 21
157.254870555442
 31
0.0
1001
ACAD
1010
0.0
1020
0.0
1030
0.0
  0
LINE
  5
3678F
330
2
100
AcDbEntity
  8
DETAIL
100
AcDbLine
 10
477.6389308374618
 20
159.2434947229097
 30
0.0
 11
477.6208043118838
 21
159.2587046838368
 31
0.0
1001
ACAD
1010
0.0
1020
0.0
1030
0.0
  0
LINE
  5
36790
330
2
100
AcDbEntity
  8
DETAIL
100
AcDbLine
 10
483.0450513346997
 20
157.5944040422784
 30
0.0
 11
482.8296013350724
 21
157.7751880575027
 31
0.0
1001
ACAD
1010
0.0
1020
0.0
1030
0.0
  0
LINE
  5
36791
330
2
100
AcDbEntity
  8
DETAIL
100
AcDbLine
 10
485.865771836411
 20
158.1147215443392
 30
0.0
 11
485.6503218367838
 21
158.2955055595635
 31
0.0
1001
ACAD
1010
0.0
1020
0.0
1030
0.0
  0
LINE
  5
36792
330
2
100
AcDbEntity
  8
DETAIL
100
AcDbLine
 10
491.2718923336488
 20
156.4656308637077
 30
0.0
 11
491.0564423340217
 21
156.6464148789321
 31
0.0
1001
ACAD
1010
0.0
1020
0.0
1030
0.0
  0
LINE
  5
36793
330
2
100
AcDbEntity
  8
DETAIL
100
AcDbLine
 10
488.6864923381224
 20
158.6350390463998
 30
0.0
 11
488.4710423384952
 21
158.8158230616241
 31
0.0
1001
ACAD
1010
0.0
1020
0.0
1030
0.0
  0
LINE
  5
36794
330
2
100
AcDbEntity
  8
DETAIL
100
AcDbLine
 10
494.0926128353601
 20
156.9859483657685
 30
0.0
 11
493.877162835733
 21
157.1667323809928
 31
0.0
1001
ACAD
1010
0.0
1020
0.0
1030
0.0
  0
LINE
  5
36795
330
2
100
AcDbEntity
  8
DETAIL
100
AcDbLine
 10
491.5072128398335
 20
159.1553565484606
 30
0.0
 11
491.3840473282113
 21
159.2587046838367
 31
0.0
1001
ACAD
1010
0.0
1020
0.0
1030
0.0
  0
LINE
  5
36796
330
2
100
AcDbEntity
  8
DETAIL
100
AcDbLine
 10
496.9133333370713
 20
157.5062658678293
 30
0.0
 11
496.6978833374441
 21
157.6870498830536
 31
0.0
1001
ACAD
1010
0.0
1020
0.0
1030
0.0
  0
LINE
  5
36797
330
2
100
AcDbEntity
  8
DETAIL
100
AcDbLine
 10
499.7340538387826
 20
158.0265833698901
 30
0.0
 11
499.5186038391555
 21
158.2073673851144
 31
0.0
1001
ACAD
1010
0.0
1020
0.0
1030
0.0
  0
LINE
  5
36798
330
2
100
AcDbEntity
  8
DETAIL
100
AcDbLine
 10
505.1401743360206
 20
156.3774926892587
 30
0.0
 11
504.9247243363933
 21
156.558276704483
 31
0.0
1001
ACAD
1010
0.0
1020
0.0
1030
0.0
  0
LINE
  5
36799
330
2
100
AcDbEntity
  8
DETAIL
100
AcDbLine
 10
502.554774340494
 20
158.5469008719508
 30
0.0
 11
502.3393243408667
 21
158.7276848871751
 31
0.0
1001
ACAD
1010
0.0
1020
0.0
1030
0.0
  0
LINE
  5
3679A
330
2
100
AcDbEntity
  8
DETAIL
100
AcDbLine
 10
507.9608948377317
 20
156.8978101913196
 30
0.0
 11
507.7454448381046
 21
157.0785942065439
 31
0.0
1001
ACAD
1010
0.0
1020
0.0
1030
0.0
  0
LINE
  5
3679B
330
2
100
AcDbEntity
  8
DETAIL
100
AcDbLine
 10
505.3754948422052
 20
159.0672183740116
 30
0.0
 11
505.1600448425779
 21
159.248002389236
 31
0.0
1001
ACAD
1010
0.0
1020
0.0
1030
0.0
  0
LINE
  5
3679C
330
2
100
AcDbEntity
  8
DETAIL
100
AcDbLine
 10
510.7816153394431
 20
157.4181276933803
 30
0.0
 11
510.5661653398159
 21
157.5989117086046
 31
0.0
1001
ACAD
1010
0.0
1020
0.0
1030
0.0
  0
LINE
  5
3679D
330
2
100
AcDbEntity
  8
DETAIL
100
AcDbLine
 10
513.6023358411542
 20
157.938445195441
 30
0.0
 11
513.3868858415271
 21
158.1192292106654
 31
0.0
1001
ACAD
1010
0.0
1020
0.0
1030
0.0
  0
LINE
  5
3679E
330
2
100
AcDbEntity
  8
DETAIL
100
AcDbLine
 10
519.0084563383922
 20
156.2893545148097
 30
0.0
 11
518.7930063387648
 21
156.470138530034
 31
0.0
1001
ACAD
1010
0.0
1020
0.0
1030
0.0
  0
LINE
  5
3679F
330
2
100
AcDbEntity
  8
DETAIL
100
AcDbLine
 10
516.4230563428656
 20
158.4587626975018
 30
0.0
 11
516.2076063432382
 21
158.6395467127261
 31
0.0
1001
ACAD
1010
0.0
1020
0.0
1030
0.0
  0
LINE
  5
367A0
330
2
100
AcDbEntity
  8
DETAIL
100
AcDbLine
 10
521.8291768401035
 20
156.8096720168705
 30
0.0
 11
521.6137268404763
 21
156.9904560320948
 31
0.0
1001
ACAD
1010
0.0
1020
0.0
1030
0.0
  0
LINE
  5
367A1
330
2
100
AcDbEntity
  8
DETAIL
100
AcDbLine
 10
519.2437768445769
 20
158.9790801995625
 30
0.0
 11
519.0283268449497
 21
159.1598642147869
 31
0.0
1001
ACAD
1010
0.0
1020
0.0
1030
0.0
  0
LINE
  5
367A2
330
2
100
AcDbEntity
  8
DETAIL
100
AcDbLine
 10
524.6498973418148
 20
157.3299895189312
 30
0.0
 11
524.4344473421874
 21
157.5107735341555
 31
0.0
1001
ACAD
1010
0.0
1020
0.0
1030
0.0
  0
LINE
  5
367A3
330
2
100
AcDbEntity
  8
DETAIL
100
AcDbLine
 10
474.8182102606343
 20
158.7231770499784
 30
0.0
 11
474.8378203027527
 21
158.9473208570491
 31
0.0
1001
ACAD
1010
0.0
1020
0.0
1030
0.0
  0
LINE
  5
367A4
330
2
100
AcDbEntity
  8
DETAIL
100
AcDbLine
 10
477.4036102565908
 20
156.5537688661795
 30
0.0
 11
477.4232202987091
 21
156.7779126732501
 31
0.0
1001
ACAD
1010
0.0
1020
0.0
1030
0.0
  0
LINE
  5
367A5
330
2
100
AcDbEntity
  8
DETAIL
100
AcDbLine
 10
477.6389307620095
 20
159.2434945510272
 30
0.0
 11
477.6402614762011
 21
159.2587046838369
 31
0.0
1001
ACAD
1010
0.0
1020
0.0
1030
0.0
  0
LINE
  5
367A6
330
2
100
AcDbEntity
  8
DETAIL
100
AcDbLine
 10
480.2243307579658
 20
157.0740863672281
 30
0.0
 11
480.2439408000841
 21
157.2982301742989
 31
0.0
1001
ACAD
1010
0.0
1020
0.0
1030
0.0
  0
LINE
  5
367A7
330
2
100
AcDbEntity
  8
DETAIL
100
AcDbLine
 10
483.0450512593408
 20
157.594403868277
 30
0.0
 11
483.0646613014591
 21
157.8185476753476
 31
0.0
1001
ACAD
1010
0.0
1020
0.0
1030
0.0
  0
LINE
  5
367A8
330
2
100
AcDbEntity
  8
DETAIL
100
AcDbLine
 10
485.8657717607158
 20
158.1147213693257
 30
0.0
 11
485.885381802834
 21
158.3388651763964
 31
0.0
1001
ACAD
1010
0.0
1020
0.0
1030
0.0
  0
LINE
  5
367A9
330
2
100
AcDbEntity
  8
DETAIL
100
AcDbLine
 10
488.686492262091
 20
158.6350388703744
 30
0.0
 11
488.7061023042091
 21
158.8591826774451
 31
0.0
1001
ACAD
1010
0.0
1020
0.0
1030
0.0
  0
LINE
  5
367AA
330
2
100
AcDbEntity
  8
DETAIL
100
AcDbLine
 10
491.2718922580473
 20
156.4656306865755
 30
0.0
 11
491.2915023001654
 21
156.6897744936461
 31
0.0
1001
ACAD
1010
0.0
1020
0.0
1030
0.0
  0
LINE
  5
367AB
330
2
100
AcDbEntity
  8
DETAIL
100
AcDbLine
 10
491.507212763466
 20
159.1553563714232
 30
0.0
 11
491.5162545691966
 21
159.2587046838368
 31
0.0
1001
ACAD
1010
0.0
1020
0.0
1030
0.0
  0
LINE
  5
367AC
330
2
100
AcDbEntity
  8
DETAIL
100
AcDbLine
 10
494.0926127594223
 20
156.9859481876243
 30
0.0
 11
494.1122228015406
 21
157.2100919946949
 31
0.0
1001
ACAD
1010
0.0
1020
0.0
1030
0.0
  0
LINE
  5
367AD
330
2
100
AcDbEntity
  8
DETAIL
100
AcDbLine
 10
496.9133332607973
 20
157.506265688673
 30
0.0
 11
496.9329433029156
 21
157.7304094957436
 31
0.0
1001
ACAD
1010
0.0
1020
0.0
1030
0.0
  0
LINE
  5
367AE
330
2
100
AcDbEntity
  8
DETAIL
100
AcDbLine
 10
499.7340537621725
 20
158.0265831897218
 30
0.0
 11
499.7536638042906
 21
158.2507269967924
 31
0.0
1001
ACAD
1010
0.0
1020
0.0
1030
0.0
  0
LINE
  5
367AF
330
2
100
AcDbEntity
  8
DETAIL
100
AcDbLine
 10
502.5547742635475
 20
158.5469006907705
 30
0.0
 11
502.5743843056656
 21
158.7710444978412
 31
0.0
1001
ACAD
1010
0.0
1020
0.0
1030
0.0
  0
LINE
  5
367B0
330
2
100
AcDbEntity
  8
DETAIL
100
AcDbLine
 10
505.1401742595039
 20
156.3774925069715
 30
0.0
 11
505.1597843016221
 21
156.6016363140422
 31
0.0
1001
ACAD
1010
0.0
1020
0.0
1030
0.0
  0
LINE
  5
367B1
330
2
100
AcDbEntity
  8
DETAIL
100
AcDbLine
 10
505.3754947649227
 20
159.0672181918193
 30
0.0
 11
505.3922476621925
 21
159.2587046838368
 31
0.0
1001
ACAD
1010
0.0
1020
0.0
1030
0.0
  0
LINE
  5
367B2
330
2
100
AcDbEntity
  8
DETAIL
100
AcDbLine
 10
507.960894760879
 20
156.8978100080203
 30
0.0
 11
507.9805048029972
 21
157.1219538150909
 31
0.0
1001
ACAD
1010
0.0
1020
0.0
1030
0.0
  0
LINE
  5
367B3
330
2
100
AcDbEntity
  8
DETAIL
100
AcDbLine
 10
510.781615262254
 20
157.418127509069
 30
0.0
 11
510.8012253043723
 21
157.6422713161397
 31
0.0
1001
ACAD
1010
0.0
1020
0.0
1030
0.0
  0
LINE
  5
367B4
330
2
100
AcDbEntity
  8
DETAIL
100
AcDbLine
 10
513.6023357636291
 20
157.9384450101178
 30
0.0
 11
513.6219458057472
 21
158.1625888171884
 31
0.0
1001
ACAD
1010
0.0
1020
0.0
1030
0.0
  0
LINE
  5
367B5
330
2
100
AcDbEntity
  8
DETAIL
100
AcDbLine
 10
516.4230562650041
 20
158.4587625111666
 30
0.0
 11
516.4426663071223
 21
158.6829063182372
 31
0.0
1001
ACAD
1010
0.0
1020
0.0
1030
0.0
  0
LINE
  5
367B6
330
2
100
AcDbEntity
  8
DETAIL
100
AcDbLine
 10
519.0084562609604
 20
156.2893543273676
 30
0.0
 11
519.0280663030787
 21
156.5134981344382
 31
0.0
1001
ACAD
1010
0.0
1020
0.0
1030
0.0
  0
LINE
  5
367B7
330
2
100
AcDbEntity
  8
DETAIL
100
AcDbLine
 10
519.2437767663791
 20
158.9790800122153
 30
0.0
 11
519.2633868084973
 21
159.2032238192859
 31
0.0
1001
ACAD
1010
0.0
1020
0.0
1030
0.0
  0
LINE
  5
367B8
330
2
100
AcDbEntity
  8
DETAIL
100
AcDbLine
 10
521.8291767623354
 20
156.8096718284163
 30
0.0
 11
521.8487868044536
 21
157.033815635487
 31
0.0
1001
ACAD
1010
0.0
1020
0.0
1030
0.0
  0
LINE
  5
367B9
330
2
100
AcDbEntity
  8
DETAIL
100
AcDbLine
 10
524.6498972637104
 20
157.3299893294651
 30
0.0
 11
524.6695073058288
 21
157.5541331365356
 31
0.0
1001
ACAD
1010
0.0
1020
0.0
1030
0.0
  0
LINE
  5
367BA
330
2
100
AcDbEntity
  8
DETAIL
100
AcDbLine
 10
524.6696229746771
 20
157.5537129022168
 30
0.0
 11
524.4345629063498
 21
157.5103532952764
 31
0.0
1001
ACAD
1010
0.0
1020
0.0
1030
0.0
  0
LINE
  5
367BB
330
2
100
AcDbEntity
  8
DETAIL
100
AcDbLine
 10
521.8489020736163
 20
157.033397603967
 30
0.0
 11
521.613842005289
 21
156.9900379970267
 31
0.0
1001
ACAD
1010
0.0
1020
0.0
1030
0.0
  0
LINE
  5
367BC
330
2
100
AcDbEntity
  8
DETAIL
100
AcDbLine
 10
519.0281811725557
 20
156.5130823057173
 30
0.0
 11
518.7931211042282
 21
156.4697226987769
 31
0.0
1001
ACAD
1010
0.0
1020
0.0
1030
0.0
  0
LINE
  5
367BD
330
2
100
AcDbEntity
  8
DETAIL
100
AcDbLine
 10
519.2635037908879
 20
159.2028077853946
 30
0.0
 11
519.0284437225606
 21
159.1594481784542
 31
0.0
1001
ACAD
1010
0.0
1020
0.0
1030
0.0
  0
LINE
  5
367BE
330
2
100
AcDbEntity
  8
DETAIL
100
AcDbLine
 10
516.4427828898273
 20
158.6824924871448
 30
0.0
 11
516.2077228214998
 21
158.6391328802045
 31
0.0
1001
ACAD
1010
0.0
1020
0.0
1030
0.0
  0
LINE
  5
367BF
330
2
100
AcDbEntity
  8
DETAIL
100
AcDbLine
 10
513.6220619887665
 20
158.1621771888951
 30
0.0
 11
513.387001920439
 21
158.1188175819547
 31
0.0
1001
ACAD
1010
0.0
1020
0.0
1030
0.0
  0
LINE
  5
367C0
330
2
100
AcDbEntity
  8
DETAIL
100
AcDbLine
 10
510.8013410877056
 20
157.6418618906453
 30
0.0
 11
510.5662810193781
 21
157.598502283705
 31
0.0
1001
ACAD
1010
0.0
1020
0.0
1030
0.0
  0
LINE
  5
367C1
330
2
100
AcDbEntity
  8
DETAIL
100
AcDbLine
 10
507.9806201866448
 20
157.1215465923956
 30
0.0
 11
507.7455601183173
 21
157.0781869854551
 31
0.0
1001
ACAD
1010
0.0
1020
0.0
1030
0.0
  0
LINE
  5
367C2
330
2
100
AcDbEntity
  8
DETAIL
100
AcDbLine
 10
505.159899285584
 20
156.6012312941458
 30
0.0
 11
504.9248392172565
 21
156.5578716872054
 31
0.0
1001
ACAD
1010
0.0
1020
0.0
1030
0.0
  0
LINE
  5
367C3
330
2
100
AcDbEntity
  8
DETAIL
100
AcDbLine
 10
505.2203776419205
 20
159.2587046838368
 30
0.0
 11
505.1601618355886
 21
159.2475971668828
 31
0.0
1001
ACAD
1010
0.0
1020
0.0
1030
0.0
  0
LINE
  5
367C4
330
2
100
AcDbEntity
  8
DETAIL
100
AcDbLine
 10
502.5745010028552
 20
158.7706414755734
 30
0.0
 11
502.3394409345278
 21
158.7272818686331
 31
0.0
1001
ACAD
1010
0.0
1020
0.0
1030
0.0
  0
LINE
  5
367C5
330
2
100
AcDbEntity
  8
DETAIL
100
AcDbLine
 10
499.7537801017942
 20
158.2503261773237
 30
0.0
 11
499.5187200334668
 21
158.2069665703833
 31
0.0
1001
ACAD
1010
0.0
1020
0.0
1030
0.0
  0
LINE
  5
367C6
330
2
100
AcDbEntity
  8
DETAIL
100
AcDbLine
 10
496.9330592007334
 20
157.7300108790739
 30
0.0
 11
496.6979991324061
 21
157.6866512721336
 31
0.0
1001
ACAD
1010
0.0
1020
0.0
1030
0.0
  0
LINE
  5
367C7
330
2
100
AcDbEntity
  8
DETAIL
100
AcDbLine
 10
494.1123382996726
 20
157.2096955808242
 30
0.0
 11
493.8772782313452
 21
157.1663359738838
 31
0.0
1001
ACAD
1010
0.0
1020
0.0
1030
0.0
  0
LINE
  5
367C8
330
2
100
AcDbEntity
  8
DETAIL
100
AcDbLine
 10
491.2916173986118
 20
156.6893802825744
 30
0.0
 11
491.0565573302843
 21
156.6460206756341
 31
0.0
1001
ACAD
1010
0.0
1020
0.0
1030
0.0
  0
LINE
  5
367C9
330
2
100
AcDbEntity
  8
DETAIL
100
AcDbLine
 10
488.7062191158836
 20
158.858790464002
 30
0.0
 11
488.4711590475562
 21
158.8154308570617
 31
0.0
1001
ACAD
1010
0.0
1020
0.0
1030
0.0
  0
LINE
  5
367CA
330
2
100
AcDbEntity
  8
DETAIL
100
AcDbLine
 10
485.8854982148228
 20
158.3384751657523
 30
0.0
 11
485.6504381464953
 21
158.2951155588119
 31
0.0
1001
ACAD
1010
0.0
1020
0.0
1030
0.0
  0
LINE
  5
367CB
330
2
100
AcDbEntity
  8
DETAIL
100
AcDbLine
 10
483.0647773137619
 20
157.8181598675025
 30
0.0
 11
482.8297172454343
 21
157.7748002605621
 31
0.0
1001
ACAD
1010
0.0
1020
0.0
1030
0.0
  0
LINE
  5
367CC
330
2
100
AcDbEntity
  8
DETAIL
100
AcDbLine
 10
480.2440564127009
 20
157.2978445692527
 30
0.0
 11
480.0089963443736
 21
157.2544849623124
 31
0.0
1001
ACAD
1010
0.0
1020
0.0
1030
0.0
  0
LINE
  5
367CD
330
2
100
AcDbEntity
  8
DETAIL
100
AcDbLine
 10
477.4233355116401
 20
156.777529271003
 30
0.0
 11
477.1882754433128
 21
156.7341696640626
 31
0.0
1001
ACAD
1010
0.0
1020
0.0
1030
0.0
  0
LINE
  5
367CE
330
2
100
AcDbEntity
  8
DETAIL
100
AcDbLine
 10
474.8379372289118
 20
158.9469394524306
 30
0.0
 11
474.6028771605843
 21
158.9035798454903
 31
0.0
1001
ACAD
1010
0.0
1020
0.0
1030
0.0
  0
LINE
  5
367CF
330
2
100
AcDbEntity
  8
DETAIL
100
AcDbLine
 10
475.5835014490664
 20
159.1229398069905
 30
0.0
 11
475.4420052722492
 21
159.2587046838368
 31
0.0
1001
ACAD
1010
0.0
1020
0.0
1030
0.0
  0
LINE
  5
367D0
330
2
100
AcDbEntity
  8
DETAIL
100
AcDbLine
 10
483.3604506987805
 20
156.2587046838368
 30
0.0
 11
483.2056751953792
 21
156.4072110083948
 31
0.0
1001
ACAD
1010
0.0
1020
0.0
1030
0.0
  0
LINE
  5
367D1
330
2
100
AcDbEntity
  8
DETAIL
100
AcDbLine
 10
487.7837283144836
 20
156.6123007884696
 30
0.0
 11
487.4793162517628
 21
156.9043826463366
 31
0.0
1001
ACAD
1010
0.0
1020
0.0
1030
0.0
  0
LINE
  5
367D2
330
2
100
AcDbEntity
  8
DETAIL
100
AcDbLine
 10
492.0573693708671
 20
157.1094724264114
 30
0.0
 11
491.7529573081463
 21
157.4015542842784
 31
0.0
1001
ACAD
1010
0.0
1020
0.0
1030
0.0
  0
LINE
  5
367D3
330
2
100
AcDbEntity
  8
DETAIL
100
AcDbLine
 10
496.3310104272506
 20
157.6066440643532
 30
0.0
 11
496.0265983645299
 21
157.8987259222202
 31
0.0
1001
ACAD
1010
0.0
1020
0.0
1030
0.0
  0
LINE
  5
367D4
330
2
100
AcDbEntity
  8
DETAIL
100
AcDbLine
 10
500.6046514836342
 20
158.1038157022949
 30
0.0
 11
500.3002394209135
 21
158.3958975601619
 31
0.0
1001
ACAD
1010
0.0
1020
0.0
1030
0.0
  0
LINE
  5
367D5
330
2
100
AcDbEntity
  8
DETAIL
100
AcDbLine
 10
504.8782925400181
 20
158.6009873402367
 30
0.0
 11
504.5738804772972
 21
158.8930691981038
 31
0.0
1001
ACAD
1010
0.0
1020
0.0
1030
0.0
  0
LINE
  5
367D6
330
2
100
AcDbEntity
  8
DETAIL
100
AcDbLine
 10
509.1519335964016
 20
159.0981589781785
 30
0.0
 11
508.9846104706954
 21
159.2587046838367
 31
0.0
1001
ACAD
1010
0.0
1020
0.0
1030
0.0
  0
LINE
  5
367D7
330
2
100
AcDbEntity
  8
DETAIL
100
AcDbLine
 10
516.9030558972267
 20
156.2587046838368
 30
0.0
 11
516.7741073427142
 21
156.3824301795829
 31
0.0
1001
ACAD
1010
0.0
1020
0.0
1030
0.0
  0
LINE
  5
367D8
330
2
100
AcDbEntity
  8
DETAIL
100
AcDbLine
 10
521.3521604618188
 20
156.5875199596577
 30
0.0
 11
521.0477483990979
 21
156.8796018175246
 31
0.0
1001
ACAD
1010
0.0
1020
0.0
1030
0.0
  0
LINE
  5
367D9
330
2
100
AcDbEntity
  8
DETAIL
100
AcDbLine
 10
525.6258015182025
 20
157.0846915975994
 30
0.0
 11
525.3213894554816
 21
157.3767734554664
 31
0.0
1001
ACAD
1010
0.0
1020
0.0
1030
0.0
  0
LINE
  5
367DA
330
2
100
AcDbEntity
  8
DETAIL
100
AcDbLine
 10
525.6775522778085
 20
157.417772708181
 30
0.0
 11
525.3214154907033
 21
157.3763420164319
 31
0.0
1001
ACAD
1010
0.0
1020
0.0
1030
0.0
  0
LINE
  5
367DB
330
2
100
AcDbEntity
  8
DETAIL
100
AcDbLine
 10
521.4039114583259
 20
156.9206044799912
 30
0.0
 11
521.0477746712207
 21
156.8791737882421
 31
0.0
1001
ACAD
1010
0.0
1020
0.0
1030
0.0
  0
LINE
  5
367DC
330
2
100
AcDbEntity
  8
DETAIL
100
AcDbLine
 10
517.1302706388435
 20
156.4234362518014
 30
0.0
 11
516.7741338517381
 21
156.3820055600523
 31
0.0
1001
ACAD
1010
0.0
1020
0.0
1030
0.0
  0
LINE
  5
367DD
330
2
100
AcDbEntity
  8
DETAIL
100
AcDbLine
 10
504.9300469840018
 20
158.9340849412296
 30
0.0
 11
504.5739101968965
 21
158.8926542494804
 31
0.0
1001
ACAD
1010
0.0
1020
0.0
1030
0.0
  0
LINE
  5
367DE
330
2
100
AcDbEntity
  8
DETAIL
100
AcDbLine
 10
500.6564061645192
 20
158.4369167130398
 30
0.0
 11
500.3002693774138
 21
158.3954860212906
 31
0.0
1001
ACAD
1010
0.0
1020
0.0
1030
0.0
  0
LINE
  5
367DF
330
2
100
AcDbEntity
  8
DETAIL
100
AcDbLine
 10
496.3827653450366
 20
157.93974848485
 30
0.0
 11
496.0266285579313
 21
157.8983177931009
 31
0.0
1001
ACAD
1010
0.0
1020
0.0
1030
0.0
  0
LINE
  5
367E0
330
2
100
AcDbEntity
  8
DETAIL
100
AcDbLine
 10
492.1091245255539
 20
157.4425802566602
 30
0.0
 11
491.7529877384487
 21
157.4011495649111
 31
0.0
1001
ACAD
1010
0.0
1020
0.0
1030
0.0
  0
LINE
  5
367E1
330
2
100
AcDbEntity
  8
DETAIL
100
AcDbLine
 10
487.8354837060713
 20
156.9454120284704
 30
0.0
 11
487.4793469189661
 21
156.9039813367213
 31
0.0
1001
ACAD
1010
0.0
1020
0.0
1030
0.0
  0
LINE
  5
367E2
330
2
100
AcDbEntity
  8
DETAIL
100
AcDbLine
 10
483.5618428865889
 20
156.4482438002805
 30
0.0
 11
483.2057060994837
 21
156.4068131085315
 31
0.0
1001
ACAD
1010
0.0
1020
0.0
1030
0.0
  0
LINE
  5
367E3
330
2
100
AcDbEntity
  8
DETAIL
100
AcDbLine
 10
475.5835013866001
 20
159.1229398535007
 30
0.0
 11
475.6045572304363
 21
159.2587046838368
 31
0.0
1001
ACAD
1010
0.0
1020
0.0
1030
0.0
  0
LINE
  5
367E4
330
2
100
AcDbEntity
  8
DETAIL
100
AcDbLine
 10
483.5323543989918
 20
156.2587046838368
 30
0.0
 11
483.56181188802
 21
156.4486420252769
 31
0.0
1001
ACAD
1010
0.0
1020
0.0
1030
0.0
  0
LINE
  5
367E5
330
2
100
AcDbEntity
  8
DETAIL
100
AcDbLine
 10
487.7837282522036
 20
156.6123008358769
 30
0.0
 11
487.8354529440867
 21
156.9458136635906
 31
0.0
1001
ACAD
1010
0.0
1020
0.0
1030
0.0
  0
LINE
  5
367E6
330
2
100
AcDbEntity
  8
DETAIL
100
AcDbLine
 10
492.0573693082703
 20
157.1094724741904
 30
0.0
 11
492.1090940001533
 21
157.4429853019041
 31
0.0
1001
ACAD
1010
0.0
1020
0.0
1030
0.0
  0
LINE
  5
367E7
330
2
100
AcDbEntity
  8
DETAIL
100
AcDbLine
 10
496.331010364337
 20
157.606644112504
 30
0.0
 11
496.38273505622
 21
157.9401569402177
 31
0.0
1001
ACAD
1010
0.0
1020
0.0
1030
0.0
  0
LINE
  5
367E8
330
2
100
AcDbEntity
  8
DETAIL
100
AcDbLine
 10
500.6046514204038
 20
158.1038157508175
 30
0.0
 11
500.6563761122868
 21
158.4373285785312
 31
0.0
1001
ACAD
1010
0.0
1020
0.0
1030
0.0
  0
LINE
  5
367E9
330
2
100
AcDbEntity
  8
DETAIL
100
AcDbLine
 10
504.8782924764703
 20
158.6009873891311
 30
0.0
 11
504.9300171683535
 21
158.9345002168448
 31
0.0
1001
ACAD
1010
0.0
1020
0.0
1030
0.0
  0
LINE
  5
367EA
330
2
100
AcDbEntity
  8
DETAIL
100
AcDbLine
 10
509.1519335325371
 20
159.0981590274445
 30
0.0
 11
509.1768326486129
 21
159.2587046838368
 31
0.0
1001
ACAD
1010
0.0
1020
0.0
1030
0.0
  0
LINE
  5
367EB
330
2
100
AcDbEntity
  8
DETAIL
100
AcDbLine
 10
517.1046298171686
 20
156.2587046838368
 30
0.0
 11
517.1302440339569
 21
156.4238611992207
 31
0.0
1001
ACAD
1010
0.0
1020
0.0
1030
0.0
  0
LINE
  5
367EC
330
2
100
AcDbEntity
  8
DETAIL
100
AcDbLine
 10
521.3521603981405
 20
156.5875200098206
 30
0.0
 11
521.4038850900235
 21
156.9210328375343
 31
0.0
1001
ACAD
1010
0.0
1020
0.0
1030
0.0
  0
LINE
  5
367ED
330
2
100
AcDbEntity
  8
DETAIL
100
AcDbLine
 10
525.6258014542071
 20
157.0846916481341
 30
0.0
 11
525.6775261460901
 21
157.4182044758478
 31
0.0
1001
ACAD
1010
0.0
1020
0.0
1030
0.0
  0
LINE
  5
367EE
330
2
100
AcDbEntity
  8
DETAIL
100
AcDbLine
 10
474.059978346712
 20
157.5957890976635
 30
0.0
 11
473.9591873609025
 21
157.8583585926158
 31
0.0
1001
ACAD
1010
0.0
1020
0.0
1030
0.0
  0
LINE
  5
367EF
330
2
100
AcDbEntity
  8
DETAIL
100
AcDbLine
 10
476.7792910164224
 20
156.6833566036795
 30
0.0
 11
476.6785000306128
 21
156.9459260986319
 31
0.0
1001
ACAD
1010
0.0
1020
0.0
1030
0.0
  0
LINE
  5
367F0
330
2
100
AcDbEntity
  8
DETAIL
100
AcDbLine
 10
478.2891118564174
 20
158.9217580491239
 30
0.0
 11
478.1883208706079
 21
159.1843275440762
 31
0.0
1001
ACAD
1010
0.0
1020
0.0
1030
0.0
  0
LINE
  5
367F1
330
2
100
AcDbEntity
  8
DETAIL
100
AcDbLine
 10
481.0084245261278
 20
158.0093255551401
 30
0.0
 11
480.9076335403182
 21
158.2718950500924
 31
0.0
1001
ACAD
1010
0.0
1020
0.0
1030
0.0
  0
LINE
  5
367F2
330
2
100
AcDbEntity
  8
DETAIL
100
AcDbLine
 10
483.7277371958383
 20
157.0968930611562
 30
0.0
 11
483.6269462100286
 21
157.3594625561085
 31
0.0
1001
ACAD
1010
0.0
1020
0.0
1030
0.0
  0
LINE
  5
367F3
330
2
100
AcDbEntity
  8
DETAIL
100
AcDbLine
 10
486.4185502193483
 20
156.2587046838368
 30
0.0
 11
486.3462588797391
 21
156.4470300621247
 31
0.0
1001
ACAD
1010
0.0
1020
0.0
1030
0.0
  0
LINE
  5
367F4
330
2
100
AcDbEntity
  8
DETAIL
100
AcDbLine
 10
487.9568707055438
 20
158.4228620126167
 30
0.0
 11
487.8560797197342
 21
158.685431507569
 31
0.0
1001
ACAD
1010
0.0
1020
0.0
1030
0.0
  0
LINE
  5
367F5
330
2
100
AcDbEntity
  8
DETAIL
100
AcDbLine
 10
490.6761833752542
 20
157.5104295186328
 30
0.0
 11
490.5753923894446
 21
157.7729990135851
 31
0.0
1001
ACAD
1010
0.0
1020
0.0
1030
0.0
  0
LINE
  5
367F6
330
2
100
AcDbEntity
  8
DETAIL
100
AcDbLine
 10
493.3954960449645
 20
156.597997024649
 30
0.0
 11
493.294705059155
 21
156.8605665196013
 31
0.0
1001
ACAD
1010
0.0
1020
0.0
1030
0.0
  0
LINE
  5
367F7
330
2
100
AcDbEntity
  8
DETAIL
100
AcDbLine
 10
494.9053168849596
 20
158.8363984700932
 30
0.0
 11
494.8045258991498
 21
159.0989679650455
 31
0.0
1001
ACAD
1010
0.0
1020
0.0
1030
0.0
  0
LINE
  5
367F8
330
2
100
AcDbEntity
  8
DETAIL
100
AcDbLine
 10
497.62462955467
 20
157.9239659761093
 30
0.0
 11
497.5238385688604
 21
158.1865354710617
 31
0.0
1001
ACAD
1010
0.0
1020
0.0
1030
0.0
  0
LINE
  5
367F9
330
2
100
AcDbEntity
  8
DETAIL
100
AcDbLine
 10
500.3439422243805
 20
157.0115334821255
 30
0.0
 11
500.2431512385707
 21
157.2741029770778
 31
0.0
1001
ACAD
1010
0.0
1020
0.0
1030
0.0
  0
LINE
  5
367FA
330
2
100
AcDbEntity
  8
DETAIL
100
AcDbLine
 10
503.0019887754547
 20
156.2587046838368
 30
0.0
 11
502.9624639082811
 21
156.361670483094
 31
0.0
1001
ACAD
1010
0.0
1020
0.0
1030
0.0
  0
LINE
  5
367FB
330
2
100
AcDbEntity
  8
DETAIL
100
AcDbLine
 10
501.8537630643755
 20
159.2499349275698
 30
0.0
 11
501.8503966703485
 21
159.2587046838368
 31
0.0
1001
ACAD
1010
0.0
1020
0.0
1030
0.0
  0
LINE
  5
367FC
330
2
100
AcDbEntity
  8
DETAIL
100
AcDbLine
 10
504.5730757340858
 20
158.3375024335859
 30
0.0
 11
504.4722847482762
 21
158.6000719285382
 31
0.0
1001
ACAD
1010
0.0
1020
0.0
1030
0.0
  0
LINE
  5
367FD
330
2
100
AcDbEntity
  8
DETAIL
100
AcDbLine
 10
507.2923884037963
 20
157.4250699396021
 30
0.0
 11
507.1915974179866
 21
157.6876394345545
 31
0.0
1001
ACAD
1010
0.0
1020
0.0
1030
0.0
  0
LINE
  5
367FE
330
2
100
AcDbEntity
  8
DETAIL
100
AcDbLine
 10
510.0117010735067
 20
156.5126374456183
 30
0.0
 11
509.9109100876971
 21
156.7752069405706
 31
0.0
1001
ACAD
1010
0.0
1020
0.0
1030
0.0
  0
LINE
  5
367FF
330
2
100
AcDbEntity
  8
DETAIL
100
AcDbLine
 10
511.5215219135015
 20
158.7510388910626
 30
0.0
 11
511.420730927692
 21
159.0136083860149
 31
0.0
1001
ACAD
1010
0.0
1020
0.0
1030
0.0
  0
LINE
  5
36800
330
2
100
AcDbEntity
  8
DETAIL
100
AcDbLine
 10
514.2408345832121
 20
157.8386063970786
 30
0.0
 11
514.1400435974026
 21
158.101175892031
 31
0.0
1001
ACAD
1010
0.0
1020
0.0
1030
0.0
  0
LINE
  5
36801
330
2
100
AcDbEntity
  8
DETAIL
100
AcDbLine
 10
516.9601472529225
 20
156.9261739030949
 30
0.0
 11
516.8593562671128
 21
157.1887433980473
 31
0.0
1001
ACAD
1010
0.0
1020
0.0
1030
0.0
  0
LINE
  5
36802
330
2
100
AcDbEntity
  8
DETAIL
100
AcDbLine
 10
519.5854273315611
 20
156.2587046838368
 30
0.0
 11
519.5786689368232
 21
156.2763109040634
 31
0.0
1001
ACAD
1010
0.0
1020
0.0
1030
0.0
  0
LINE
  5
36803
330
2
100
AcDbEntity
  8
DETAIL
100
AcDbLine
 10
518.4699680929176
 20
159.164575348539
 30
0.0
 11
518.433835226455
 21
159.2587046838367
 31
0.0
1001
ACAD
1010
0.0
1020
0.0
1030
0.0
  0
LINE
  5
36804
330
2
100
AcDbEntity
  8
DETAIL
100
AcDbLine
 10
521.1892807626278
 20
158.2521428545553
 30
0.0
 11
521.0884897768181
 21
158.5147123495076
 31
0.0
1001
ACAD
1010
0.0
1020
0.0
1030
0.0
  0
LINE
  5
36805
330
2
100
AcDbEntity
  8
DETAIL
100
AcDbLine
 10
523.9085934323383
 20
157.3397103605714
 30
0.0
 11
523.8078024465287
 21
157.6022798555237
 31
0.0
1001
ACAD
1010
0.0
1020
0.0
1030
0.0
  0
LINE
  5
36806
330
2
100
AcDbEntity
  8
DETAIL
100
AcDbLine
 10
474.059978184549
 20
157.5957890656987
 30
0.0
 11
474.1857965878298
 21
157.7823225195236
 31
0.0
1001
ACAD
1010
0.0
1020
0.0
1030
0.0
  0
LINE
  5
36807
330
2
100
AcDbEntity
  8
DETAIL
100
AcDbLine
 10
476.7792908534747
 20
156.6833565709929
 30
0.0
 11
476.9051092567557
 21
156.8698900248177
 31
0.0
1001
ACAD
1010
0.0
1020
0.0
1030
0.0
  0
LINE
  5
36808
330
2
100
AcDbEntity
  8
DETAIL
100
AcDbLine
 10
478.2891116928458
 20
158.9217580168915
 30
0.0
 11
478.4149300961266
 21
159.1082914707164
 31
0.0
1001
ACAD
1010
0.0
1020
0.0
1030
0.0
  0
LINE
  5
36809
330
2
100
AcDbEntity
  8
DETAIL
100
AcDbLine
 10
481.0084243617714
 20
158.0093255221854
 30
0.0
 11
481.1342427650521
 21
158.1958589760103
 31
0.0
1001
ACAD
1010
0.0
1020
0.0
1030
0.0
  0
LINE
  5
3680A
330
2
100
AcDbEntity
  8
DETAIL
100
AcDbLine
 10
483.7277370306971
 20
157.0968930274795
 30
0.0
 11
483.8535554339779
 21
157.2834264813044
 31
0.0
1001
ACAD
1010
0.0
1020
0.0
1030
0.0
  0
LINE
  5
3680B
330
2
100
AcDbEntity
  8
DETAIL
100
AcDbLine
 10
486.4971280118407
 20
156.2587046838368
 30
0.0
 11
486.5728681029036
 21
156.3709939865984
 31
0.0
1001
ACAD
1010
0.0
1020
0.0
1030
0.0
  0
LINE
  5
3680C
330
2
100
AcDbEntity
  8
DETAIL
100
AcDbLine
 10
487.9568705389938
 20
158.4228619786722
 30
0.0
 11
488.0826889422747
 21
158.6093954324971
 31
0.0
1001
ACAD
1010
0.0
1020
0.0
1030
0.0
  0
LINE
  5
3680D
330
2
100
AcDbEntity
  8
DETAIL
100
AcDbLine
 10
490.6761832079194
 20
157.5104294839663
 30
0.0
 11
490.8020016112003
 21
157.6969629377912
 31
0.0
1001
ACAD
1010
0.0
1020
0.0
1030
0.0
  0
LINE
  5
3680E
330
2
100
AcDbEntity
  8
DETAIL
100
AcDbLine
 10
493.3954958768452
 20
156.5979969892604
 30
0.0
 11
493.521314280126
 21
156.7845304430852
 31
0.0
1001
ACAD
1010
0.0
1020
0.0
1030
0.0
  0
LINE
  5
3680F
330
2
100
AcDbEntity
  8
DETAIL
100
AcDbLine
 10
494.9053167162161
 20
158.836398435159
 30
0.0
 11
495.0311351194971
 21
159.0229318889839
 31
0.0
1001
ACAD
1010
0.0
1020
0.0
1030
0.0
  0
LINE
  5
36810
330
2
100
AcDbEntity
  8
DETAIL
100
AcDbLine
 10
497.624629385142
 20
157.9239659404531
 30
0.0
 11
497.7504477884228
 21
158.110499394278
 31
0.0
1001
ACAD
1010
0.0
1020
0.0
1030
0.0
  0
LINE
  5
36811
330
2
100
AcDbEntity
  8
DETAIL
100
AcDbLine
 10
500.3439420540677
 20
157.0115334457471
 30
0.0
 11
500.4697604573484
 21
157.198066899572
 31
0.0
1001
ACAD
1010
0.0
1020
0.0
1030
0.0
  0
LINE
  5
36812
330
2
100
AcDbEntity
  8
DETAIL
100
AcDbLine
 10
501.8537628934386
 20
159.2499348916458
 30
0.0
 11
501.8596781929623
 21
159.2587046838368
 31
0.0
1001
ACAD
1010
0.0
1020
0.0
1030
0.0
  0
LINE
  5
36813
330
2
100
AcDbEntity
  8
DETAIL
100
AcDbLine
 10
503.1709088000837
 20
156.2587046838368
 30
0.0
 11
503.1890731262741
 21
156.285634404866
 31
0.0
1001
ACAD
1010
0.0
1020
0.0
1030
0.0
  0
LINE
  5
36814
330
2
100
AcDbEntity
  8
DETAIL
100
AcDbLine
 10
504.5730755623643
 20
158.3375023969398
 30
0.0
 11
504.6988939656452
 21
158.5240358507647
 31
0.0
1001
ACAD
1010
0.0
1020
0.0
1030
0.0
  0
LINE
  5
36815
330
2
100
AcDbEntity
  8
DETAIL
100
AcDbLine
 10
507.2923882312901
 20
157.4250699022339
 30
0.0
 11
507.4182066345708
 21
157.6116033560587
 31
0.0
1001
ACAD
1010
0.0
1020
0.0
1030
0.0
  0
LINE
  5
36816
330
2
100
AcDbEntity
  8
DETAIL
100
AcDbLine
 10
510.0117009002158
 20
156.5126374075279
 30
0.0
 11
510.1375193034966
 21
156.6991708613528
 31
0.0
1001
ACAD
1010
0.0
1020
0.0
1030
0.0
  0
LINE
  5
36817
330
2
100
AcDbEntity
  8
DETAIL
100
AcDbLine
 10
511.5215217395867
 20
158.7510388534266
 30
0.0
 11
511.6473401428677
 21
158.9375723072515
 31
0.0
1001
ACAD
1010
0.0
1020
0.0
1030
0.0
  0
LINE
  5
36818
330
2
100
AcDbEntity
  8
DETAIL
100
AcDbLine
 10
514.2408344085124
 20
157.8386063587207
 30
0.0
 11
514.3666528117935
 21
158.0251398125455
 31
0.0
1001
ACAD
1010
0.0
1020
0.0
1030
0.0
  0
LINE
  5
36819
330
2
100
AcDbEntity
  8
DETAIL
100
AcDbLine
 10
516.9601470774381
 20
156.9261738640147
 30
0.0
 11
517.0859654807189
 21
157.1127073178395
 31
0.0
1001
ACAD
1010
0.0
1020
0.0
1030
0.0
  0
LINE
  5
3681A
330
2
100
AcDbEntity
  8
DETAIL
100
AcDbLine
 10
518.4699679168091
 20
159.1645753099133
 30
0.0
 11
518.5334589812056
 21
159.2587046838368
 31
0.0
1001
ACAD
1010
0.0
1020
0.0
1030
0.0
  0
LINE
  5
3681B
330
2
100
AcDbEntity
  8
DETAIL
100
AcDbLine
 10
521.1892805857347
 20
158.2521428152074
 30
0.0
 11
521.3150989890158
 21
158.4386762690323
 31
0.0
1001
ACAD
1010
0.0
1020
0.0
1030
0.0
  0
LINE
  5
3681C
330
2
100
AcDbEntity
  8
DETAIL
100
AcDbLine
 10
523.9085932546604
 20
157.3397103205014
 30
0.0
 11
524.0344116579414
 21
157.5262437743263
 31
0.0
1001
ACAD
1010
0.0
1020
0.0
1030
0.0
  0
LINE
  5
3681D
330
2
100
AcDbEntity
  8
DETAIL
100
AcDbLine
 10
476.9052246593656
 20
156.869504625957
 30
0.0
 11
476.6786153366701
 21
156.945540841694
 31
0.0
1001
ACAD
1010
0.0
1020
0.0
1030
0.0
  0
LINE
  5
3681E
330
2
100
AcDbEntity
  8
DETAIL
100
AcDbLine
 10
474.185912708805
 20
157.7819392410458
 30
0.0
 11
473.9593033861094
 21
157.8579754567829
 31
0.0
1001
ACAD
1010
0.0
1020
0.0
1030
0.0
  0
LINE
  5
3681F
330
2
100
AcDbEntity
  8
DETAIL
100
AcDbLine
 10
486.5729830989457
 20
156.3706010227821
 30
0.0
 11
486.3463737762502
 21
156.4466372385191
 31
0.0
1001
ACAD
1010
0.0
1020
0.0
1030
0.0
  0
LINE
  5
36820
330
2
100
AcDbEntity
  8
DETAIL
100
AcDbLine
 10
483.853671148385
 20
157.2830356378709
 30
0.0
 11
483.6270618256894
 21
157.3590718536079
 31
0.0
1001
ACAD
1010
0.0
1020
0.0
1030
0.0
  0
LINE
  5
36821
330
2
100
AcDbEntity
  8
DETAIL
100
AcDbLine
 10
481.1343591978244
 20
158.1954702529598
 30
0.0
 11
480.9077498751287
 21
158.2715064686969
 31
0.0
1001
ACAD
1010
0.0
1020
0.0
1030
0.0
  0
LINE
  5
36822
330
2
100
AcDbEntity
  8
DETAIL
100
AcDbLine
 10
478.4150472472638
 20
159.1079048680487
 30
0.0
 11
478.1884379245681
 21
159.1839410837858
 31
0.0
1001
ACAD
1010
0.0
1020
0.0
1030
0.0
  0
LINE
  5
36823
330
2
100
AcDbEntity
  8
DETAIL
100
AcDbLine
 10
493.521429587965
 20
156.7841320346961
 30
0.0
 11
493.2948202652695
 21
156.8601682504332
 31
0.0
1001
ACAD
1010
0.0
1020
0.0
1030
0.0
  0
LINE
  5
36824
330
2
100
AcDbEntity
  8
DETAIL
100
AcDbLine
 10
490.8021176374044
 20
157.696566649785
 30
0.0
 11
490.5755083147089
 21
157.7726028655221
 31
0.0
1001
ACAD
1010
0.0
1020
0.0
1030
0.0
  0
LINE
  5
36825
330
2
100
AcDbEntity
  8
DETAIL
100
AcDbLine
 10
488.0828056868439
 20
158.6090012648739
 30
0.0
 11
487.8561963641483
 21
158.6850374806109
 31
0.0
1001
ACAD
1010
0.0
1020
0.0
1030
0.0
  0
LINE
  5
36826
330
2
100
AcDbEntity
  8
DETAIL
100
AcDbLine
 10
503.189188027545
 20
156.2852284315213
 30
0.0
 11
502.9625787048495
 21
156.3612646472584
 31
0.0
1001
ACAD
1010
0.0
1020
0.0
1030
0.0
  0
LINE
  5
36827
330
2
100
AcDbEntity
  8
DETAIL
100
AcDbLine
 10
500.4698760769843
 20
157.1976630466101
 30
0.0
 11
500.2432667542889
 21
157.2736992623473
 31
0.0
1001
ACAD
1010
0.0
1020
0.0
1030
0.0
  0
LINE
  5
36828
330
2
100
AcDbEntity
  8
DETAIL
100
AcDbLine
 10
497.7505641264238
 20
158.1100976616991
 30
0.0
 11
497.5239548037283
 21
158.1861338774362
 31
0.0
1001
ACAD
1010
0.0
1020
0.0
1030
0.0
  0
LINE
  5
36829
330
2
100
AcDbEntity
  8
DETAIL
100
AcDbLine
 10
495.0312521758632
 20
159.022532276788
 30
0.0
 11
494.8046428531677
 21
159.098568492525
 31
0.0
1001
ACAD
1010
0.0
1020
0.0
1030
0.0
  0
LINE
  5
3682A
330
2
100
AcDbEntity
  8
DETAIL
100
AcDbLine
 10
510.1376345165646
 20
156.6987594434353
 30
0.0
 11
509.9110251938689
 21
156.7747956591724
 31
0.0
1001
ACAD
1010
0.0
1020
0.0
1030
0.0
  0
LINE
  5
3682B
330
2
100
AcDbEntity
  8
DETAIL
100
AcDbLine
 10
507.418322566004
 20
157.6111940585241
 30
0.0
 11
507.1917132433084
 21
157.6872302742613
 31
0.0
1001
ACAD
1010
0.0
1020
0.0
1030
0.0
  0
LINE
  5
3682C
330
2
100
AcDbEntity
  8
DETAIL
100
AcDbLine
 10
504.6990106154433
 20
158.5236286736131
 30
0.0
 11
504.4724012927479
 21
158.5996648893502
 31
0.0
1001
ACAD
1010
0.0
1020
0.0
1030
0.0
  0
LINE
  5
3682D
330
2
100
AcDbEntity
  8
DETAIL
100
AcDbLine
 10
519.6300068397398
 20
156.2587046838368
 30
0.0
 11
519.5787836334491
 21
156.2758920559976
 31
0.0
1001
ACAD
1010
0.0
1020
0.0
1030
0.0
  0
LINE
  5
3682E
330
2
100
AcDbEntity
  8
DETAIL
100
AcDbLine
 10
517.086081005584
 20
157.1122904553494
 30
0.0
 11
516.8594716828883
 21
157.1883266710865
 31
0.0
1001
ACAD
1010
0.0
1020
0.0
1030
0.0
  0
LINE
  5
3682F
330
2
100
AcDbEntity
  8
DETAIL
100
AcDbLine
 10
514.3667690550233
 20
158.0247250704382
 30
0.0
 11
514.1401597323278
 21
158.1007612861753
 31
0.0
1001
ACAD
1010
0.0
1020
0.0
1030
0.0
  0
LINE
  5
36830
330
2
100
AcDbEntity
  8
DETAIL
100
AcDbLine
 10
511.6474571044628
 20
158.9371596855271
 30
0.0
 11
511.4208477817673
 21
159.0131959012642
 31
0.0
1001
ACAD
1010
0.0
1020
0.0
1030
0.0
  0
LINE
  5
36831
330
2
100
AcDbEntity
  8
DETAIL
100
AcDbLine
 10
524.0345274946035
 20
157.5258214672635
 30
0.0
 11
523.8079181719078
 21
157.6018576830005
 31
0.0
1001
ACAD
1010
0.0
1020
0.0
1030
0.0
  0
LINE
  5
36832
330
2
100
AcDbEntity
  8
DETAIL
100
AcDbLine
 10
521.3152155440428
 20
158.4382560823523
 30
0.0
 11
521.0886062213472
 21
158.5142922980894
 31
0.0
1001
ACAD
1010
0.0
1020
0.0
1030
0.0
  0
LINE
  5
36937
330
2
100
AcDbEntity
  8
DIM
 62
     3
100
AcDbLine
 10
470.0424423695237
 20
105.8676711933207
 30
0.0
 11
477.4487313028513
 21
101.5916482839677
 31
0.0
  0
LINE
  5
36938
330
2
100
AcDbEntity
  8
DIM
 62
     3
100
AcDbLine
 10
490.8270520372676
 20
117.8676142785361
 30
0.0
 11
498.2333409705954
 21
113.591591369183
 31
0.0
  0
LINE
  5
36939
330
2
100
AcDbEntity
  8
DIM
 62
     2
100
AcDbLine
 10
477.0677689569088
 20
103.311595218773
 30
0.0
 11
482.9913661374188
 21
106.7315694286412
 31
0.0
  0
LINE
  5
3693A
330
2
100
AcDbEntity
  8
DIM
 62
     2
100
AcDbLine
 10
495.2542993334195
 20
113.8115436385095
 30
0.0
 11
489.3307021529095
 21
110.3915694286412
 31
0.0
  0
SOLID
  5
3693B
330
2
100
AcDbEntity
  8
DIM
 62
     2
100
AcDbTrace
 10
476.9427694014521
 20
103.5281018263757
 30
0.0
 11
477.1927685123653
 21
103.0950886111702
 31
0.0
 12
475.7687293112922
 22
102.5615978860336
 32
0.0
 13
475.7687293112922
 23
102.5615978860336
 33
0.0
  0
SOLID
  5
3693C
330
2
100
AcDbEntity
  8
DIM
 62
     2
100
AcDbTrace
 10
495.129299777963
 20
114.0280502461123
 30
0.0
 11
495.3792988888761
 21
113.5950370309068
 31
0.0
 12
496.5533389790362
 22
114.5615409712489
 32
0.0
 13
496.5533389790362
 23
114.5615409712489
 33
0.0
  0
MTEXT
  5
3693D
330
2
100
AcDbEntity
  8
DIM
100
AcDbMText
 10
486.161034145164
 20
108.5615694286412
 30
0.0
 40
1.5
 41
0.0
 71
     5
 72
     1
  1
\A1;WIDTH
  7
STD
 73
     1
 44
1.0
1001
ACAD
1000
MTEXTBEGIN
1070
    73
1070
     1
1070
    44
1040
1.0
1070
    74
1070
     0
1000
MTEXTEND
  0
LINE
  5
3693E
330
2
100
AcDbEntity
  8
DIM
 62
     3
100
AcDbLine
 10
426.7932219805496
 20
129.8676433108421
 30
0.0
 11
421.5286957330556
 21
126.8281676646958
 31
0.0
  0
LINE
  5
3693F
330
2
100
AcDbEntity
  8
DIM
 62
     3
100
AcDbLine
 10
468.3624413622028
 20
105.8676433108421
 30
0.0
 11
463.0979151147086
 21
102.8281676646958
 31
0.0
  0
LINE
  5
36940
330
2
100
AcDbEntity
  8
DIM
 62
     2
100
AcDbLine
 10
424.5077338387322
 20
127.0481161169343
 30
0.0
 11
440.7793469171882
 21
117.6536959259383
 31
0.0
  0
LINE
  5
36941
330
2
100
AcDbEntity
  8
DIM
 62
     2
100
AcDbLine
 10
463.4788770090319
 20
104.5481161169343
 30
0.0
 11
447.2072639305763
 21
113.94253630793
 31
0.0
  0
SOLID
  5
36942
330
2
100
AcDbEntity
  8
DIM
 62
     2
100
AcDbTrace
 10
424.6327338387323
 20
127.2646224678804
 30
0.0
 11
424.3827338387323
 21
126.8316097659882
 31
0.0
 12
423.2086957330557
 22
127.7981161169343
 32
0.0
 13
423.2086957330557
 23
127.7981161169343
 33
0.0
  0
SOLID
  5
36943
330
2
100
AcDbEntity
  8
DIM
 62
     2
100
AcDbTrace
 10
463.6038770090321
 20
104.7646224678804
 30
0.0
 11
463.3538770090321
 21
104.3316097659882
 31
0.0
 12
464.7779151147087
 22
103.7981161169343
 32
0.0
 13
464.7779151147087
 23
103.7981161169343
 33
0.0
  0
MTEXT
  5
36944
330
2
100
AcDbEntity
  8
DIM
100
AcDbMText
 10
443.9933054238822
 20
115.7981161169343
 30
0.0
 40
1.5
 41
0.0
 71
     5
 72
     1
  1
\A1;LENGTH
  7
STD
 73
     1
 44
1.0
1001
ACAD
1000
MTEXTBEGIN
1070
    73
1070
     1
1070
    44
1040
1.0
1070
    74
1070
     0
1000
MTEXTEND
  0
TEXT
  5
36945
330
2
100
AcDbEntity
  8
Defpoints
100
AcDbText
 10
504.4606166868764
 20
121.1544417404868
 30
0.0
 40
1.5
  1
SCALED UP 6X
  7
STD
100
AcDbText
  0
TEXT
  5
36946
330
2
100
AcDbEntity
  8
TEXT
100
AcDbText
 10
505.0057156172908
 20
124.59985014543
 30
0.0
 40
1.5
  1
%%USECTION A-A
  7
STD
100
AcDbText
  0
VIEWPORT
  5
5D
102
{ACAD_XDICTIONARY
360
369B9
102
}
330
D
100
AcDbEntity
 67
     1
  8
0
100
AcDbViewport
 10
5.102836672053318
 20
3.882552595148703
 30
0.0
 40
20.12054589974455
 41
7.827575297811849
 68
     1
 69
     1
 12
5.102836672053318
 22
3.882552595148703
 13
0.0
 23
0.0
 14
0.5
 24
0.5
 15
0.5
 25
0.5
 16
0.0
 26
0.0
 36
1.0
 17
0.0
 27
0.0
 37
0.0
 42
50.0
 43
0.0
 44
0.0
 45
7.827575297811849
 50
0.0
 51
0.0
 72
   100
 90
    32800
  1

281
     0
 71
     1
 74
     0
110
0.0
120
0.0
130
0.0
111
1.0
121
0.0
131
0.0
112
0.0
122
1.0
132
0.0
 79
     0
146
0.0
  0
ENDSEC
  0
SECTION
  2
OBJECTS
  0
DICTIONARY
  5
7
330
0
100
AcDbDictionary
281
     1
  3
ACAD_2007HEADERVARS_RT
350
369B5
  3
ACAD_CIP_PREVIOUS_PRODUCT_INFO
350
366B7
  3
ACAD_COLOR
350
885
  3
ACAD_FIELDLIST
350
1393
  3
ACAD_GROUP
350
24
  3
ACAD_LAYOUT
350
C
  3
ACAD_MATERIAL
350
884
  3
ACAD_MLEADERSTYLE
350
351E3
  3
ACAD_MLINESTYLE
350
25
  3
ACAD_PLOTSETTINGS
350
26
  3
ACAD_PLOTSTYLENAME
350
6
  3
ACAD_SCALELIST
350
351D1
  3
ACAD_TABLESTYLE
350
886
  3
ACAD_VISUALSTYLE
350
10B2
  3
AcadDim
350
31A98
  3
ACDB_RECOMPOSE_DATA
350
369B3
  3
AcDbVariableDictionary
350
3AC
  3
AEC_CLASSIFICATION_SYSTEM_DEFS
350
A2E
  3
AEC_PROPERTY_SET_DEFS
350
3667C
  3
ASE_INDEX_DICTIONARY
350
1053
  3
DWGPROPS
350
369B4
  0
DICTIONARY
  5
139C
330
1A
100
AcDbDictionary
280
     1
281
     1
  0
DICTIONARY
  5
899
330
11
100
AcDbDictionary
280
     1
281
     1
  3
ACAD_LAYERFILTERS
360
1092
  3
ACAD_LAYERSTATES
360
89A
  3
ACLYDICTIONARY
360
1091
  0
DICTIONARY
  5
3668C
330
4
100
AcDbDictionary
280
     1
281
     1
  3
ADSK_XREC_LAYER_RECONCILED
360
3668D
  0
DICTIONARY
  5
3668E
330
32
100
AcDbDictionary
280
     1
281
     1
  3
ADSK_XREC_LAYER_RECONCILED
360
3668F
  0
DICTIONARY
  5
1A62
330
1A61
100
AcDbDictionary
280
     1
281
     1
  3
ADSK_XREC_LAYER_RECONCILED
360
1A63
  0
DICTIONARY
  5
1A7D
330
1A7C
100
AcDbDictionary
280
     1
281
     1
  3
ADSK_XREC_LAYER_RECONCILED
360
1A7E
  0
DICTIONARY
  5
1A80
330
1A7F
100
AcDbDictionary
280
     1
281
     1
  3
ADSK_XREC_LAYER_RECONCILED
360
1A81
  0
DICTIONARY
  5
1A92
330
1A91
100
AcDbDictionary
280
     1
281
     1
  3
ADSK_XREC_LAYER_RECONCILED
360
1A93
  0
DICTIONARY
  5
31E97
330
2
100
AcDbDictionary
280
     1
281
     1
  3
ACAD_SORTENTS
360
31E98
  0
DICTIONARY
  5
1D72
330
D
100
AcDbDictionary
280
     1
281
     1
  3
ACAD_SORTENTS
360
1D73
  0
DICTIONARY
  5
369B9
330
5D
100
AcDbDictionary
280
     1
281
     1
  3
ACAD_XREC_ROUNDTRIP
360
369BA
  0
DICTIONARY
  5
369B5
102
{ACAD_REACTORS
330
7
102
}
330
7
100
AcDbDictionary
281
     1
  3
INTERFEREVPVS
350
369B6
  0
XRECORD
  5
366B7
102
{ACAD_REACTORS
330
7
102
}
330
7
100
AcDbXrecord
280
     1
300
ACD
300
2012
300
ACD_F_S
  0
DICTIONARY
  5
885
102
{ACAD_REACTORS
330
7
102
}
330
7
100
AcDbDictionary
281
     1
  0
FIELDLIST
  5
1393
102
{ACAD_REACTORS
330
7
102
}
330
7
100
AcDbIdSet
 90
        0
100
AcDbFieldList
  0
DICTIONARY
  5
24
102
{ACAD_REACTORS
330
7
102
}
330
7
100
AcDbDictionary
281
     1
  0
DICTIONARY
  5
C
102
{ACAD_REACTORS
330
7
102
}
330
7
100
AcDbDictionary
281
     1
  3
Layout1
350
10
  3
Model
350
B
  0
DICTIONARY
  5
884
102
{ACAD_REACTORS
330
7
102
}
330
7
100
AcDbDictionary
281
     1
  3
ByBlock
350
10B0
  3
ByLayer
350
10AF
  3
Global
350
10B1
  0
DICTIONARY
  5
351E3
102
{ACAD_REACTORS
330
7
102
}
330
7
100
AcDbDictionary
281
     1
  3
Standard
350
351E4
  0
DICTIONARY
  5
25
102
{ACAD_REACTORS
330
7
102
}
330
7
100
AcDbDictionary
281
     1
  3
STANDARD
350
28
  0
DICTIONARY
  5
26
102
{ACAD_REACTORS
330
7
102
}
330
7
100
AcDbDictionary
281
     1
  3
3010
350
1A21
  3
5000N
350
1A1F
  3
Minolta
350
1A22
  3
PDF
350
1A20
  0
ACDBDICTIONARYWDFLT
  5
6
102
{ACAD_REACTORS
330
7
102
}
330
7
100
AcDbDictionary
281
     1
  3
Normal
350
5
100
AcDbDictionaryWithDefault
340
5
  0
DICTIONARY
  5
351D1
102
{ACAD_REACTORS
330
7
102
}
330
7
100
AcDbDictionary
281
     1
  3
A0
350
351D2
  3
A1
350
351D3
  3
A2
350
351D4
  3
A3
350
351D5
  3
A4
350
351D6
  3
A5
350
351D7
  3
A6
350
351D8
  3
A7
350
351D9
  3
A8
350
351DA
  3
A9
350
351DB
  3
B0
350
351DC
  3
B1
350
351DD
  3
B2
350
351DE
  3
B3
350
351DF
  3
B4
350
351E0
  3
B5
350
351E1
  3
B6
350
351E2
  0
DICTIONARY
  5
886
102
{ACAD_REACTORS
330
7
102
}
330
7
100
AcDbDictionary
281
     1
  3
Standard
350
887
  0
DICTIONARY
  5
10B2
102
{ACAD_REACTORS
330
7
102
}
330
7
100
AcDbDictionary
281
     1
  3
2dWireframe
350
10B8
  3
3D Hidden
350
1D4F
  3
3dWireframe
350
1D50
  3
Basic
350
10B7
  3
Brighten
350
10BE
  3
ColorChange
350
10C2
  3
Conceptual
350
1D51
  3
Dim
350
10BD
  3
EdgeColorOff
350
351D0
  3
Facepattern
350
10C1
  3
Flat
350
10B3
  3
FlatWithEdges
350
10B4
  3
Gouraud
350
10B5
  3
GouraudWithEdges
350
10B6
  3
Hidden
350
351C8
  3
JitterOff
350
351CE
  3
Linepattern
350
10C0
  3
OverhangOff
350
351CF
  3
Realistic
350
1D52
  3
Shaded
350
351CD
  3
Shaded with edges
350
351CC
  3
Shades of Gray
350
351C9
  3
Sketchy
350
351CA
  3
Thicken
350
10BF
  3
Wireframe
350
351C7
  3
X-Ray
350
351CB
  0
XRECORD
  5
31A98
102
{ACAD_REACTORS
330
7
102
}
330
7
100
AcDbXrecord
280
     1
 90
   990106
  3

 60
     0
 61
     0
 62
     1
 63
     1
 64
     0
 65
     0
 66
     1
 67
     3
 68
     0
 69
     0
 70
     0
 71
     0
 72
     0
 40
0.0
170
     2
340
350D0
  0
XRECORD
  5
369B3
102
{ACAD_REACTORS
330
7
102
}
330
7
100
AcDbXrecord
280
     1
 90
        1
330
887
  0
DICTIONARY
  5
3AC
102
{ACAD_REACTORS
330
7
102
}
330
7
100
AcDbDictionary
281
     1
  3
CANNOSCALE
350
36699
  3
CMLEADERSTYLE
350
36697
  3
CTABLESTYLE
350
89F
  3
DIMASSOC
350
3AD
  3
DRAWORDERCTL
350
369B0
  3
INDEXCTL
350
36958
  3
LAYEREVAL
350
3669B
  3
LAYERNOTIFY
350
3669C
  3
LIGHTINGUNITS
350
3669A
  3
MSLTSCALE
350
36698
  3
SOLIDHIST
350
3695A
  3
SORTENTS
350
36957
  3
XCLIPFRAME
350
369B1
  0
DICTIONARY
  5
A2E
102
{ACAD_REACTORS
330
7
102
}
330
7
100
AcDbDictionary
281
     1
  0
DICTIONARY
  5
3667C
102
{ACAD_REACTORS
330
7
102
}
330
7
100
AcDbDictionary
281
     1
  0
DICTIONARY
  5
1053
102
{ACAD_REACTORS
330
7
102
}
330
7
100
AcDbDictionary
281
     1
  3
ASEBlockHierarchyIndexRecord
350
1054
1001
DCO15
1040
1542711923.111
  0
XRECORD
  5
369B4
102
{ACAD_REACTORS
330
7
102
}
330
7
100
AcDbXrecord
280
     1
  1
DWGPROPS COOKIE
  2

  3

  4

  6

  7

  8
jlee
  9

300
=
301
=
302
=
303
=
304
=
305
=
306
=
307
=
308
=
309
=
 40
0.6385550694444444
 41
2451225.386950695
 42
2456114.529428797
  1

 90
        0
  0
DICTIONARY
  5
1092
102
{ACAD_REACTORS
330
899
102
}
330
899
100
AcDbDictionary
281
     1
  0
DICTIONARY
  5
89A
102
{ACAD_REACTORS
330
899
102
}
330
899
100
AcDbDictionary
281
     1
  3
_LAYISO_STATE
350
3513B
1001
AcLayerTools
1000
B
1000
0
  0
DICTIONARY
  5
1091
102
{ACAD_REACTORS
330
899
102
}
330
899
100
AcDbDictionary
281
     1
1001
ACAD
1000
<All
  0
XRECORD
  5
3668D
102
{ACAD_REACTORS
330
3668C
102
}
330
3668C
100
AcDbXrecord
280
     1
290
     1
  0
XRECORD
  5
3668F
102
{ACAD_REACTORS
330
3668E
102
}
330
3668E
100
AcDbXrecord
280
     1
290
     1
  0
XRECORD
  5
1A63
102
{ACAD_REACTORS
330
1A62
102
}
330
1A62
100
AcDbXrecord
280
     1
290
     1
  0
XRECORD
  5
1A7E
102
{ACAD_REACTORS
330
1A7D
102
}
330
1A7D
100
AcDbXrecord
280
     1
290
     1
  0
XRECORD
  5
1A81
102
{ACAD_REACTORS
330
1A80
102
}
330
1A80
100
AcDbXrecord
280
     1
290
     1
  0
XRECORD
  5
1A93
102
{ACAD_REACTORS
330
1A92
102
}
330
1A92
100
AcDbXrecord
280
     1
290
     1
  0
SORTENTSTABLE
  5
31E98
102
{ACAD_REACTORS
330
31E97
102
}
330
31E97
100
AcDbSortentsTable
330
2
331
340B6
  5
340C6
331
3410C
  5
3411C
331
34147
  5
34157
331
350D7
  5
36925
331
340B2
  5
340C2
331
34108
  5
34118
331
34143
  5
34153
331
340AE
  5
340BE
331
367B7
  5
346FF
331
36745
  5
36904
331
340ED
  5
34101
331
340E9
  5
340FD
331
340AA
  5
340BA
331
367B3
  5
346FB
331
36741
  5
36908
331
3519E
  5
36930
331
3519A
  5
3692C
331
3673D
  5
36913
331
367AF
  5
346F7
331
367EE
  5
3509D
331
3677C
  5
368A7
331
3470B
  5
368EA
331
36739
  5
3690F
331
367AB
  5
346F3
331
367EA
  5
35099
331
36778
  5
368A3
331
3682F
  5
36743
331
3682B
  5
3673F
331
36827
  5
3673B
331
36823
  5
36737
331
34184
  5
34194
331
342A6
  5
36866
331
34180
  5
34190
331
341BF
  5
34298
331
342A2
  5
36862
331
341BB
  5
34203
331
3429E
  5
3685E
331
3417C
  5
3418C
331
3429A
  5
3685A
331
3413F
  5
3414F
331
340A6
  5
340B6
331
340E5
  5
340F5
331
34707
  5
368E6
331
340E1
  5
340F1
331
340F4
  5
34108
331
36774
  5
3689F
331
34703
  5
368E2
331
35162
  5
342A1
331
367E6
  5
35095
331
36735
  5
3690B
331
367A7
  5
346EF
331
340DD
  5
340ED
331
340F0
  5
34104
331
36770
  5
368B2
331
346FF
  5
368DE
331
3515E
  5
3429D
331
367E2
  5
35091
331
36731
  5
36917
331
367A3
  5
346EB
331
3515A
  5
34299
331
3672D
  5
3691C
331
3679F
  5
346CF
331
367DE
  5
3508D
331
3676C
  5
368AE
331
346FB
  5
368DA
331
36729
  5
36853
331
3679B
  5
346CB
331
367DA
  5
35089
331
36768
  5
368C6
331
3681F
  5
36733
331
3681B
  5
3672F
331
36817
  5
3672B
331
36813
  5
36727
331
34174
  5
34184
331
341B3
  5
341DF
331
34170
  5
34180
331
341AF
  5
341DB
331
341AB
  5
341BD
331
342CD
  5
3688D
331
3416C
  5
3417C
331
34202
  5
3684C
331
342C9
  5
36889
331
34168
  5
34178
331
3412F
  5
3413F
331
34096
  5
340A6
331
3671C
  5
36929
331
3412B
  5
3413B
331
34127
  5
34137
331
34092
  5
340A2
331
346F7
  5
368D6
331
35156
  5
342AA
331
34123
  5
34133
331
3408E
  5
3409E
331
346F3
  5
368D2
331
35152
  5
342A6
331
340CD
  5
340DD
331
36725
  5
3691D
331
36764
  5
368C2
331
36797
  5
346C7
331
367D6
  5
35085
331
340C9
  5
340D9
331
3408A
  5
34094
331
36760
  5
368BE
331
346EF
  5
368CE
331
3514E
  5
342BC
331
367D2
  5
35081
331
36721
  5
36923
331
36793
  5
342D3
331
3514A
  5
342B7
331
3675C
  5
368BA
331
3678F
  5
342CF
331
367CE
  5
34FBE
331
346EB
  5
368CA
331
351B1
  5
36943
331
36758
  5
368F0
331
3678B
  5
36850
331
367CA
  5
34FB7
331
36946
  5
34081
331
3680F
  5
36723
331
3680B
  5
3671F
331
36942
  5
34087
331
36807
  5
3671B
331
3693E
  5
34083
331
341A7
  5
341B9
331
36803
  5
351B1
331
3693A
  5
34098
331
34164
  5
34174
331
341A3
  5
341B3
331
342C5
  5
36885
331
342C1
  5
36881
331
34160
  5
34170
331
3419F
  5
341AF
331
342BD
  5
3687D
331
3419B
  5
341AB
331
342B9
  5
36879
331
3411F
  5
3412F
331
340C5
  5
340D5
331
3411B
  5
3412B
331
34086
  5
34090
331
34117
  5
34127
331
34082
  5
3408C
331
35146
  5
342B3
331
340C1
  5
340D1
331
34113
  5
34123
331
35142
  5
342C7
331
340BD
  5
340CD
331
351AD
  5
3693F
331
36754
  5
368F6
331
36787
  5
36894
331
367C6
  5
34FAF
331
36750
  5
368FA
331
346CF
  5
368B7
331
3513E
  5
342C3
331
367C2
  5
34E15
331
351A9
  5
3693B
331
36783
  5
3689B
331
340B9
  5
340C9
331
351A5
  5
36937
331
3674C
  5
368FE
331
367BE
  5
34706
331
346CB
  5
368B3
331
351A1
  5
36933
331
36748
  5
36902
331
367BA
  5
34702
331
367FF
  5
351AD
331
367FB
  5
351A9
331
367F7
  5
351A5
331
34197
  5
341A7
331
367F3
  5
351A1
331
36832
  5
36746
331
34193
  5
341A3
331
341DE
  5
342B1
331
342B5
  5
36875
331
342B1
  5
36871
331
34150
  5
34160
331
3418F
  5
3419F
331
342AD
  5
3686D
331
3414C
  5
3415C
331
3418B
  5
3419B
331
342A9
  5
36869
331
34148
  5
34158
331
340B5
  5
340C5
331
350D6
  5
36924
331
340B1
  5
340C1
331
34103
  5
34113
331
340AD
  5
340BD
331
36744
  5
36903
331
367B6
  5
346FE
331
340EC
  5
34100
331
340E8
  5
340FC
331
340A9
  5
340B9
331
36740
  5
36916
331
367B2
  5
346FA
331
3677F
  5
36897
331
3470E
  5
368ED
331
3519D
  5
3692F
331
35199
  5
3692B
331
3673C
  5
36912
331
367AE
  5
346F6
331
367ED
  5
3509C
331
3677B
  5
368A6
331
3470A
  5
368E9
331
36738
  5
3690E
331
367AA
  5
346F2
331
367E9
  5
35098
331
3682E
  5
36742
331
3682A
  5
3673E
331
36826
  5
3673A
331
34187
  5
34197
331
36822
  5
36736
331
34183
  5
34193
331
342A5
  5
36865
331
342A1
  5
36861
331
3417F
  5
3418F
331
341BE
  5
34297
331
341BA
  5
34202
331
3429D
  5
3685D
331
3417B
  5
3418B
331
34299
  5
36859
331
340FF
  5
3410F
331
3413A
  5
3414A
331
340A5
  5
340B5
331
340E4
  5
340F4
331
340FB
  5
3410B
331
34136
  5
34146
331
34706
  5
368E5
331
340A1
  5
340B1
331
340E0
  5
340F0
331
36777
  5
368A2
331
34132
  5
34142
331
3409D
  5
340AD
331
36773
  5
3689E
331
34702
  5
368E1
331
35161
  5
342A0
331
367E5
  5
35094
331
367A6
  5
346EE
331
36734
  5
3690A
331
340DC
  5
340EC
331
340D8
  5
340E8
331
34099
  5
340A9
331
36730
  5
36919
331
367A2
  5
346D2
331
367E1
  5
35090
331
3676F
  5
368B1
331
346FE
  5
368DD
331
3515D
  5
3429C
331
3672C
  5
36856
331
3679E
  5
346CE
331
367DD
  5
3508C
331
3676B
  5
368C9
331
346FA
  5
368D9
331
36728
  5
36852
331
3679A
  5
346CA
331
367D9
  5
35088
331
3681E
  5
36732
331
3681A
  5
3672E
331
36816
  5
3672A
331
34177
  5
34187
331
341B6
  5
34200
331
36812
  5
36726
331
34173
  5
34183
331
341B2
  5
341DE
331
342D0
  5
36890
331
3416F
  5
3417F
331
341AE
  5
341CD
331
341AA
  5
341BC
331
342CC
  5
3688C
331
3416B
  5
3417B
331
34201
  5
3684B
331
342C8
  5
36888
331
3671F
  5
36927
331
3412E
  5
3413E
331
34095
  5
340A5
331
340D4
  5
340E4
331
3671B
  5
36928
331
3412A
  5
3413A
331
34126
  5
34136
331
34091
  5
340A1
331
346F6
  5
368D5
331
340D0
  5
340E0
331
36767
  5
368C5
331
34122
  5
34132
331
3408D
  5
3409D
331
36763
  5
368C1
331
346F2
  5
368D1
331
367D5
  5
35084
331
36796
  5
346C6
331
36724
  5
3691F
331
340CC
  5
340DC
331
340C8
  5
340D8
331
34089
  5
34093
331
3675F
  5
368BD
331
346EE
  5
368CD
331
3514D
  5
342BB
331
367D1
  5
35080
331
36792
  5
342D2
331
36720
  5
36922
331
35149
  5
342B6
331
351B4
  5
36946
331
3678E
  5
342CE
331
367CD
  5
34FBD
331
3675B
  5
368EF
331
351B0
  5
36942
331
3678A
  5
3684F
331
367C9
  5
34FB4
331
36945
  5
34082
331
3680E
  5
36722
331
3680A
  5
3671E
331
36941
  5
34086
331
36806
  5
351B4
331
3693D
  5
3409B
331
341A6
  5
341B6
331
36802
  5
351B0
331
36939
  5
34097
331
341A2
  5
341B2
331
342C4
  5
36884
331
342C0
  5
36880
331
3419E
  5
341AE
331
3419A
  5
341AA
331
341ED
  5
342C0
331
342BC
  5
3687C
331
3415B
  5
3416B
331
342B8
  5
36878
331
3411E
  5
3412E
331
34085
  5
3408F
331
340C4
  5
340D4
331
34081
  5
3408A
331
340C0
  5
340D0
331
36757
  5
368F3
331
340BC
  5
340CC
331
351AC
  5
3693E
331
36786
  5
36893
331
367C5
  5
34FAE
331
36753
  5
368F5
331
340B8
  5
340C8
331
3674F
  5
368F9
331
346CE
  5
368B6
331
367C1
  5
3470E
331
36782
  5
3689A
331
351A8
  5
3693A
331
351A4
  5
36936
331
367BD
  5
34705
331
3674B
  5
368FD
331
351A0
  5
36932
331
367B9
  5
34701
331
367FE
  5
351AC
331
367FA
  5
351A8
331
367F6
  5
351A4
331
34196
  5
341A6
331
367F2
  5
351A0
331
36831
  5
36745
331
34157
  5
34167
331
34153
  5
34163
331
34192
  5
341A2
331
341DD
  5
342B0
331
342B4
  5
36874
331
342B0
  5
36870
331
3414F
  5
3415F
331
3418E
  5
3419E
331
341CD
  5
342A3
331
342AC
  5
3686C
331
3414B
  5
3415B
331
3418A
  5
3419A
331
342A8
  5
36868
331
3410E
  5
3411E
331
340B4
  5
340C4
331
3410A
  5
3411A
331
34106
  5
34116
331
34145
  5
34155
331
340B0
  5
340C0
331
36747
  5
36901
331
34102
  5
34112
331
34141
  5
34151
331
340AC
  5
340BC
331
367B5
  5
346FD
331
36743
  5
36907
331
3519C
  5
3692E
331
367B1
  5
346F9
331
3673F
  5
36915
331
3677E
  5
368A9
331
3470D
  5
368EC
331
340A8
  5
340B8
331
3673B
  5
36911
331
367AD
  5
346F5
331
367EC
  5
3509B
331
3677A
  5
368A5
331
34709
  5
368E8
331
367A9
  5
346F1
331
367E8
  5
35097
331
3682D
  5
36741
331
36829
  5
3673D
331
36825
  5
36739
331
34186
  5
34196
331
36821
  5
36735
331
34182
  5
34192
331
342A4
  5
36864
331
342A0
  5
36860
331
346C7
  5
368AB
331
3417E
  5
3418E
331
341BD
  5
3420A
331
341B9
  5
34201
331
3429C
  5
3685C
331
3417A
  5
3418A
331
34298
  5
36858
331
340FE
  5
3410E
331
3413D
  5
3414D
331
34139
  5
34149
331
340A4
  5
340B4
331
340F6
  5
3410A
331
34135
  5
34145
331
34705
  5
368E4
331
340A0
  5
340B0
331
36737
  5
3690D
331
36776
  5
368A1
331
340F2
  5
34106
331
34131
  5
34141
331
3409C
  5
340AC
331
36772
  5
3689D
331
34701
  5
368E0
331
35160
  5
3429F
331
367E4
  5
35093
331
367A5
  5
346ED
331
36733
  5
36909
331
340DB
  5
340EB
331
34098
  5
340A8
331
3672F
  5
3691B
331
367A1
  5
346D1
331
367E0
  5
3508F
331
3676E
  5
368B0
331
346FD
  5
368DC
331
3515C
  5
3429B
331
35158
  5
342AC
331
3672B
  5
36855
331
3679D
  5
346CD
331
367DC
  5
3508B
331
3676A
  5
368C8
331
346F9
  5
368D8
331
36799
  5
346C9
331
367D8
  5
35087
331
3681D
  5
36731
331
36819
  5
3672D
331
36815
  5
36729
331
34176
  5
34186
331
341B5
  5
341FB
331
36811
  5
36725
331
34172
  5
34182
331
341B1
  5
341DD
331
342CF
  5
3688F
331
3416E
  5
3417E
331
341AD
  5
341BF
331
341A9
  5
341BB
331
34204
  5
3684E
331
342CB
  5
3688B
331
3416A
  5
3417A
331
340D7
  5
340E7
331
3671E
  5
36926
331
3412D
  5
3413D
331
34129
  5
34139
331
34094
  5
340A4
331
340D3
  5
340E3
331
34090
  5
340A0
331
346F5
  5
368D4
331
35154
  5
342A8
331
340CF
  5
340DF
331
36727
  5
36851
331
36766
  5
368C4
331
3408C
  5
3409C
331
346F1
  5
368D0
331
35150
  5
342A4
331
367D4
  5
35083
331
36795
  5
346C4
331
36723
  5
36921
331
340CB
  5
340DB
331
34088
  5
34092
331
36791
  5
342D1
331
367D0
  5
3507F
331
3675E
  5
368BC
331
346ED
  5
368CC
331
3514C
  5
342BA
331
35148
  5
342B5
331
351B3
  5
36945
331
3678D
  5
342CD
331
367CC
  5
34FBC
331
3675A
  5
368EE
331
36789
  5
36892
331
367C8
  5
34FB3
331
3680D
  5
36721
331
36944
  5
34089
331
36809
  5
3671D
331
36940
  5
34085
331
36805
  5
351B3
331
3693C
  5
3409A
331
36938
  5
34096
331
34166
  5
34176
331
341A5
  5
341B5
331
36801
  5
351AF
331
342C7
  5
36887
331
342C3
  5
36883
331
34162
  5
34172
331
341A1
  5
341B1
331
342BF
  5
3687F
331
3415E
  5
3416E
331
3419D
  5
341AD
331
34199
  5
341A9
331
342BB
  5
3687B
331
3415A
  5
3416A
331
340C7
  5
340D7
331
34084
  5
3408E
331
340C3
  5
340D3
331
34119
  5
34129
331
34115
  5
34125
331
35144
  5
342C9
331
351AF
  5
36941
331
36756
  5
368F2
331
34111
  5
34121
331
36752
  5
368F8
331
346D1
  5
368B9
331
35140
  5
342C5
331
367C4
  5
34FAD
331
36785
  5
36896
331
351AB
  5
3693D
331
3674E
  5
368FC
331
3513C
  5
342C1
331
367C0
  5
3470D
331
36781
  5
36899
331
351A7
  5
36939
331
351A3
  5
36935
331
367BC
  5
34704
331
3674A
  5
36900
331
367B8
  5
34700
331
367FD
  5
351AB
331
367F9
  5
351A7
331
367F5
  5
351A3
331
34156
  5
34166
331
34195
  5
341A5
331
367F1
  5
3519F
331
342B7
  5
36877
331
36830
  5
36744
331
34152
  5
34162
331
341DC
  5
342AF
331
342B3
  5
36873
331
342AF
  5
3686F
331
3414E
  5
3415E
331
3418D
  5
3419D
331
34189
  5
34199
331
342AB
  5
3686B
331
3414A
  5
3415A
331
3410D
  5
3411D
331
340B3
  5
340C3
331
34109
  5
34119
331
34105
  5
34115
331
34144
  5
34154
331
340AF
  5
340BF
331
36746
  5
36905
331
340EE
  5
34102
331
340EA
  5
340FE
331
34101
  5
34111
331
34140
  5
34150
331
340AB
  5
340BB
331
3519F
  5
36931
331
367B4
  5
346FC
331
36742
  5
36906
331
3519B
  5
3692D
331
3673E
  5
36914
331
367B0
  5
346F8
331
367EF
  5
3519D
331
3677D
  5
368A8
331
3470C
  5
368EB
331
34708
  5
368E7
331
3673A
  5
36910
331
367AC
  5
346F4
331
367EB
  5
3509A
331
36779
  5
368A4
331
367A8
  5
346F0
331
3682C
  5
36740
331
36828
  5
3673C
331
36824
  5
36738
331
34185
  5
34195
331
342A7
  5
36867
331
36820
  5
36734
331
34181
  5
34191
331
342A3
  5
36863
331
341BC
  5
34204
331
3429F
  5
3685F
331
346C6
  5
368AA
331
3417D
  5
3418D
331
3429B
  5
3685B
331
34179
  5
34189
331
340A7
  5
340B7
331
340E6
  5
340F6
331
340FD
  5
3410D
331
3413C
  5
3414C
331
34138
  5
34148
331
340A3
  5
340B3
331
340E2
  5
340F2
331
340F5
  5
34109
331
34134
  5
34144
331
3409F
  5
340AF
331
34704
  5
368E3
331
340DE
  5
340EE
331
36736
  5
3690C
331
367E7
  5
35096
331
36775
  5
368A0
331
340DA
  5
340EA
331
340F1
  5
34105
331
3409B
  5
340AB
331
36771
  5
3689C
331
34700
  5
368DF
331
367E3
  5
35092
331
367A4
  5
346EC
331
36732
  5
36918
331
3672E
  5
3691A
331
367A0
  5
346D0
331
367DF
  5
3508E
331
3676D
  5
368AF
331
346FC
  5
368DB
331
3672A
  5
36854
331
3679C
  5
346CC
331
367DB
  5
3508A
331
36769
  5
368C7
331
346F8
  5
368D7
331
36798
  5
346C8
331
3681C
  5
36730
331
36818
  5
3672C
331
36814
  5
36728
331
34175
  5
34185
331
341B4
  5
341ED
331
34297
  5
36857
331
36810
  5
36724
331
34171
  5
34181
331
341B0
  5
341DC
331
342CE
  5
3688E
331
341AC
  5
341BE
331
341A8
  5
341BA
331
34203
  5
3684D
331
342CA
  5
3688A
331
34169
  5
34179
331
340D6
  5
340E6
331
3671D
  5
3692A
331
34097
  5
340A7
331
34093
  5
340A3
331
35157
  5
342AB
331
340D2
  5
340E2
331
34124
  5
34134
331
3408F
  5
3409F
331
346F4
  5
368D3
331
35153
  5
342A7
331
340CE
  5
340DE
331
36726
  5
3691E
331
367D7
  5
35086
331
36765
  5
368C3
331
34120
  5
34130
331
36761
  5
368BF
331
346F0
  5
368CF
331
367D3
  5
35082
331
36794
  5
342D4
331
36722
  5
36920
331
36790
  5
342D0
331
367CF
  5
3507E
331
3675D
  5
368BB
331
346EC
  5
368CB
331
351B2
  5
36944
331
3678C
  5
342CC
331
367CB
  5
34FB9
331
36759
  5
368F1
331
36788
  5
36891
331
3680C
  5
36720
331
36943
  5
34088
331
36808
  5
3671C
331
3693F
  5
34084
331
36804
  5
351B2
331
3693B
  5
34099
331
34165
  5
34175
331
341A4
  5
341B4
331
36800
  5
351AE
331
342C6
  5
36886
331
342C2
  5
36882
331
34161
  5
34171
331
341A0
  5
341B0
331
341FB
  5
342CB
331
342BE
  5
3687E
331
3415D
  5
3416D
331
34198
  5
341A8
331
342BA
  5
3687A
331
34159
  5
34169
331
3411C
  5
3412C
331
34087
  5
34091
331
34118
  5
34128
331
34114
  5
34124
331
35143
  5
342C8
331
340BE
  5
340CE
331
351AE
  5
36940
331
367C7
  5
34FB0
331
36755
  5
368F4
331
34110
  5
34120
331
36751
  5
368F7
331
346D0
  5
368B8
331
3513F
  5
342C4
331
367C3
  5
34FAB
331
36784
  5
36895
331
351AA
  5
3693C
331
340BA
  5
340CA
331
351A6
  5
36938
331
36780
  5
36898
331
367BF
  5
34707
331
3674D
  5
368FB
331
351A2
  5
36934
331
367BB
  5
34703
331
36749
  5
368FF
331
36937
  5
34095
331
367FC
  5
351AA
331
367F8
  5
351A6
331
367F4
  5
351A2
331
34155
  5
34165
331
34194
  5
341A4
331
367F0
  5
3519E
331
341DF
  5
342B2
331
342B6
  5
36876
331
342B2
  5
36872
331
34190
  5
341A0
331
341DB
  5
342AE
331
342AE
  5
3686E
331
3418C
  5
3419C
331
34188
  5
34198
331
342AA
  5
3686A
  0
SORTENTSTABLE
  5
1D73
102
{ACAD_REACTORS
330
1D72
102
}
330
1D72
100
AcDbSortentsTable
330
D
331
5D
  5
5D
  0
XRECORD
  5
369BA
102
{ACAD_REACTORS
330
369B9
102
}
330
369B9
100
AcDbXrecord
280
     1
102
SHADEPLOT
 70
     0
  0
XRECORD
  5
369B6
102
{ACAD_REACTORS
330
369B5
102
}
330
369B5
100
AcDbXrecord
280
     1
340
1D50
  0
LAYOUT
  5
10
102
{ACAD_XDICTIONARY
360
89C
102
}
102
{ACAD_REACTORS
330
C
102
}
330
C
100
AcDbPlotSettings
  1

  2
HP 5000 N
  4
Letter
  6

 40
5.027082920074462
 41
5.408084392547606
 42
5.365737915039061
 43
5.365753173828125
 44
215.8999938964844
 45
279.3999938964844
 46
4.140880409212495
 47
4.709578165054337
 48
0.0
 49
0.0
140
10.205
141
7.764780009564798
142
1.0
143
1.0
 70
   692
 72
     0
 73
     1
 74
     4
  7
GORDON-BLK.ctb
 75
    16
147
1.0
148
0.0
149
0.0
100
AcDbLayout
  1
Layout1
 70
     1
 71
     1
 10
-0.2079161059762549
 20
-0.2079166691697489
 11
10.79208365372785
 21
8.29208309053436
 12
0.0
 22
0.0
 32
0.0
 14
0.0
 24
0.0
 34
0.0
 15
10.205
 25
7.764780009564798
 35
0.0
146
0.0
 13
0.0
 23
0.0
 33
0.0
 16
1.0
 26
0.0
 36
0.0
 17
0.0
 27
1.0
 37
0.0
 76
     0
330
D
331
5D
1001
ACAD_PSEXT
1000
HP 5000 N
1000
HP LaserJet 5100 PS
1000
IP_192.168.100.208
1000

1070
     0
  0
LAYOUT
  5
B
102
{ACAD_XDICTIONARY
360
3694E
102
}
102
{ACAD_REACTORS
330
C
102
}
330
C
100
AcDbPlotSettings
  1

  2
HP 1055CM+ Roll.pc3
  4
User257
  6

 40
4.995333194732666
 41
13.2922945022583
 42
4.99530029296875
 43
13.29296875
 44
899.1599731445312
 45
15239.9150390625
 46
0.0
 47
0.0
 48
1.592118068029931
 49
1.083964621542295
140
10.45538313863936
141
6.686027752030966
142
1.0
143
1.0
 70
 11952
 72
     0
 73
     1
 74
     4
  7
5000N-BLACK.ctb
 75
    16
147
1.0
148
-40.4397989279603
149
-27.53270138717434
100
AcDbLayout
  1
Model
 70
     1
 71
     0
 10
0.0
 20
0.0
 11
12.0
 21
9.0
 12
0.0
 22
0.0
 32
0.0
 14
0.0
 24
0.0
 34
0.0
 15
0.0
 25
0.0
 35
0.0
146
0.0
 13
0.0
 23
0.0
 33
0.0
 16
1.0
 26
0.0
 36
0.0
 17
0.0
 27
1.0
 37
0.0
 76
     0
330
2
331
882
  0
MATERIAL
  5
10B0
102
{ACAD_XDICTIONARY
360
36968
102
}
102
{ACAD_REACTORS
330
884
102
}
330
884
100
AcDbMaterial
  1
ByBlock
 73
     1
 78
     1
172
     1
176
     1
270
     1
274
     1
  0
MATERIAL
  5
10AF
102
{ACAD_XDICTIONARY
360
36966
102
}
102
{ACAD_REACTORS
330
884
102
}
330
884
100
AcDbMaterial
  1
ByLayer
 73
     1
 78
     1
172
     1
176
     1
270
     1
274
     1
  0
MATERIAL
  5
10B1
102
{ACAD_XDICTIONARY
360
3696A
102
}
102
{ACAD_REACTORS
330
884
102
}
330
884
100
AcDbMaterial
  1
Global
 73
     1
 78
     1
172
     1
176
     1
270
     1
274
     1
  0
MLEADERSTYLE
  5
351E4
102
{ACAD_REACTORS
330
351E3
102
}
330
351E3
100
AcDbMLeaderStyle
170
     2
171
     1
172
     0
 90
        2
 40
0.0
 41
0.0
173
     1
 91
-1056964608
340
16
 92
       -2
290
     1
 42
0.09
291
     1
 43
0.36
  3
Standard
 44
0.18
300

342
13
174
     1
178
     6
175
     1
176
     0
 93
-1056964608
 45
0.18
292
     0
297
     0
 46
0.18
 94
-1056964608
 47
1.0
 49
1.0
140
1.0
293
     1
141
0.0
294
     1
177
     0
142
1.0
295
     0
296
     0
143
0.125
1001
ACAD_MLEADERVER
1070
     2
  0
MLINESTYLE
  5
28
102
{ACAD_REACTORS
330
25
102
}
330
25
100
AcDbMlineStyle
  2
STANDARD
 70
     0
  3

 62
   256
 51
90.0
 52
90.0
 71
     2
 49
0.5
 62
   256
  6
BYLAYER
 49
-0.5
 62
   256
  6
BYLAYER
  0
PLOTSETTINGS
  5
1A21
102
{ACAD_XDICTIONARY
360
369D8
102
}
102
{ACAD_REACTORS
330
26
102
}
330
26
100
AcDbPlotSettings
  1
3010
  2
\\User-server\3010
  4
Letter
  6

 40
6.000749588012695
 41
6.000745773315428
 42
6.000747680664062
 43
6.000762939453125
 44
215.8999938964844
 45
279.3999938964844
 46
3.336542192430866
 47
4.095742591857943
 48
0.0
 49
0.0
140
10.205
141
7.764780009564798
142
1.0
143
1.0
 70
  2740
 72
     0
 73
     1
 74
     4
  7
GORDON-BLK.ctb
 75
    16
147
1.0
148
0.0
149
0.0
1001
ACAD_PSEXT
1000
\\User-server\3010
1000
KONICA MINOLTA Di3010 PCL6
1000
\\User-server
1000

1070
     0
  0
PLOTSETTINGS
  5
1A1F
102
{ACAD_XDICTIONARY
360
369D4
102
}
102
{ACAD_REACTORS
330
26
102
}
330
26
100
AcDbPlotSettings
  1
5000N
  2
HP 5000 N
  4
Letter
  6

 40
4.233333110809326
 41
4.233341693878172
 42
4.233322143554686
 43
4.23333740234375
 44
215.8999938964844
 45
279.3999938964844
 46
5.103963199587251
 47
5.863157400131249
 48
0.0
 49
0.0
140
10.205
141
7.764780009564798
142
1.0
143
1.0
 70
  2740
 72
     0
 73
     1
 74
     4
  7
GORDON-BLK.ctb
 75
    16
147
1.0
148
0.0
149
0.0
1001
ACAD_PSEXT
1000
HP 5000 N
1000
HP LaserJet 5100 PCL 6
1000
IP_192.168.100.208
1000

1070
     0
  0
PLOTSETTINGS
  5
1A22
102
{ACAD_XDICTIONARY
360
369DA
102
}
102
{ACAD_REACTORS
330
26
102
}
330
26
100
AcDbPlotSettings
  1
Minolta
  2
\\User-server\Minolta
  4
Letter
  6

 40
6.085416316986081
 41
6.085421085357666
 42
6.085403442382812
 43
6.085418701171875
 44
215.8999938964844
 45
279.3999938964844
 46
3.251880947084776
 47
4.011077054977445
 48
0.0
 49
0.0
140
10.205
141
7.764780009564798
142
1.0
143
1.0
 70
  2740
 72
     0
 73
     1
 74
     4
  7
GORDON-BLK.ctb
 75
    16
147
1.0
148
0.0
149
0.0
1001
ACAD_PSEXT
1000
\\User-server\Minolta
1000
CopierBW Ver 1.1
1000
\\User-server
1000

1070
     0
  0
PLOTSETTINGS
  5
1A20
102
{ACAD_XDICTIONARY
360
369D6
102
}
102
{ACAD_REACTORS
330
26
102
}
330
26
100
AcDbPlotSettings
  1
PDF
  2
Acrobat PDFWriter
  4
Letter
  6

 40
3.174999952316283
 41
3.174999952316283
 42
3.175003051757812
 43
3.17498779296875
 44
215.8999938964844
 45
279.3999938964844
 46
6.162289324732188
 47
6.921503075599713
 48
0.0
 49
0.0
140
10.205
141
7.764780009564798
142
1.0
143
1.0
 70
  2740
 72
     0
 73
     1
 74
     4
  7
GORDON-BLK.ctb
 75
    16
147
1.0
148
0.0
149
0.0
1001
ACAD_PSEXT
1000
Acrobat PDFWriter
1000
Adobe PDF Converter
1000
My Documents
1000
Creates Adobe PDF
1070
     0
  0
ACDBPLACEHOLDER
  5
5
102
{ACAD_REACTORS
330
6
102
}
330
6
  0
SCALE
  5
351D2
102
{ACAD_REACTORS
330
351D1
102
}
330
351D1
100
AcDbScale
 70
     0
300
1:1
140
1.0
141
1.0
290
     1
  0
SCALE
  5
351D3
102
{ACAD_REACTORS
330
351D1
102
}
330
351D1
100
AcDbScale
 70
     0
300
1/128" = 1'-0"
140
0.0078125
141
12.0
290
     0
  0
SCALE
  5
351D4
102
{ACAD_REACTORS
330
351D1
102
}
330
351D1
100
AcDbScale
 70
     0
300
1/64" = 1'-0"
140
0.015625
141
12.0
290
     0
  0
SCALE
  5
351D5
102
{ACAD_REACTORS
330
351D1
102
}
330
351D1
100
AcDbScale
 70
     0
300
1/32" = 1'-0"
140
0.03125
141
12.0
290
     0
  0
SCALE
  5
351D6
102
{ACAD_REACTORS
330
351D1
102
}
330
351D1
100
AcDbScale
 70
     0
300
1/16" = 1'-0"
140
0.0625
141
12.0
290
     0
  0
SCALE
  5
351D7
102
{ACAD_REACTORS
330
351D1
102
}
330
351D1
100
AcDbScale
 70
     0
300
3/32" = 1'-0"
140
0.09375
141
12.0
290
     0
  0
SCALE
  5
351D8
102
{ACAD_REACTORS
330
351D1
102
}
330
351D1
100
AcDbScale
 70
     0
300
1/8" = 1'-0"
140
0.125
141
12.0
290
     0
  0
SCALE
  5
351D9
102
{ACAD_REACTORS
330
351D1
102
}
330
351D1
100
AcDbScale
 70
     0
300
3/16" = 1'-0"
140
0.1875
141
12.0
290
     0
  0
SCALE
  5
351DA
102
{ACAD_REACTORS
330
351D1
102
}
330
351D1
100
AcDbScale
 70
     0
300
1/4" = 1'-0"
140
0.25
141
12.0
290
     0
  0
SCALE
  5
351DB
102
{ACAD_REACTORS
330
351D1
102
}
330
351D1
100
AcDbScale
 70
     0
300
3/8" = 1'-0"
140
0.375
141
12.0
290
     0
  0
SCALE
  5
351DC
102
{ACAD_REACTORS
330
351D1
102
}
330
351D1
100
AcDbScale
 70
     0
300
1/2" = 1'-0"
140
0.5
141
12.0
290
     0
  0
SCALE
  5
351DD
102
{ACAD_REACTORS
330
351D1
102
}
330
351D1
100
AcDbScale
 70
     0
300
3/4" = 1'-0"
140
0.75
141
12.0
290
     0
  0
SCALE
  5
351DE
102
{ACAD_REACTORS
330
351D1
102
}
330
351D1
100
AcDbScale
 70
     0
300
1" = 1'-0"
140
1.0
141
12.0
290
     0
  0
SCALE
  5
351DF
102
{ACAD_REACTORS
330
351D1
102
}
330
351D1
100
AcDbScale
 70
     0
300
1-1/2" = 1'-0"
140
1.5
141
12.0
290
     0
  0
SCALE
  5
351E0
102
{ACAD_REACTORS
330
351D1
102
}
330
351D1
100
AcDbScale
 70
     0
300
3" = 1'-0"
140
3.0
141
12.0
290
     0
  0
SCALE
  5
351E1
102
{ACAD_REACTORS
330
351D1
102
}
330
351D1
100
AcDbScale
 70
     0
300
6" = 1'-0"
140
6.0
141
12.0
290
     0
  0
SCALE
  5
351E2
102
{ACAD_REACTORS
330
351D1
102
}
330
351D1
100
AcDbScale
 70
     0
300
1'-0" = 1'-0"
140
12.0
141
12.0
290
     0
  0
TABLESTYLE
  5
887
102
{ACAD_XDICTIONARY
360
3695B
102
}
102
{ACAD_REACTORS
330
886
102
}
330
886
100
AcDbTableStyle
  3
Standard
 70
     0
 71
     0
 40
0.06
 41
0.06
280
     0
281
     0
  7
STANDARD
140
0.18
170
     2
 62
     0
 63
     7
283
     0
274
    -2
284
     1
 64
     0
275
    -2
285
     1
 65
     0
276
    -2
286
     1
 66
     0
277
    -2
287
     1
 67
     0
278
    -2
288
     1
 68
     0
279
    -2
289
     1
 69
     0
  7
STANDARD
140
0.25
170
     5
 62
     0
 63
     7
283
     0
274
    -2
284
     1
 64
     0
275
    -2
285
     1
 65
     0
276
    -2
286
     1
 66
     0
277
    -2
287
     1
 67
     0
278
    -2
288
     1
 68
     0
279
    -2
289
     1
 69
     0
  7
STANDARD
140
0.18
170
     5
 62
     0
 63
     7
283
     0
274
    -2
284
     1
 64
     0
275
    -2
285
     1
 65
     0
276
    -2
286
     1
 66
     0
277
    -2
287
     1
 67
     0
278
    -2
288
     1
 68
     0
279
    -2
289
     1
 69
     0
  0
VISUALSTYLE
  5
10B8
102
{ACAD_XDICTIONARY
360
369C6
102
}
102
{ACAD_REACTORS
330
10B2
102
}
330
10B2
100
AcDbVisualStyle
  2

 70
     4
 71
     0
 72
     2
 73
     0
 90
        0
 40
-0.6
 41
-30.0
 62
     5
 63
     7
 74
     1
 91
        4
 64
     7
 65
   257
 75
     1
175
     1
 42
1.0
 92
        0
 66
   257
 43
1.0
 76
     1
 77
     6
 78
     2
 67
     7
 79
     5
170
     0
171
     0
290
     0
174
     0
 93
        1
 44
0.0
173
     0
291
     0
 45
0.0
1001
ACAD
1000
AcDbSavedByObjectVersion
1070
     0
  0
VISUALSTYLE
  5
1D4F
102
{ACAD_XDICTIONARY
360
369DC
102
}
102
{ACAD_REACTORS
330
10B2
102
}
330
10B2
100
AcDbVisualStyle
  2

 70
     6
 71
     1
 72
     2
 73
     2
 90
        0
 40
-0.6
 41
-30.0
 62
     5
 63
     7
 74
     2
 91
        2
 64
     7
 65
   257
 75
     2
175
     1
 42
40.0
 92
        0
 66
   257
 43
1.0
 76
     1
 77
     6
 78
     2
 67
     7
 79
     3
170
     0
171
     0
290
     0
174
     0
 93
        1
 44
0.0
173
     0
291
     0
 45
0.0
1001
ACAD
1000
AcDbSavedByObjectVersion
1070
     0
  0
VISUALSTYLE
  5
1D50
102
{ACAD_XDICTIONARY
360
369DE
102
}
102
{ACAD_REACTORS
330
10B2
102
}
330
10B2
100
AcDbVisualStyle
  2

 70
     5
 71
     0
 72
     2
 73
     0
 90
        0
 40
-0.6
 41
-30.0
 62
     5
 63
     7
 74
     1
 91
        4
 64
     7
 65
   257
 75
     1
175
     1
 42
1.0
 92
        0
 66
   257
 43
1.0
 76
     1
 77
     6
 78
     2
 67
     7
 79
     5
170
     0
171
     0
290
     0
174
     0
 93
        1
 44
0.0
173
     0
291
     0
 45
0.0
1001
ACAD
1000
AcDbSavedByObjectVersion
1070
     0
  0
VISUALSTYLE
  5
10B7
102
{ACAD_XDICTIONARY
360
369C4
102
}
102
{ACAD_REACTORS
330
10B2
102
}
330
10B2
100
AcDbVisualStyle
  2

 70
     7
 71
     1
 72
     0
 73
     1
 90
        0
 40
-0.6
 41
-30.0
 62
     5
 63
     7
 74
     0
 91
        4
 64
     7
 65
   257
 75
     1
175
     1
 42
1.0
 92
        8
 66
     7
 43
1.0
 76
     1
 77
     6
 78
     2
 67
     7
 79
     5
170
     0
171
     0
290
     0
174
     0
 93
        1
 44
0.0
173
     0
291
     1
 45
0.0
1001
ACAD
1000
AcDbSavedByObjectVersion
1070
     0
  0
VISUALSTYLE
  5
10BE
102
{ACAD_XDICTIONARY
360
369CA
102
}
102
{ACAD_REACTORS
330
10B2
102
}
330
10B2
100
AcDbVisualStyle
  2

 70
    12
 71
     2
 72
     2
 73
     0
 90
        0
 40
-0.6
 41
-30.0
 62
     5
 63
     7
 74
     1
 91
        4
 64
     7
 65
   257
 75
     1
175
     1
 42
1.0
 92
        8
 66
     7
 43
1.0
 76
     1
 77
     6
 78
     2
 67
     7
 79
     5
170
     0
171
     0
290
     0
174
     0
 93
        1
 44
50.0
173
     0
291
     1
 45
0.0
1001
ACAD
1000
AcDbSavedByObjectVersion
1070
     0
  0
VISUALSTYLE
  5
10C2
102
{ACAD_XDICTIONARY
360
369D2
102
}
102
{ACAD_REACTORS
330
10B2
102
}
330
10B2
100
AcDbVisualStyle
  2

 70
    16
 71
     2
 72
     2
 73
     3
 90
        0
 40
-0.6
 41
-30.0
 62
     5
 63
     8
 74
     1
 91
        4
 64
     7
 65
   257
 75
     1
175
     1
 42
1.0
 92
        8
 66
     8
 43
1.0
 76
     1
 77
     6
 78
     2
 67
     7
 79
     5
170
     0
171
     0
290
     0
174
     0
 93
        1
 44
0.0
173
     0
291
     1
 45
0.0
1001
ACAD
1000
AcDbSavedByObjectVersion
1070
     0
  0
VISUALSTYLE
  5
1D51
102
{ACAD_XDICTIONARY
360
369E0
102
}
102
{ACAD_REACTORS
330
10B2
102
}
330
10B2
100
AcDbVisualStyle
  2

 70
     9
 71
     3
 72
     2
 73
     0
 90
        0
 40
-0.6
 41
-30.0
 62
     5
 63
     7
 74
     2
 91
        2
 64
     7
 65
   257
 75
     1
175
     1
 42
40.0
 92
        8
 66
     7
 43
1.0
 76
     1
 77
     6
 78
     2
 67
     7
 79
     3
170
     0
171
     0
290
     0
174
     0
 93
        1
 44
0.0
173
     0
291
     0
 45
0.0
1001
ACAD
1000
AcDbSavedByObjectVersion
1070
     0
  0
VISUALSTYLE
  5
10BD
102
{ACAD_XDICTIONARY
360
369C8
102
}
102
{ACAD_REACTORS
330
10B2
102
}
330
10B2
100
AcDbVisualStyle
  2

 70
    11
 71
     2
 72
     2
 73
     0
 90
        0
 40
-0.6
 41
-30.0
 62
     5
 63
     7
 74
     1
 91
        4
 64
     7
 65
   257
 75
     1
175
     1
 42
1.0
 92
        8
 66
     7
 43
1.0
 76
     1
 77
     6
 78
     2
 67
     7
 79
     5
170
     0
171
     0
290
     0
174
     0
 93
        1
 44
-50.0
173
     0
291
     1
 45
0.0
1001
ACAD
1000
AcDbSavedByObjectVersion
1070
     0
  0
VISUALSTYLE
  5
351D0
102
{ACAD_XDICTIONARY
360
369F6
102
}
102
{ACAD_REACTORS
330
10B2
102
}
330
10B2
100
AcDbVisualStyle
  2

 70
    22
 71
     2
 72
     2
 73
     0
 90
        0
 40
-0.6
 41
-30.0
 62
     5
 63
     7
 74
     1
 91
        4
 64
     7
 65
   257
 75
     1
175
     1
 42
1.0
 92
        8
 66
     7
 43
1.0
 76
     1
 77
     6
 78
     2
 67
     7
 79
     5
170
     0
171
     0
290
     0
174
     0
 93
        1
 44
0.0
173
     0
291
     1
 45
0.0
1001
ACAD
1000
AcDbSavedByObjectVersion
1070
     0
  0
VISUALSTYLE
  5
10C1
102
{ACAD_XDICTIONARY
360
369D0
102
}
102
{ACAD_REACTORS
330
10B2
102
}
330
10B2
100
AcDbVisualStyle
  2

 70
    15
 71
     2
 72
     2
 73
     0
 90
        0
 40
-0.6
 41
-30.0
 62
     5
 63
     7
 74
     1
 91
        4
 64
     7
 65
   257
 75
     1
175
     1
 42
1.0
 92
        8
 66
     7
 43
1.0
 76
     1
 77
     6
 78
     2
 67
     7
 79
     5
170
     0
171
     0
290
     0
174
     0
 93
        1
 44
0.0
173
     0
291
     1
 45
0.0
1001
ACAD
1000
AcDbSavedByObjectVersion
1070
     0
  0
VISUALSTYLE
  5
10B3
102
{ACAD_XDICTIONARY
360
369BC
102
}
102
{ACAD_REACTORS
330
10B2
102
}
330
10B2
100
AcDbVisualStyle
  2

 70
     0
 71
     2
 72
     1
 73
     1
 90
        2
 40
-0.6
 41
30.0
 62
     5
 63
     7
 74
     0
 91
        4
 64
     7
 65
   257
 75
     1
175
     1
 42
1.0
 92
        8
 66
     7
 43
1.0
 76
     1
 77
     6
 78
     2
 67
     7
 79
     5
170
     0
171
     0
290
     0
174
     0
 93
       13
 44
0.0
173
     0
291
     1
 45
0.0
1001
ACAD
1000
AcDbSavedByObjectVersion
1070
     0
  0
VISUALSTYLE
  5
10B4
102
{ACAD_XDICTIONARY
360
369BE
102
}
102
{ACAD_REACTORS
330
10B2
102
}
330
10B2
100
AcDbVisualStyle
  2

 70
     1
 71
     2
 72
     1
 73
     1
 90
        2
 40
-0.6
 41
30.0
 62
     5
 63
     7
 74
     1
 91
        4
 64
     7
 65
   257
 75
     1
175
     1
 42
1.0
 92
        0
 66
   257
 43
1.0
 76
     1
 77
     6
 78
     2
 67
     7
 79
     5
170
     0
171
     0
290
     0
174
     0
 93
       13
 44
0.0
173
     0
291
     1
 45
0.0
1001
ACAD
1000
AcDbSavedByObjectVersion
1070
     0
  0
VISUALSTYLE
  5
10B5
102
{ACAD_XDICTIONARY
360
369C0
102
}
102
{ACAD_REACTORS
330
10B2
102
}
330
10B2
100
AcDbVisualStyle
  2

 70
     2
 71
     2
 72
     2
 73
     1
 90
        2
 40
-0.6
 41
30.0
 62
     5
 63
     7
 74
     0
 91
        4
 64
     7
 65
   257
 75
     1
175
     1
 42
1.0
 92
        0
 66
     7
 43
1.0
 76
     1
 77
     6
 78
     2
 67
     7
 79
     5
170
     0
171
     0
290
     0
174
     0
 93
       13
 44
0.0
173
     0
291
     1
 45
0.0
1001
ACAD
1000
AcDbSavedByObjectVersion
1070
     0
  0
VISUALSTYLE
  5
10B6
102
{ACAD_XDICTIONARY
360
369C2
102
}
102
{ACAD_REACTORS
330
10B2
102
}
330
10B2
100
AcDbVisualStyle
  2

 70
     3
 71
     2
 72
     2
 73
     1
 90
        2
 40
-0.6
 41
30.0
 62
     5
 63
     7
 74
     1
 91
        4
 64
     7
 65
   257
 75
     1
175
     1
 42
1.0
 92
        0
 66
   257
 43
1.0
 76
     1
 77
     6
 78
     2
 67
     7
 79
     5
170
     0
171
     0
290
     0
174
     0
 93
       13
 44
0.0
173
     0
291
     1
 45
0.0
1001
ACAD
1000
AcDbSavedByObjectVersion
1070
     0
  0
VISUALSTYLE
  5
351C8
102
{ACAD_XDICTIONARY
360
369E6
102
}
102
{ACAD_REACTORS
330
10B2
102
}
330
10B2
100
AcDbVisualStyle
  2

 70
     6
 71
     1
 72
     2
 73
     2
 90
        0
 40
-0.6
 41
-30.0
 62
     5
 63
     7
 74
     2
 91
        2
 64
     7
 65
   257
 75
     2
175
     1
 42
40.0
 92
        0
 66
   257
 43
1.0
 76
     1
 77
     6
 78
     2
 67
     7
 79
     3
170
     0
171
     0
290
     0
174
     0
 93
        1
 44
0.0
173
     0
291
     0
 45
0.0
1001
ACAD
1000
AcDbSavedByObjectVersion
1070
     0
  0
VISUALSTYLE
  5
351CE
102
{ACAD_XDICTIONARY
360
369F2
102
}
102
{ACAD_REACTORS
330
10B2
102
}
330
10B2
100
AcDbVisualStyle
  2

 70
    20
 71
     2
 72
     2
 73
     0
 90
        0
 40
-0.6
 41
-30.0
 62
     5
 63
     7
 74
     1
 91
        4
 64
     7
 65
   257
 75
     1
175
     1
 42
1.0
 92
       10
 66
     7
 43
1.0
 76
     1
 77
     6
 78
     2
 67
     7
 79
     5
170
     0
171
     0
290
     0
174
     0
 93
        1
 44
0.0
173
     0
291
     1
 45
0.0
1001
ACAD
1000
AcDbSavedByObjectVersion
1070
     0
  0
VISUALSTYLE
  5
10C0
102
{ACAD_XDICTIONARY
360
369CE
102
}
102
{ACAD_REACTORS
330
10B2
102
}
330
10B2
100
AcDbVisualStyle
  2

 70
    14
 71
     2
 72
     2
 73
     0
 90
        0
 40
-0.6
 41
-30.0
 62
     5
 63
     7
 74
     1
 91
        4
 64
     7
 65
   257
 75
     7
175
     7
 42
1.0
 92
        8
 66
     7
 43
1.0
 76
     1
 77
     6
 78
     2
 67
     7
 79
     5
170
     0
171
     0
290
     0
174
     0
 93
        1
 44
0.0
173
     0
291
     1
 45
0.0
1001
ACAD
1000
AcDbSavedByObjectVersion
1070
     0
  0
VISUALSTYLE
  5
351CF
102
{ACAD_XDICTIONARY
360
369F4
102
}
102
{ACAD_REACTORS
330
10B2
102
}
330
10B2
100
AcDbVisualStyle
  2

 70
    21
 71
     2
 72
     2
 73
     0
 90
        0
 40
-0.6
 41
-30.0
 62
     5
 63
     7
 74
     1
 91
        4
 64
     7
 65
   257
 75
     1
175
     1
 42
1.0
 92
        9
 66
     7
 43
1.0
 76
     1
 77
     6
 78
     2
 67
     7
 79
     5
170
     0
171
     0
290
     0
174
     0
 93
        1
 44
0.0
173
     0
291
     1
 45
0.0
1001
ACAD
1000
AcDbSavedByObjectVersion
1070
     0
  0
VISUALSTYLE
  5
1D52
102
{ACAD_XDICTIONARY
360
369E2
102
}
102
{ACAD_REACTORS
330
10B2
102
}
330
10B2
100
AcDbVisualStyle
  2

 70
     8
 71
     2
 72
     2
 73
     0
 90
        0
 40
-0.6
 41
-30.0
 62
     5
 63
     7
 74
     1
 91
        0
 64
     7
 65
   257
 75
     1
175
     1
 42
1.0
 92
        8
 66
     8
 43
1.0
 76
     1
 77
     6
 78
     2
 67
     7
 79
     5
170
     0
171
     0
290
     0
174
     0
 93
       13
 44
0.0
173
     0
291
     0
 45
0.0
1001
ACAD
1000
AcDbSavedByObjectVersion
1070
     0
  0
VISUALSTYLE
  5
351CD
102
{ACAD_XDICTIONARY
360
369F0
102
}
102
{ACAD_REACTORS
330
10B2
102
}
330
10B2
100
AcDbVisualStyle
  2

 70
    27
 71
     2
 72
     2
 73
     1
 90
        2
 40
-0.6
 41
30.0
 62
     5
 63
     7
 74
     0
 91
        4
 64
     7
 65
   257
 75
     1
175
     1
 42
1.0
 92
        8
 66
   257
 43
1.0
 76
     1
 77
     6
 78
     2
 67
     8
 79
     3
170
     0
171
     0
290
     0
174
     0
 93
        5
 44
0.0
173
     0
291
     0
 45
0.0
1001
ACAD
1000
AcDbSavedByObjectVersion
1070
     0
  0
VISUALSTYLE
  5
351CC
102
{ACAD_XDICTIONARY
360
369EE
102
}
102
{ACAD_REACTORS
330
10B2
102
}
330
10B2
100
AcDbVisualStyle
  2

 70
    26
 71
     2
 72
     2
 73
     1
 90
        2
 40
-0.6
 41
30.0
 62
     5
 63
     7
 74
     1
 91
       10
 64
     7
 65
   257
 75
     2
175
     1
 42
1.0
 92
        8
 66
   257
 43
1.0
 76
     1
 77
     6
 78
     2
 67
     7
 79
     3
170
     0
171
     0
290
     0
174
     0
 93
        5
 44
0.0
173
     0
291
     0
 45
0.0
1001
ACAD
1000
AcDbSavedByObjectVersion
1070
     0
  0
VISUALSTYLE
  5
351C9
102
{ACAD_XDICTIONARY
360
369E8
102
}
102
{ACAD_REACTORS
330
10B2
102
}
330
10B2
100
AcDbVisualStyle
  2

 70
    23
 71
     2
 72
     2
 73
     3
 90
        0
 40
-0.6
 41
-30.0
 62
     5
 63
     7
 74
     2
 91
        2
 64
     7
 65
     7
 75
     1
175
     1
 42
40.0
 92
        8
 66
     7
 43
1.0
 76
     1
 77
     6
 78
     2
 67
     7
 79
     3
170
     0
171
     0
290
     0
174
     0
 93
        1
 44
0.0
173
     0
291
     0
 45
0.0
1001
ACAD
1000
AcDbSavedByObjectVersion
1070
     0
  0
VISUALSTYLE
  5
351CA
102
{ACAD_XDICTIONARY
360
369EA
102
}
102
{ACAD_REACTORS
330
10B2
102
}
330
10B2
100
AcDbVisualStyle
  2

 70
    24
 71
     1
 72
     2
 73
     2
 90
        0
 40
-0.6
 41
-30.0
 62
     5
 63
     7
 74
     2
 91
        2
 64
     7
 65
     7
 75
     1
175
     1
 42
40.0
 92
       11
 66
     7
 43
1.0
 76
     1
 77
     6
 78
     2
 67
     7
 79
     6
170
     0
171
     0
290
     0
174
     0
 93
        1
 44
0.0
173
     0
291
     0
 45
0.0
1001
ACAD
1000
AcDbSavedByObjectVersion
1070
     0
  0
VISUALSTYLE
  5
10BF
102
{ACAD_XDICTIONARY
360
369CC
102
}
102
{ACAD_REACTORS
330
10B2
102
}
330
10B2
100
AcDbVisualStyle
  2

 70
    13
 71
     2
 72
     2
 73
     0
 90
        0
 40
-0.6
 41
-30.0
 62
     5
 63
     7
 74
     1
 91
        4
 64
     7
 65
   257
 75
     1
175
     1
 42
1.0
 92
       12
 66
     7
 43
1.0
 76
     1
 77
     6
 78
     2
 67
     7
 79
     5
170
     0
171
     0
290
     0
174
     0
 93
        1
 44
0.0
173
     0
291
     1
 45
0.0
1001
ACAD
1000
AcDbSavedByObjectVersion
1070
     0
  0
VISUALSTYLE
  5
351C7
102
{ACAD_XDICTIONARY
360
369E4
102
}
102
{ACAD_REACTORS
330
10B2
102
}
330
10B2
100
AcDbVisualStyle
  2

 70
     5
 71
     0
 72
     2
 73
     0
 90
        0
 40
-0.6
 41
-30.0
 62
     5
 63
     7
 74
     1
 91
        4
 64
     7
 65
   257
 75
     1
175
     1
 42
1.0
 92
        0
 66
   257
 43
1.0
 76
     1
 77
     6
 78
     2
 67
     7
 79
     3
170
     0
171
     0
290
     0
174
     0
 93
        1
 44
0.0
173
     0
291
     0
 45
0.0
1001
ACAD
1000
AcDbSavedByObjectVersion
1070
     0
  0
VISUALSTYLE
  5
351CB
102
{ACAD_XDICTIONARY
360
369EC
102
}
102
{ACAD_REACTORS
330
10B2
102
}
330
10B2
100
AcDbVisualStyle
  2

 70
    25
 71
     2
 72
     2
 73
     1
 90
        1
 40
0.5
 41
-30.0
 62
     5
 63
     7
 74
     1
 91
        0
 64
     7
 65
   257
 75
     1
175
     1
 42
1.0
 92
        8
 66
     7
 43
1.0
 76
     1
 77
     6
 78
     2
 67
     7
 79
     3
170
     0
171
     0
290
     0
174
     0
 93
       13
 44
0.0
173
     0
291
     0
 45
0.0
1001
ACAD
1000
AcDbSavedByObjectVersion
1070
     0
  0
DICTIONARYVAR
  5
36699
102
{ACAD_REACTORS
330
3AC
102
}
330
3AC
100
DictionaryVariables
280
     0
  1
1:1
  0
DICTIONARYVAR
  5
36697
102
{ACAD_REACTORS
330
3AC
102
}
330
3AC
100
DictionaryVariables
280
     0
  1
STANDARD
  0
DICTIONARYVAR
  5
89F
102
{ACAD_REACTORS
330
3AC
102
}
330
3AC
100
DictionaryVariables
280
     0
  1
STANDARD
  0
DICTIONARYVAR
  5
3AD
102
{ACAD_REACTORS
330
3AC
102
}
330
3AC
100
DictionaryVariables
280
     0
  1
1
  0
DICTIONARYVAR
  5
369B0
102
{ACAD_REACTORS
330
3AC
102
}
330
3AC
100
DictionaryVariables
280
     0
  1
0
  0
DICTIONARYVAR
  5
36958
102
{ACAD_REACTORS
330
3AC
102
}
330
3AC
100
DictionaryVariables
280
     0
  1
0
  0
DICTIONARYVAR
  5
3669B
102
{ACAD_REACTORS
330
3AC
102
}
330
3AC
100
DictionaryVariables
280
     0
  1
1
  0
DICTIONARYVAR
  5
3669C
102
{ACAD_REACTORS
330
3AC
102
}
330
3AC
100
DictionaryVariables
280
     0
  1
15
  0
DICTIONARYVAR
  5
3669A
102
{ACAD_REACTORS
330
3AC
102
}
330
3AC
100
DictionaryVariables
280
     0
  1
0
  0
DICTIONARYVAR
  5
36698
102
{ACAD_REACTORS
330
3AC
102
}
330
3AC
100
DictionaryVariables
280
     0
  1
0
  0
DICTIONARYVAR
  5
3695A
102
{ACAD_REACTORS
330
3AC
102
}
330
3AC
100
DictionaryVariables
280
     0
  1
1
  0
DICTIONARYVAR
  5
36957
102
{ACAD_REACTORS
330
3AC
102
}
330
3AC
100
DictionaryVariables
280
     0
  1
127
  0
DICTIONARYVAR
  5
369B1
102
{ACAD_REACTORS
330
3AC
102
}
330
3AC
100
DictionaryVariables
280
     0
  1
2
  0
XRECORD
  5
1054
102
{ACAD_REACTORS
330
1053
102
}
330
1053
100
AcDbXrecord
280
     1
330
0
  0
XRECORD
  5
3513B
102
{ACAD_REACTORS
330
89A
102
}
330
89A
100
AcDbXrecord
280
     1
 91
      535
301

290
     0
302
0
330
1A94
 90
        0
 62
   253
370
    -3
331
8
  1
Color_253
330
1A91
 90
        8
 62
    60
370
    -3
331
8
  1
Color_60
330
1A8E
 90
        8
 62
     2
370
    -3
331
8
  1
Color_2
330
1A8B
 90
        8
 62
     2
370
    -3
331
1A4E
  1
Color_2
330
1A88
 90
        8
 62
     3
370
    -3
331
8
  1
Color_3
330
1A85
 90
        8
 62
     6
370
    -3
331
8
  1
Color_6
330
1A82
 90
        0
 62
   251
370
    -3
331
8
  1
Color_251
330
1A7F
 90
        8
 62
     1
370
    -3
331
8
  1
Color_1
330
1A7C
 90
        8
 62
   253
370
    -3
331
1A5D
  1
Color_253
330
1A79
 90
        8
 62
     2
370
    -3
331
8
  1
Color_2
330
1A76
 90
        8
 62
     4
370
    -3
331
8
  1
Color_4
330
1A73
 90
        8
 62
     1
370
    -3
331
8
  1
Color_1
330
1A70
 90
        8
 62
     6
370
    -3
331
8
  1
Color_6
330
1A6D
 90
        8
 62
     5
370
    -3
331
8
  1
Color_5
330
1A6A
 90
        8
 62
    52
370
    -3
331
8
  1
Color_52
330
1A67
 90
        8
 62
     2
370
    -3
331
8
  1
Color_2
330
1A64
 90
        8
 62
     1
370
    -3
331
8
  1
Color_1
330
1A61
 90
        8
 62
     1
370
    -3
331
8
  1
Color_1
330
73
 90
        0
 62
   252
370
    -3
331
8
  1
Color_252
330
32
 90
        8
 62
     3
370
    -3
331
8
  1
Color_3
330
4
 90
        8
 62
     7
370
    -3
331
8
  1
Color_7
  0
DICTIONARY
  5
89C
330
10
100
AcDbDictionary
280
     1
281
     1
  3
ACAD_XREC_ROUNDTRIP
360
369B8
  3
ADSK_XREC_LAYOUTTHUMBNAIL
360
89D
  0
DICTIONARY
  5
3694E
330
B
100
AcDbDictionary
280
     1
281
     1
  3
ACAD_XREC_ROUNDTRIP
360
369B7
  3
ADSK_XREC_LAYOUTTHUMBNAIL
360
3694F
  0
DICTIONARY
  5
36968
330
10B0
100
AcDbDictionary
280
     1
281
     1
  3
ACAD_XREC_ROUNDTRIP
360
36969
  0
DICTIONARY
  5
36966
330
10AF
100
AcDbDictionary
280
     1
281
     1
  3
ACAD_XREC_ROUNDTRIP
360
36967
  0
DICTIONARY
  5
3696A
330
10B1
100
AcDbDictionary
280
     1
281
     1
  3
ACAD_XREC_ROUNDTRIP
360
3696B
  0
DICTIONARY
  5
369D8
330
1A21
100
AcDbDictionary
280
     1
281
     1
  3
ACAD_XREC_ROUNDTRIP
360
369D9
  0
DICTIONARY
  5
369D4
330
1A1F
100
AcDbDictionary
280
     1
281
     1
  3
ACAD_XREC_ROUNDTRIP
360
369D5
  0
DICTIONARY
  5
369DA
330
1A22
100
AcDbDictionary
280
     1
281
     1
  3
ACAD_XREC_ROUNDTRIP
360
369DB
  0
DICTIONARY
  5
369D6
330
1A20
100
AcDbDictionary
280
     1
281
     1
  3
ACAD_XREC_ROUNDTRIP
360
369D7
  0
DICTIONARY
  5
3695B
330
887
100
AcDbDictionary
280
     1
281
     1
  3
ACAD_ROUNDTRIP_2008_TABLESTYLE_CELLSTYLEMAP
360
369B2
  3
ACAD_XREC_ROUNDTRIP
360
369BB
  0
DICTIONARY
  5
369C6
330
10B8
100
AcDbDictionary
280
     1
281
     1
  3
ACAD_XREC_ROUNDTRIP
360
369C7
  0
DICTIONARY
  5
369DC
330
1D4F
100
AcDbDictionary
280
     1
281
     1
  3
ACAD_XREC_ROUNDTRIP
360
369DD
  0
DICTIONARY
  5
369DE
330
1D50
100
AcDbDictionary
280
     1
281
     1
  3
ACAD_XREC_ROUNDTRIP
360
369DF
  0
DICTIONARY
  5
369C4
330
10B7
100
AcDbDictionary
280
     1
281
     1
  3
ACAD_XREC_ROUNDTRIP
360
369C5
  0
DICTIONARY
  5
369CA
330
10BE
100
AcDbDictionary
280
     1
281
     1
  3
ACAD_XREC_ROUNDTRIP
360
369CB
  0
DICTIONARY
  5
369D2
330
10C2
100
AcDbDictionary
280
     1
281
     1
  3
ACAD_XREC_ROUNDTRIP
360
369D3
  0
DICTIONARY
  5
369E0
330
1D51
100
AcDbDictionary
280
     1
281
     1
  3
ACAD_XREC_ROUNDTRIP
360
369E1
  0
DICTIONARY
  5
369C8
330
10BD
100
AcDbDictionary
280
     1
281
     1
  3
ACAD_XREC_ROUNDTRIP
360
369C9
  0
DICTIONARY
  5
369F6
330
351D0
100
AcDbDictionary
280
     1
281
     1
  3
ACAD_XREC_ROUNDTRIP
360
369F7
  0
DICTIONARY
  5
369D0
330
10C1
100
AcDbDictionary
280
     1
281
     1
  3
ACAD_XREC_ROUNDTRIP
360
369D1
  0
DICTIONARY
  5
369BC
330
10B3
100
AcDbDictionary
280
     1
281
     1
  3
ACAD_XREC_ROUNDTRIP
360
369BD
  0
DICTIONARY
  5
369BE
330
10B4
100
AcDbDictionary
280
     1
281
     1
  3
ACAD_XREC_ROUNDTRIP
360
369BF
  0
DICTIONARY
  5
369C0
330
10B5
100
AcDbDictionary
280
     1
281
     1
  3
ACAD_XREC_ROUNDTRIP
360
369C1
  0
DICTIONARY
  5
369C2
330
10B6
100
AcDbDictionary
280
     1
281
     1
  3
ACAD_XREC_ROUNDTRIP
360
369C3
  0
DICTIONARY
  5
369E6
330
351C8
100
AcDbDictionary
280
     1
281
     1
  3
ACAD_XREC_ROUNDTRIP
360
369E7
  0
DICTIONARY
  5
369F2
330
351CE
100
AcDbDictionary
280
     1
281
     1
  3
ACAD_XREC_ROUNDTRIP
360
369F3
  0
DICTIONARY
  5
369CE
330
10C0
100
AcDbDictionary
280
     1
281
     1
  3
ACAD_XREC_ROUNDTRIP
360
369CF
  0
DICTIONARY
  5
369F4
330
351CF
100
AcDbDictionary
280
     1
281
     1
  3
ACAD_XREC_ROUNDTRIP
360
369F5
  0
DICTIONARY
  5
369E2
330
1D52
100
AcDbDictionary
280
     1
281
     1
  3
ACAD_XREC_ROUNDTRIP
360
369E3
  0
DICTIONARY
  5
369F0
330
351CD
100
AcDbDictionary
280
     1
281
     1
  3
ACAD_XREC_ROUNDTRIP
360
369F1
  0
DICTIONARY
  5
369EE
330
351CC
100
AcDbDictionary
280
     1
281
     1
  3
ACAD_XREC_ROUNDTRIP
360
369EF
  0
DICTIONARY
  5
369E8
330
351C9
100
AcDbDictionary
280
     1
281
     1
  3
ACAD_XREC_ROUNDTRIP
360
369E9
  0
DICTIONARY
  5
369EA
330
351CA
100
AcDbDictionary
280
     1
281
     1
  3
ACAD_XREC_ROUNDTRIP
360
369EB
  0
DICTIONARY
  5
369CC
330
10BF
100
AcDbDictionary
280
     1
281
     1
  3
ACAD_XREC_ROUNDTRIP
360
369CD
  0
DICTIONARY
  5
369E4
330
351C7
100
AcDbDictionary
280
     1
281
     1
  3
ACAD_XREC_ROUNDTRIP
360
369E5
  0
DICTIONARY
  5
369EC
330
351CB
100
AcDbDictionary
280
     1
281
     1
  3
ACAD_XREC_ROUNDTRIP
360
369ED
  0
XRECORD
  5
369B8
102
{ACAD_REACTORS
330
89C
102
}
330
89C
100
AcDbXrecord
280
     1
102
SHADEPLOT
 70
     0
102
SHADEPLOTRESLEVEL
 70
     2
102
SHADEPLOTCUSTOMDPI
 70
   300
  0
XRECORD
  5
89D
102
{ACAD_REACTORS
330
89C
102
}
330
89C
100
AcDbXrecord
280
     1
310
28000000B40000008B0000000100080000000000BC610000000000000000000000010000000000000000000000000000FFFFFF000000000000000000000000000000000000000000000000000000000000000000330000006600000099000000CC000000FF00000000330000333300006633000099330000CC330000FF3300
310
0000660000336600006666000099660000CC660000FF66000000990000339900006699000099990000CC990000FF99000000CC000033CC000066CC000099CC0000CCCC0000FFCC000000FF000033FF000066FF000099FF0000CCFF0000FFFF000000003300330033006600330099003300CC003300FF003300003333003333
310
33006633330099333300CC333300FF33330000663300336633006666330099663300CC663300FF66330000993300339933006699330099993300CC993300FF99330000CC330033CC330066CC330099CC3300CCCC3300FFCC330000FF330033FF330066FF330099FF3300CCFF3300FFFF330000006600330066006600660099
310
006600CC006600FF00660000336600333366006633660099336600CC336600FF33660000666600336666006666660099666600CC666600FF66660000996600339966006699660099996600CC996600FF99660000CC660033CC660066CC660099CC6600CCCC6600FFCC660000FF660033FF660066FF660099FF6600CCFF6600
310
FFFF660000009900330099006600990099009900CC009900FF00990000339900333399006633990099339900CC339900FF33990000669900336699006666990099669900CC669900FF66990000999900339999006699990099999900CC999900FF99990000CC990033CC990066CC990099CC9900CCCC9900FFCC990000FF99
310
0033FF990066FF990099FF9900CCFF9900FFFF99000000CC003300CC006600CC009900CC00CC00CC00FF00CC000033CC003333CC006633CC009933CC00CC33CC00FF33CC000066CC003366CC006666CC009966CC00CC66CC00FF66CC000099CC003399CC006699CC009999CC00CC99CC00FF99CC0000CCCC0033CCCC0066CC
310
CC0099CCCC00CCCCCC00FFCCCC0000FFCC0033FFCC0066FFCC0099FFCC00CCFFCC00FFFFCC000000FF003300FF006600FF009900FF00CC00FF00FF00FF000033FF003333FF006633FF009933FF00CC33FF00FF33FF000066FF003366FF006666FF009966FF00CC66FF00FF66FF000099FF003399FF006699FF009999FF00CC
310
99FF00FF99FF0000CCFF0033CCFF0066CCFF0099CCFF00CCCCFF00FFCCFF0000FFFF0033FFFF0066FFFF0099FFFF00CCFFFF00FFFFFF00000000000D0D0D001A1A1A00282828003535350043434300505050005D5D5D006B6B6B00787878008686860093939300A1A1A100AEAEAE00BBBBBB00C9C9C900D6D6D600E4E4E400
310
F1F1F100FFFFFF000000000000000000000000000000000000000000000000000000000000000000000000000000000000000000000000000000000000000000000000000000000000000000000000000000000000000000000000000000000000000000000000000000000000000000000000000000000000000000000000
310
00000000000000000000000000000000000000000000000000000000000000000000000000000000000000000000000000000000000000000000000000000000000000000000000000000000000000000000000000000000000000000000000000000000000000000000000000000000000000000000000000000000000000
310
00000000000000000000000000000000000000000000000000000000000000000000000000000000000000000000000000000000000000000000000000000000000000000000000000000000000000000000000000000000000000000000000000000000000000000000000000000000000000000000000000000000000000
310
00000000000000000000000000000000000000000000000000000000000000000000000000000000000000000000000000000000000000000000000000000000000000000000000000000000000000000000000000000000000000000000000000000000000000000000000000000000000000000000000000000000000000
310
00000000000000000000000000000000000000000000000000000000000000000000000000000000000000000000000000000000000000000000000000000000000000000000000000000000000000000000000000000000000000000000000000000000000000000000000000000000000000000000000000000000000000
310
00000000000000000000000000000000000000000000000000000000000000000000000000000000000000000000000000000000000000000000000000000000000000000000000000000000000000000000000000000000000000000000000000000000000000000000000000000000000000000000000000000000000000
310
00000000000000000000000000000000000000000000000000000000000000000000000000000000000000000000000000000000000000000000000000000000000000000000000000000000000000000000000000000000000000000000000000000000000000000000000000000000000000000000000000000000000000
310
00000000000000000000000000000000000000000000000000000000000000000000000000000000000000000000000000000000000000000000000000000000000000000000000000000000000000000000000000000000000000000000000000000000000000000000000000000000000000000000000000000000000000
310
00000000000000000000000000000000000000000000000000000000000000000000000000000000000000000000000000000000000000000000000000000000000000000000000000000000000000000000000000000000000000000000000000000000000000000000000000000000000000000000000000000000000000
310
00000000000000000000000000000000000000000000000000000000000000000000000000000000000000000000000000000000000000000000000000000000000000000000000000000000000000000000000000000000000000000000000000000000000000000000000000000000000000000000000000000000000000
310
00000000000000000000000000000000000000000000000000000000000000000000000000000000000000000000000000000000000000000000000000000000000000000000000000000000000000000000000000000000000000000000000000000000000000000000000000000000000000000000000000000000000000
310
00000000000000000000000000000000000000000000000000000000000000000000000000000000000000000000000000000000000000000000000000000000000000000000000000000000000000000000000000000000000000000000000000000000000000000000000000000000000000000000000000000000000000
310
00000000000000000000000000000000000000000000000000000000000000000000000000000000000000000000000000000000000000000000000000000000000000000000000000000000000000000000000000000000000000000000000000000000000000000000000000000000000000000000000000000000000000
310
00000000000000000000000000000000000000000000000000000000000000000000000000000000000000000000000000000000000000000000000000000000000000000000000000000000000000000000000000000000000000000000000000000000000000000000000000000000000000000000000000000000000000
310
00000000000000000000000000000000000000000000000000000000000000000000000000000000000000000000000000000000000000000000000000000000000000000000000000000000000000000000000000000000000000000000000000000000000000000000000000000000000000000000000000000000000000
310
00000000000000000000000000000000000000000000000000000000000000000000000000000000000000000000000000000000000000000000000000000000000000000000000000000000000000000000000000000000000000000000000000000000000000000000000000000000000000000000000000000000000000
310
00000000000000000000000000000000000000000000000000000000000000000000000000000000000000000000000000000000000000000000000000000000000000000000000000000000000000000000000000000000000000000000000000000000000000000000000000000000000000000000000000000000000000
310
00000000000000000000000000000000000000000000000000000000000000000000000000000000000000000000000000000000000000000000000000000000000000000000000000000000000000000000000000000000000000000000000000000000000000000000000000000000000000000000000000000000000000
310
00000000000000000000000000000000000000000000000000000000000000000000000000000000000000000000000000000000000000000000000000000000000000000000000000000000000000000000000000000000000000000000000000000000000000000000000000000000000000000000000000000000000000
310
00000000000000000000000000000000000000000000000000000000000000000000000000000000000000000000000000000000000000000000000000000000000000000000000000000000000000000000000000000000000000000000000000000000000000000000000000000000000000000000000000000000000000
310
00000000000000000000000000000000000000000000000000000000000000000000000000000000000000000000000000000000000000000000000000000000000000000000000000000000000000000000000000000000000000000000000000000000000000000000000000000000000000000000000000000000000000
310
00000000000000000000000000000000000000000000000000000000000000000000000000000000000000000000000000000000000000000000000000000000000000000000000000000000000000000000000000000000000000000000000000000000000000000000000000000000000000000000000000000000000000
310
00000000000000000000000000000000000000000000000000000000000000000000000000000000000000000000000000000000000000000000000000000000000000000000000000000000000000000000000000000000000000000000000000000000000000000000000000000000000000000000000000000000000000
310
00000000000000000000000000000000000000000000000000000000000000000000000000000000000000000000000000000000000000000000000000000000000000000000000000000000000000000000000000000000000000000000000000000000000000000000000000000000000000000000000000000000000000
310
00000000000000000000000000000000000000000000000000000000000000000000000000000000000000000000000000000000000000000000000000000000000000000000000000000000000000000000000000000000000000000000000000000000000000000000000000000000000000000000000000000000000000
310
00000000000000000000000000000000000000000000000000000000000000000000000000000000000000000000000000000000000000000000000000000000000000000000000000000000000000000000000000000000000000000000000000000000000000000000000000000000000000000000000000000000000000
310
00000000000000000000000000000000000000000000000000000000000000000000000000000000000000000000000000000000000000000000000000000000000000000000000000000000000000000000000000000000000000000000000000000000000000000000000000000000000000000000000000000000000000
310
00000000000000000000000000000000000000000000000000000000000000000000000000000000000000000000000000000000000000000000000000000000000000000000000000000000000000000000000000000000000000000000000000000000000000000000000000000000000000000000000000000000000000
310
00000000000000000000000000000000000000000000000000000000000000000000000000000000000000000000000000000000000000000000000000000000000000000000000000000000000000000000000000000000000000000000000000000000000000000000000000000000000000000000000000000000000000
310
00000000000000000000000000000000000000000000000000000000000000000000000000000000000000000000000000000000000000000000000000000000000000000000000000000000000000000000000000000000000000000000000000000000000000000000000000000000000000000000000000000000000000
310
00000000000000000000000000000000000000000000000000000000000000000000000000000000000000000000000000000000000000000000000000000000000000000000000000000000000000000000000000000000000000000000000000000000000000000000000000000000000000000000000000000000000000
310
00000000000000000000000000000000000000000000000000000000000000000000000000000000000000000000000000000000000000000000000000000000000000000000000000000000000000000000000000000000000000000000000000000000000000000000000000000000000000000000000000000000000000
310
00000000000000000000000000000000000000000000000000000000000000000000000000000000000000000000000000000000000000000000000000000000000000000000000000000000000000000000000000000000000000000000000000000000000000000000000000000000000000000000000000000000000000
310
00000000000000000000000000000000000000000000000000000000000000000000000000000000000000000000000000000000000000000000000000000000000000000000000000000000000000000000000000000000000000000000000000000000000000000000000000000000000000000000000000000000000000
310
00000000000000000000000000000000000000000000000000000000000000000000000000000000000000000000000000000000000000000000000000000000000000000000000000000000000000000000000000000000000000000000000000000000000000000000000000000000000000000000000000000000000000
310
00000000000000000000000000000000000000000000000000000000000000000000000000000000000000000000000000000000000000000000000000000000000000000000000000000000000000000000000000000000000000000000000000000000000000000000000000000000000000000000000000000000000000
310
00000000000000000000000000000000000000000000000000000000000000000000000000000000000000000000000000000000000000000000000000000000000000000000000000000000000000000000000000000000000000000000000000000000000000000000000000000000000000000000000000000000000000
310
00000000000000000000000000000000000000000000000000000000000000000000000000000000000000000000000000000000000000000000000000000000000000000000000000000000000000000000000000000000000000000000000000000000000000000000000000000000000000000000000000000000000000
310
00000000000000000000000000000000000000000000000000000000000000000000000000000000000000000000000000000000000000000000000000000000000000000000000000000000000000000000000000000000000000000000000000000000000000000000000000000000000000000000000000000000000000
310
00000000000000000000000000000000000000000000000000000000000000000000000000000000000000000000000000000000000000000000000000000000000000000000000000000000000000000000000000000000000000000000000000000000000000000000000000000000000000000000000000000000000000
310
00000000000000000000000000000000000000000000000000000000000000000000000000000000000000000000000000000000000000000000000000000000000000000000000000000000000000000000000000000000000000000000000000000000000000000000000000000000000000000000000000000000000000
310
00000000000000000000000000000000000000000000000000000000000000000000000000000000000000000000000000000000000000000000000000000000000000000000000000000000000000000000000000000000000000000000000000000000000000000000000000000000000000000000000000000000000000
310
00000000000000000000000000000000000000000000000000000000000000000000000000000000000000000000000000000000000000000000000000000000000000000000000000000000000000000000000000000000000000000000000000000000000000000000000000000000000000000000000000000000000000
310
00000000000000000000000000000000000000000000000000000000000000000000000000000000000000000000000000000000000000000000000000000000000000000000000000000000000000000000000000000000000000000000000000000000000000000000000000000000000000000000000000000000000000
310
00000000000000000000000000000000000000000000000000000000000000000000000000000000000000000000000000000000000000000000000000000000000000000000000000000000000000000000000000000000000000000000000000000000000000000000000000000000000000000000000000000000000000
310
00000000000000000000000000000000000000000000000000000000000000000000000000000000000000000000000000000000000000000000000000000000000000000000000000000000000000000000000000000000000000000000000000000000000000000000000000000000000000000000000000000000000000
310
00000000000000000000000000000000000000000000000000000000000000000000000000000000000000000000000000000000000000000000000000000000000000000000000000000000000000000000000000000000000000000000000000000000000000000000000000000000000000000000000000000000000000
310
00000000000000000000000000000000000000000000000000000000000000000000000000000000000000000000000000000000000000000000000000000000000000000000000000000000000000000000000000000000000000000000000000000000000000000000000000000000000000000000000000000000000000
310
00000000000000000000000000000000000000000000000000000000000000000000000000000000000000000000000000000000000000000000000000000000000000000000000000000000000000000000000000000000000000000000000000000000000000000000000000000000000000000000000000000000000000
310
00000000000000000000000000000000000000000000000000000000000000000000000000000000000000000000000000000000000000000000000000000000000000000000000000000000000000000000000000000000000000000000000000000000000000000000000000000000000000000000000000000000000000
310
00000000000000000000000000000000000000000000000000000000000000000000000000000000000000000000000000000000000000000000000000000000000000000000000000000000000000000000000000000000000000000000000000000000000000000000000000000000000000000000000000000000000000
310
00000000000000000000000000000000000000000000000000000000000000000000000000000000000000000000000000000000000000000000000000000000000000000000000000000000000000000000000000000000000000000000000000000000000000000000000000000000000000000000000000000000000000
310
00000000000000000000000000000000000000000000000000000000000000000000000000000000000000000000000000000000000000000000000000000000000000000000000000000000000000000000000000000000000000000000000000000000000000000000000000000000000000000000000000000000000000
310
00000000000000000000000000000000000000000000000000000000000000000000000000000000000000000000000000000000000000000000000000000000000000000000000000000000000000000000000000000000000000000000000000000000000000000000000000000000000000000000000000000000000000
310
00000000000000000000000000000000000000000000000000000000000000000000000000000000000000000000000000000000000000000000000000000000000000000000000000000000000000000000000000000000000000000000000000000000000000000000000000000000000000000000000000000000000000
310
00000000000000000000000000000000000000000000000000000000000000000000000000000000000000000000000000000000000000000000000000000000000000000000000000000000000000000000000000000000000000000000000000000000000000000000000000000000000000000000000000000000000000
310
00000000000000000000000000000000000000000000000000000000000000000000000000000000000000000000000000000000000000000000000000000000000000000000000000000000000000000000000000000000000000000000000000000000000000000000000000000000000000000000000000000000000000
310
00000000000000000000000000000000000000000000000000000000000000000000000000000000000000000000000000000000000000000000000000000000000000000000000000000000000000000000000000000000000000000000000000000000000000000000000000000000000000000000000000000000000000
310
00000000000000000000000000000000000000000000000000000000000000000000000000000000000000000000000000000000000000000000000000000000000000000000000000000000000000000000000000000000000000000000000000000000000000000000000000000000000000000000000000000000000000
310
00000000000000000000000000000000000000000000000000000000000000000000000000000000000000000000000000000000000000000000000000000000000000000000000000000000000000000000000000000000000000000000000000000000000000000000000000000000000000000000000000000000000000
310
00000000000000000000000000000000000000000000000000000000000000000000000000000000000000000000000000000000000000000000000000000000000000000000000000000000000000000000000000000000000000000000000000000000000000000000000000000000000000000000000000000000000000
310
00000000000000000000000000000000000000000000000000000000000000000000000000000000000000000000000000000000000000000000000000000000000000000000000000000000000000000000000000000000000000000000000000000000000000000000000000000000000000000000000000000000000000
310
00000000000000000000000000000000000000000000000000000000000000000000000000000000000000000000000000000000000000000000000000000000000000000000000000000000000000000000000000000000000000000000000000000000000000000000000000000000000000000000000000000000000000
310
00000000000000000000000000000000000000000000000000000000000000000000000000000000000000000000000000000000000000000000000000000000000000000000000000000000000000000000000000000000000000000000000000000000000000000000000000000000000000000000000000000000000000
310
00000000000000000000000000000000000000000000000000000000000000000000000000000000000000000000000000000000000000000000000000000000000000000000000000000000000000000000000000000000000000000000000000000000000000000000000000000000000000000000000000000000000000
310
00000000000000000000000000000000000000000000000000000000000000000000000000000000000000000000000000000000000000000000000000000000000000000000000000000000000000000000000000000000000000000000000000000000000000000000000000000000000000000000000000000000000000
310
00000000000000000000000000000000000000000000000000000000000000000000000000000000000000000000000000000000000000000000000000000000000000000000000000000000000000000000000000000000000000000000000000000000000000000000000000000000000000000000000000000000000000
310
00000000000000000000000000000000000000000000000000000000000000000000000000000000000000000000000000000000000000000000000000000000000000000000000000000000000000000000000000000000000000000000000000000000000000000000000000000000000000000000000000000000000000
310
00000000000000000000000000000000000000000000000000000000000000000000000000000000000000000000000000000000000000000000000000000000000000000000000000000000000000000000000000000000000000000000000000000000000000000000000000000000000000000000000000000000000000
310
00000000000000000000000000000000000000000000000000000000000000000000000000000000000000000000000000000000000000000000000000000000000000000000000000000000000000000000000000000000000000000000000000000000000000000000000000000000000000000000000000000000000000
310
00000000000000000000000000000000000000000000000000000000000000000000000000000000000000000000000000000000000000000000000000000000000000000000000000000000000000000000000000000000000000000000000000000000000000000000000000000000000000000000000000000000000000
310
00000000000000000000000000000000000000000000000000000000000000000000000000000000000000000000000000000000000000000000000000000000000000000000000000000000000000000000000000000000000000000000000000000000000000000000000000000000000000000000000000000000000000
310
00000000000000000000000000000000000000000000000000000000000000000000000000000000000000000000000000000000000000000000000000000000000000000000000000000000000000000000000000000000000000000000000000000000000000000000000000000000000000000000000000000000000000
310
00000000000000000000000000000000000000000000000000000000000000000000000000000000000000000000000000000000000000000000000000000000000000000000000000000000000000000000000000000000000000000000000000000000000000000000000000000000000000000000000000000000000000
310
00000000000000000000000000000000000000000000000000000000000000000000000000000000000000000000000000000000000000000000000000000000000000000000000000000000000000000000000000000000000000000000000000000000000000000000000000000000000000000000000000000000000000
310
00000000000000000000000000000000000000000000000000000000000000000000000000000000000000000000000000000000000000000000000000000000000000000000000000000000000000000000000000000000000000000000000000000000000000000000000000000000000000000000000000000000000000
310
00000000000000000000000000000000000000000000000000000000000000000000000000000000000000000000000000000000000000000000000000000000000000000000000000000000000000000000000000000000000000000000000000000000000000000000000000000000000000000000000000000000000000
310
00000000000000000000000000000000000000000000000000000000000000000000000000000000000000000000000000000000000000000000000000000000000000000000000000000000000000000000000000000000000000000000000000000000000000000000000000000000000000000000000000000000000000
310
00000000000000000000000000000000000000000000000000000000000000000000000000000000000000000000000000000000000000000000000000000000000000000000000000000000000000000000000000000000000000000000000000000000000000000000000000000000000000000000000000000000000000
310
00000000000000000000000000000000000000000000000000000000000000000000000000000000000000000000000000000000000000000000000000000000000000000000000000000000000000000000000000000000000000000000000000000000000000000000000000000000000000000000000000000000000000
310
00000000000000000000000000000000000000000000000000000000000000000000000000000000000000000000000000000000000000000000000000000000000000000000000000000000000000000000000000000000000000000000000000000000000000000000000000000000000000000000000000000000000000
310
00000000000000000000000000000000000000000000000000000000000000000000000000000000000000000000000000000000000000000000000000000000000000000000000000000000000000000000000000000000000000000000000000000000000000000000000000000000000000000000000000000000000000
310
00000000000000000000000000000000000000000000000000000000000000000000000000000000000000000000000000000000000000000000000000000000000000000000000000000000000000000000000000000000000000000000000000000000000000000000000000000000000000000000000000000000000000
310
00000000000000000000000000000000000000000000000000000000000000000000000000000000000000000000000000000000000000000000000000000000000000000000000000000000000000000000000000000000000000000000000000000000000000000000000000000000000000000000000000000000000000
310
00000000000000000000000000000000000000000000000000000000000000000000000000000000000000000000000000000000000000000000000000000000000000000000000000000000000000000000000000000000000000000000000000000000000000000000000000000000000000000000000000000000000000
310
00000000000000000000000000000000000000000000000000000000000000000000000000000000000000000000000000000000000000000000000000000000000000000000000000000000000000000000000000000000000000000000000000000000000000000000000000000000000000000000000000000000000000
310
00000000000000000000000000000000000000000000000000000000000000000000000000000000000000000000000000000000000000000000000000000000000000000000000000000000000000000000000000000000000000000000000000000000000000000000000000000000000000000000000000000000000000
310
00000000000000000000000000000000000000000000000000000000000000000000000000000000000000000000000000000000000000000000000000000000000000000000000000000000000000000000000000000000000000000000000000000000000000000000000000000000000000000000000000000000000000
310
00000000000000000000000000000000000000000000000000000000000000000000000000000000000000000000000000000000000000000000000000000000000000000000000000000000000000000000000000000000000000000000000000000000000000000000000000000000000000000000000000000000000000
310
00000000000000000000000000000000000000000000000000000000000000000000000000000000000000000000000000000000000000000000000000000000000000000000000000000000000000000000000000000000000000000000000000000000000000000000000000000000000000000000000000000000000000
310
00000000000000000000000000000000000000000000000000000000000000000000000000000000000000000000000000000000000000000000000000000000000000000000000000000000000000000000000000000000000000000000000000000000000000000000000000000000000000000000000000000000000000
310
00000000000000000000000000000000000000000000000000000000000000000000000000000000000000000000000000000000000000000000000000000000000000000000000000000000000000000000000000000000000000000000000000000000000000000000000000000000000000000000000000000000000000
310
00000000000000000000000000000000000000000000000000000000000000000000000000000000000000000000000000000000000000000000000000000000000000000000000000000000000000000000000000000000000000000000000000000000000000000000000000000000000000000000000000000000000000
310
00000000000000000000000000000000000000000000000000000000000000000000000000000000000000000000000000000000000000000000000000000000000000000000000000000000000000000000000000000000000000000000000000000000000000000000000000000000000000000000000000000000000000
310
00000000000000000000000000000000000000000000000000000000000000000000000000000000000000000000000000000000000000000000000000000000000000000000000000000000000000000000000000000000000000000000000000000000000000000000000000000000000000000000000000000000000000
310
00000000000000000000000000000000000000000000000000000000000000000000000000000000000000000000000000000000000000000000000000000000000000000000000000000000000000000000000000000000000000000000000000000000000000000000000000000000000000000000000000000000000000
310
00000000000000000000000000000000000000000000000000000000000000000000000000000000000000000000000000000000000000000000000000000000000000000000000000000000000000000000000000000000000000000000000000000000000000000000000000000000000000000000000000000000000000
310
00000000000000000000000000000000000000000000000000000000000000000000000000000000000000000000000000000000000000000000000000000000000000000000000000000000000000000000000000000000000000000000000000000000000000000000000000000000000000000000000000000000000000
310
00000000000000000000000000000000000000000000000000000000000000000000000000000000000000000000000000000000000000000000000000000000000000000000000000000000000000000000000000000000000000000000000000000000000000000000000000000000000000000000000000000000000000
310
00000000000000000000000000000000000000000000000000000000000000000000000000000000000000000000000000000000000000000000000000000000000000000000000000000000000000000000000000000000000000000000000000000000000000000000000000000000000000000000000000000000000000
310
00000000000000000000000000000000000000000000000000000000000000000000000000000000000000000000000000000000000000000000000000000000000000000000000000000000000000000000000000000000000000000000000000000000000000000000000000000000000000000000000000000000000000
310
00000000000000000000000000000000000000000000000000000000000000000000000000000000000000000000000000000000000000000000000000000000000000000000000000000000000000000000000000000000000000000000000000000000000000000000000000000000000000000000000000000000000000
310
00000000000000000000000000000000000000000000000000000000000000000000000000000000000000000000000000000000000000000000000000000000000000000000000000000000000000000000000000000000000000000000000000000000000000000000000000000000000000000000000000000000000000
310
00000000000000000000000000000000000000000000000000000000000000000000000000000000000000000000000000000000000000000000000000000000000000000000000000000000000000000000000000000000000000000000000000000000000000000000000000000000000000000000000000000000000000
310
00000000000000000000000000000000000000000000000000000000000000000000000000000000000000000000000000000000000000000000000000000000000000000000000000000000000000000000000000000000000000000000000000000000000000000000000000000000000000000000000000000000000000
310
00000000000000000000000000000000000000000000000000000000000000000000000000000000000000000000000000000000000000000000000000000000000000000000000000000000000000000000000000000000000000000000000000000000000000000000000000000000000000000000000000000000000000
310
00000000000000000000000000000000000000000000000000000000000000000000000000000000000000000000000000000000000000000000000000000000000000000000000000000000000000000000000000000000000000000000000000000000000000000000000000000000000000000000000000000000000000
310
00000000000000000000000000000000000000000000000000000000000000000000000000000000000000000000000000000000000000000000000000000000000000000000000000000000000000000000000000000000000000000000000000000000000000000000000000000000000000000000000000000000000000
310
00000000000000000000000000000000000000000000000000000000000000000000000000000000000000000000000000000000000000000000000000000000000000000000000000000000000000000000000000000000000000000000000000000000000000000000000000000000000000000000000000000000000000
310
00000000000000000000000000000000000000000000000000000000000000000000000000000000000000000000000000000000000000000000000000000000000000000000000000000000000000000000000000000000000000000000000000000000000000000000000000000000000000000000000000000000000000
310
00000000000000000000000000000000000000000000000000000000000000000000000000000000000000000000000000000000000000000000000000000000000000000000000000000000000000000000000000000000000000000000000000000000000000000000000000000000000000000000000000000000000000
310
00000000000000000000000000000000000000000000000000000000000000000000000000000000000000000000000000000000000000000000000000000000000000000000000000000000000000000000000000000000000000000000000000000000000000000000000000000000000000000000000000000000000000
310
00000000000000000000000000000000000000000000000000000000000000000000000000000000000000000000000000000000000000000000000000000000000000000000000000000000000000000000000000000000000000000000000000000000000000000000000000000000000000000000000000000000000000
310
00000000000000000000000000000000000000000000000000000000000000000000000000000000000000000000000000000000000000000000000000000000000000000000000000000000000000000000000000000000000000000000000000000000000000000000000000000000000000000000000000000000000000
310
00000000000000000000000000000000000000000000000000000000000000000000000000000000000000000000000000000000000000000000000000000000000000000000000000000000000000000000000000000000000000000000000000000000000000000000000000000000000000000000000000000000000000
310
00000000000000000000000000000000000000000000000000000000000000000000000000000000000000000000000000000000000000000000000000000000000000000000000000000000000000000000000000000000000000000000000000000000000000000000000000000000000000000000000000000000000000
310
00000000000000000000000000000000000000000000000000000000000000000000000000000000000000000000000000000000000000000000000000000000000000000000000000000000000000000000000000000000000000000000000000000000000000000000000000000000000000000000000000000000000000
310
00000000000000000000000000000000000000000000000000000000000000000000000000000000000000000000000000000000000000000000000000000000000000000000000000000000000000000000000000000000000000000000000000000000000000000000000000000000000000000000000000000000000000
310
00000000000000000000000000000000000000000000000000000000000000000000000000000000000000000000000000000000000000000000000000000000000000000000000000000000000000000000000000000000000000000000000000000000000000000000000000000000000000000000000000000000000000
310
00000000000000000000000000000000000000000000000000000000000000000000000000000000000000000000000000000000000000000000000000000000000000000000000000000000000000000000000000000000000000000000000000000000000000000000000000000000000000000000000000000000000000
310
00000000000000000000000000000000000000000000000000000000000000000000000000000000000000000000000000000000000000000000000000000000000000000000000000000000000000000000000000000000000000000000000000000000000000000000000000000000000000000000000000000000000000
310
00000000000000000000000000000000000000000000000000000000000000000000000000000000000000000000000000000000000000000000000000000000000000000000000000000000000000000000000000000000000000000000000000000000000000000000000000000000000000000000000000000000000000
310
00000000000000000000000000000000000000000000000000000000000000000000000000000000000000000000000000000000000000000000000000000000000000000000000000000000000000000000000000000000000000000000000000000000000000000000000000000000000000000000000000000000000000
310
00000000000000000000000000000000000000000000000000000000000000000000000000000000000000000000000000000000000000000000000000000000000000000000000000000000000000000000000000000000000000000000000000000000000000000000000000000000000000000000000000000000000000
310
00000000000000000000000000000000000000000000000000000000000000000000000000000000000000000000000000000000000000000000000000000000000000000000000000000000000000000000000000000000000000000000000000000000000000000000000000000000000000000000000000000000000000
310
00000000000000000000000000000000000000000000000000000000000000000000000000000000000000000000000000000000000000000000000000000000000000000000000000000000000000000000000000000000000000000000000000000000000000000000000000000000000000000000000000000000000000
310
00000000000000000000000000000000000000000000000000000000000000000000000000000000000000000000000000000000000000000000000000000000000000000000000000000000000000000000000000000000000000000000000000000000000000000000000000000000000000000000000000000000000000
310
00000000000000000000000000000000000000000000000000000000000000000000000000000000000000000000000000000000000000000000000000000000000000000000000000000000000000000000000000000000000000000000000000000000000000000000000000000000000000000000000000000000000000
310
00000000000000000000000000000000000000000000000000000000000000000000000000000000000000000000000000000000000000000000000000000000000000000000000000000000000000000000000000000000000000000000000000000000000000000000000000000000000000000000000000000000000000
310
00000000000000000000000000000000000000000000000000000000000000000000000000000000000000000000000000000000000000000000000000000000000000000000000000000000000000000000000000000000000000000000000000000000000000000000000000000000000000000000000000000000000000
310
00000000000000000000000000000000000000000000000000000000000000000000000000000000000000000000000000000000000000000000000000000000000000000000000000000000000000000000000000000000000000000000000000000000000000000000000000000000000000000000000000000000000000
310
00000000000000000000000000000000000000000000000000000000000000000000000000000000000000000000000000000000000000000000000000000000000000000000000000000000000000000000000000000000000000000000000000000000000000000000000000000000000000000000000000000000000000
310
00000000000000000000000000000000000000000000000000000000000000000000000000000000000000000000000000000000000000000000000000000000000000000000000000000000000000000000000000000000000000000000000000000000000000000000000000000000000000000000000000000000000000
310
00000000000000000000000000000000000000000000000000000000000000000000000000000000000000000000000000000000000000000000000000000000000000000000000000000000000000000000000000000000000000000000000000000000000000000000000000000000000000000000000000000000000000
310
00000000000000000000000000000000000000000000000000000000000000000000000000000000000000000000000000000000000000000000000000000000000000000000000000000000000000000000000000000000000000000000000000000000000000000000000000000000000000000000000000000000000000
310
00000000000000000000000000000000000000000000000000000000000000000000000000000000000000000000000000000000000000000000000000000000000000000000000000000000000000000000000000000000000000000000000000000000000000000000000000000000000000000000000000000000000000
310
00000000000000000000000000000000000000000000000000000000000000000000000000000000000000000000000000000000000000000000000000000000000000000000000000000000000000000000000000000000000000000000000000000000000000000000000000000000000000000000000000000000000000
310
00000000000000000000000000000000000000000000000000000000000000000000000000000000000000000000000000000000000000000000000000000000000000000000000000000000000000000000000000000000000000000000000000000000000000000000000000000000000000000000000000000000000000
310
00000000000000000000000000000000000000000000000000000000000000000000000000000000000000000000000000000000000000000000000000000000000000000000000000000000000000000000000000000000000000000000000000000000000000000000000000000000000000000000000000000000000000
310
00000000000000000000000000000000000000000000000000000000000000000000000000000000000000000000000000000000000000000000000000000000000000000000000000000000000000000000000000000000000000000000000000000000000000000000000000000000000000000000000000000000000000
310
00000000000000000000000000000000000000000000000000000000000000000000000000000000000000000000000000000000000000000000000000000000000000000000000000000000000000000000000000000000000000000000000000000000000000000000000000000000000000000000000000000000000000
310
00000000000000000000000000000000000000000000000000000000000000000000000000000000000000000000000000000000000000000000000000000000000000000000000000000000000000000000000000000000000000000000000000000000000000000000000000000000000000000000000000000000000000
310
00000000000000000000000000000000000000000000000000000000000000000000000000000000000000000000000000000000000000000000000000000000000000000000000000000000000000000000000000000000000000000000000000000000000000000000000000000000000000000000000000000000000000
310
00000000000000000000000000000000000000000000000000000000000000000000000000000000000000000000000000000000000000000000000000000000000000000000000000000000000000000000000000000000000000000000000000000000000000000000000000000000000000000000000000000000000000
310
00000000000000000000000000000000000000000000000000000000000000000000000000000000000000000000000000000000000000000000000000000000000000000000000000000000000000000000000000000000000000000000000000000000000000000000000000000000000000000000000000000000000000
310
00000000000000000000000000000000000000000000000000000000000000000000000000000000000000000000000000000000000000000000000000000000000000000000000000000000000000000000000000000000000000000000000000000000000000000000000000000000000000000000000000000000000000
310
00000000000000000000000000000000000000000000000000000000000000000000000000000000000000000000000000000000000000000000000000000000000000000000000000000000000000000000000000000000000000000000000000000000000000000000000000000000000000000000000000000000000000
310
00000000000000000000000000000000000000000000000000000000000000000000000000000000000000000000000000000000000000000000000000000000000000000000000000000000000000000000000000000000000000000000000000000000000000000000000000000000000000000000000000000000000000
310
00000000000000000000000000000000000000000000000000000000000000000000000000000000000000000000000000000000000000000000000000000000000000000000000000000000000000000000000000000000000000000000000000000000000000000000000000000000000000000000000000000000000000
310
00000000000000000000000000000000000000000000000000000000000000000000000000000000000000000000000000000000000000000000000000000000000000000000000000000000000000000000000000000000000000000000000000000000000000000000000000000000000000000000000000000000000000
310
00000000000000000000000000000000000000000000000000000000000000000000000000000000000000000000000000000000000000000000000000000000000000000000000000000000000000000000000000000000000000000000000000000000000000000000000000000000000000000000000000000000000000
310
00000000000000000000000000000000000000000000000000000000000000000000000000000000000000000000000000000000000000000000000000000000000000000000000000000000000000000000000000000000000000000000000000000000000000000000000000000000000000000000000000000000000000
310
00000000000000000000000000000000000000000000000000000000000000000000000000000000000000000000000000000000000000000000000000000000000000000000000000000000000000000000000000000000000000000000000000000000000000000000000000000000000000000000000000000000000000
310
00000000000000000000000000000000000000000000000000000000000000000000000000000000000000000000000000000000000000000000000000000000000000000000000000000000000000000000000000000000000000000000000000000000000000000000000000000000000000000000000000000000000000
310
00000000000000000000000000000000000000000000000000000000000000000000000000000000000000000000000000000000000000000000000000000000000000000000000000000000000000000000000000000000000000000000000000000000000000000000000000000000000000000000000000000000000000
310
00000000000000000000000000000000000000000000000000000000000000000000000000000000000000000000000000000000000000000000000000000000000000000000000000000000000000000000000000000000000000000000000000000000000000000000000000000000000000000000000000000000000000
310
00000000000000000000000000000000000000000000000000000000000000000000000000000000000000000000000000000000000000000000000000000000000000000000000000000000000000000000000000000000000000000000000000000000000000000000000000000000000000000000000000000000000000
310
00000000000000000000000000000000000000000000000000000000000000000000000000000000000000000000000000000000000000000000000000000000000000000000000000000000000000000000000000000000000000000000000000000000000000000000000000000000000000000000000000000000000000
310
00000000000000000000000000000000000000000000000000000000000000000000000000000000000000000000000000000000000000000000000000000000000000000000000000000000000000000000000000000000000000000000000000000000000000000000000000000000000000000000000000000000000000
310
00000000000000000000000000000000000000000000000000000000000000000000000000000000000000000000000000000000000000000000000000000000000000000000000000000000000000000000000000000000000000000000000000000000000000000000000000000000000000000000000000000000000000
310
00000000000000000000000000000000000000000000000000000000000000000000000000000000000000000000000000000000000000000000000000000000000000000000000000000000000000000000000000000000000000000000000000000000000000000000000000000000000000000000000000000000000000
310
00000000000000000000000000000000000000000000000000000000000000000000000000000000000000000000000000000000000000000000000000000000000000000000000000000000000000000000000000000000000000000000000000000000000000000000000000000000000000000000000000000000000000
310
00000000000000000000000000000000000000000000000000000000000000000000000000000000000000000000000000000000000000000000000000000000000000000000000000000000000000000000000000000000000000000000000000000000000000000000000000000000000000000000000000000000000000
310
00000000000000000000000000000000000000000000000000000000000000000000000000000000000000000000000000000000000000000000000000000000000000000000000000000000000000000000000000000000000000000000000000000000000000000000000000000000000000000000000000000000000000
310
00000000000000000000000000000000000000000000000000000000000000000000000000000000000000000000000000000000000000000000000000000000000000000000000000000000000000000000000000000000000000000000000000000000000000000000000000000000000000000000000000000000000000
310
00000000000000000000000000000000000000000000000000000000000000000000000000000000000000000000000000000000000000000000000000000000000000000000000000000000000000000000000000000000000000000000000000000000000000000000000000000000000000000000000000000000000000
310
00000000000000000000000000000000000000000000000000000000000000000000000000000000000000000000000000000000000000000000000000000000000000000000000000000000000000000000000000000000000000000000000000000000000000000000000000000000000000000000000000000000000000
310
00000000000000000000000000000000000000000000000000000000000000000000000000000000000000000000000000000000000000000000000000000000000000000000000000000000000000000000000000000000000000000000000000000000000000000000000000000000000000000000000000000000000000
310
00000000000000000000000000000000000000000000000000000000000000000000000000000000000000000000000000000000000000000000000000000000000000000000000000000000000000000000000000000000000000000000000000000000000000000000000000000000000000000000000000000000000000
310
00000000000000000000000000000000000000000000000000000000000000000000000000000000000000000000000000000000000000000000000000000000000000000000000000000000000000000000000000000000000000000000000000000000000000000000000000000000000000000000000000000000000000
310
00000000000000000000000000000000000000000000000000000000000000000000000000000000000000000000000000000000000000000000000000000000000000000000000000000000000000000000000000000000000000000000000000000000000000000000000000000000000000000000000000000000000000
310
00000000000000000000000000000000000000000000000000000000000000000000000000000000000000000000000000000000000000000000000000000000000000000000000000000000000000000000000000000000000000000000000000000000000000000000000000000000000000000000000000000000000000
310
00000000000000000000000000000000000000000000000000000000000000000000000000000000000000000000000000000000000000000000000000000000000000000000000000000000000000000000000000000000000000000000000000000000000000000000000000000000000000000000000000000000000000
310
00000000000000000000000000000000000000000000000000000000000000000000000000000000000000000000000000000000000000000000000000000000000000000000000000000000000000000000000000000000000000000000000000000000000000000000000000000000000000000000000000000000000000
310
00000000000000000000000000000000000000000000000000000000000000000000000000000000000000000000000000000000000000000000000000000000000000000000000000000000000000000000000000000000000000000000000000000000000000000000000000000000000000000000000000000000000000
310
00000000000000000000000000000000000000000000000000000000000000000000000000000000000000000000000000000000000000000000000000000000000000000000000000000000000000000000000000000000000000000000000000000000000000000000000000000000000000000000000000000000000000
310
00000000000000000000000000000000000000000000000000000000000000000000000000000000000000000000000000000000000000000000000000000000000000000000000000000000000000000000000000000000000000000000000000000000000000000000000000000000000000000000000000000000000000
310
00000000000000000000000000000000000000000000000000000000000000000000000000000000000000000000000000000000000000000000000000000000000000000000000000000000000000000000000000000000000000000000000000000000000000000000000000000000000000000000000000000000000000
310
00000000000000000000000000000000000000000000000000000000000000000000000000000000000000000000000000000000000000000000000000000000000000000000000000000000000000000000000000000000000000000000000000000000000000000000000000000000000000000000000000000000000000
310
00000000000000000000000000000000000000000000000000000000000000000000000000000000000000000000000000000000000000000000000000000000000000000000000000000000000000000000000000000000000000000000000000000000000000000000000000000000000000000000000000000000000000
310
00000000000000000000000000000000000000000000000000000000000000000000000000000000000000000000000000000000000000000000000000000000000000000000000000000000000000000000000000000000000000000000000000000000000000000000000000000000000000000000000000000000000000
310
00000000000000000000000000000000000000000000000000000000000000000000000000000000000000000000000000000000000000000000000000000000000000000000000000000000000000000000000000000000000000000000000000000000000000000000000000000000000000000000000000000000000000
310
00000000000000000000000000000000000000000000000000000000000000000000000000000000000000000000000000000000000000000000000000000000000000000000000000000000000000000000000000000000000000000000000000000000000000000000000000000000000000000000000000000000000000
310
00000000000000000000000000000000000000000000000000000000000000000000000000000000000000000000000000000000000000000000000000000000000000000000000000000000000000000000000000000000000000000000000000000000000000000000000000000000000000000000000000000000000000
310
00000000000000000000000000000000000000000000000000000000000000000000000000000000000000000000000000000000000000000000000000000000000000000000000000000000000000000000000000000000000000000000000000000000000000000000000000000000000000000000000000000000000000
310
00000000000000000000000000000000000000000000000000000000000000000000000000000000000000000000000000000000000000000000000000000000000000000000000000000000000000000000000000000000000000000000000000000000000000000000000000000000000000000000000000000000000000
310
00000000000000000000000000000000000000000000000000000000000000000000000000000000000000000000000000000000000000000000000000000000000000000000000000000000000000000000000000000000000000000000000000000000000000000000000000000000000000000000000000000000000000
310
00000000000000000000000000000000000000000000000000000000000000000000000000000000000000000000000000000000000000000000000000000000000000000000000000000000000000000000000000000000000000000000000000000000000000000000000000000000000000000000000000000000000000
310
00000000000000000000000000000000000000000000000000000000000000000000000000000000000000000000000000000000000000000000000000000000000000000000000000000000000000000000000000000000000000000000000000000000000000000000000000000000000000000000000000000000000000
310
00000000000000000000000000000000000000000000000000000000000000000000000000000000000000000000000000000000000000000000000000000000000000000000000000000000000000000000000000000000000000000000000000000000000000000000000000000000000000000000000000000000000000
310
00000000000000000000000000000000000000000000000000000000000000000000000000000000000000000000000000000000000000000000000000000000000000000000000000000000000000000000000000000000000000000000000000000000000000000000000000000000000000000000000000000000000000
310
00000000000000000000000000000000000000000000000000000000000000000000000000000000000000000000000000000000000000000000000000000000000000000000000000000000000000000000000000000000000000000000000000000000000000000000000000000000000000000000000000000000000000
310
00000000000000000000000000000000000000000000000000000000000000000000000000000000000000000000000000000000000000000000000000000000000000000000000000000000000000000000000000000000000000000000000000000000000000000000000000000000000000000000000000000000000000
310
00000000000000000000000000000000000000000000000000000000000000000000000000000000000000000000000000000000000000000000000000000000000000000000000000000000000000000000000000000000000000000000000000000000000000000000000000000000000000000000000000000000000000
310
00000000000000000000000000000000000000000000000000000000000000000000000000000000000000000000000000000000000000000000000000000000000000000000000000000000000000000000000000000000000000000000000000000000000000000000000000000000000000000000000000000000000000
310
00000000000000000000000000000000000000000000000000000000000000000000000000000000000000000000000000000000000000000000000000000000000000000000000000000000000000000000000000000000000000000000000000000000000000000000000000000000000000000000000000000000000000
310
00000000000000000000000000000000000000000000000000000000000000000000000000000000000000000000000000000000000000000000000000000000000000000000000000000000000000000000000000000000000000000000000000000000000000000000000000000000000000000000000000000000000000
310
00000000000000000000000000000000000000000000000000000000000000000000000000000000000000000000000000
  0
XRECORD
  5
369B7
102
{ACAD_REACTORS
330
3694E
102
}
330
3694E
100
AcDbXrecord
280
     1
102
SHADEPLOT
 70
     0
102
SHADEPLOTRESLEVEL
 70
     2
102
SHADEPLOTCUSTOMDPI
 70
   300
  0
XRECORD
  5
3694F
102
{ACAD_REACTORS
330
3694E
102
}
330
3694E
100
AcDbXrecord
280
     1
310
280000000001000063000000010008000000000000630000000000000000000000010000000000000000000000000000FFFFFF000000000000000000000000000000000000000000000000000000000000000000330000006600000099000000CC000000FF00000000330000333300006633000099330000CC330000FF3300
310
0000660000336600006666000099660000CC660000FF66000000990000339900006699000099990000CC990000FF99000000CC000033CC000066CC000099CC0000CCCC0000FFCC000000FF000033FF000066FF000099FF0000CCFF0000FFFF000000003300330033006600330099003300CC003300FF003300003333003333
310
33006633330099333300CC333300FF33330000663300336633006666330099663300CC663300FF66330000993300339933006699330099993300CC993300FF99330000CC330033CC330066CC330099CC3300CCCC3300FFCC330000FF330033FF330066FF330099FF3300CCFF3300FFFF330000006600330066006600660099
310
006600CC006600FF00660000336600333366006633660099336600CC336600FF33660000666600336666006666660099666600CC666600FF66660000996600339966006699660099996600CC996600FF99660000CC660033CC660066CC660099CC6600CCCC6600FFCC660000FF660033FF660066FF660099FF6600CCFF6600
310
FFFF660000009900330099006600990099009900CC009900FF00990000339900333399006633990099339900CC339900FF33990000669900336699006666990099669900CC669900FF66990000999900339999006699990099999900CC999900FF99990000CC990033CC990066CC990099CC9900CCCC9900FFCC990000FF99
310
0033FF990066FF990099FF9900CCFF9900FFFF99000000CC003300CC006600CC009900CC00CC00CC00FF00CC000033CC003333CC006633CC009933CC00CC33CC00FF33CC000066CC003366CC006666CC009966CC00CC66CC00FF66CC000099CC003399CC006699CC009999CC00CC99CC00FF99CC0000CCCC0033CCCC0066CC
310
CC0099CCCC00CCCCCC00FFCCCC0000FFCC0033FFCC0066FFCC0099FFCC00CCFFCC00FFFFCC000000FF003300FF006600FF009900FF00CC00FF00FF00FF000033FF003333FF006633FF009933FF00CC33FF00FF33FF000066FF003366FF006666FF009966FF00CC66FF00FF66FF000099FF003399FF006699FF009999FF00CC
310
99FF00FF99FF0000CCFF0033CCFF0066CCFF0099CCFF00CCCCFF00FFCCFF0000FFFF0033FFFF0066FFFF0099FFFF00CCFFFF00FFFFFF00000000000D0D0D001A1A1A00282828003535350043434300505050005D5D5D006B6B6B00787878008686860093939300A1A1A100AEAEAE00BBBBBB00C9C9C900D6D6D600E4E4E400
310
F1F1F100FFFFFF000000000000000000000000000000000000000000000000000000000000000000000000000000000000000000000000000000000000000000000000000000000000000000000000000000000000000000000000000000000000000000000000000000000000000000000000000000000000000000000000
310
00000000000000000000000000000000000000000000000000000000000000000000000000000000000000000000000000000000000000000000000000000000000000000000000000000000000000000000000000000000000000000000000000000000000000000000000000000000000000000000000000000000000000
310
00000000000000000000000000000000000000000000000000000000000000000000000000000000000000000000000000000000000000000000000000000000000000000000000000000000000000000000000000000000000000000000000000000000000000000000000000000000000000000000000000000000000000
310
00000000000000000000000000000000000000000000000000000000000000000000000000000000000000000000000000000000000000000000000000000000000000000000000000000000000000000000000000000000000000000000000000000000000000000000000000000000000000000000000000000000000000
310
00000000000000000000000000000000000000000000000000000000000000000000000000000000000000000000000000000000000000000000000000000000000000000000000000000000000000000000000000000000000000000000000000000000000000000000000000000000000000000000000000000000000000
310
00000000000000000000000000000000000000000000000000000000000000000000000000000000000000000000000000000000000000000000000000000000000000000000000000000000000000000000000000000000000000000000000000000000000000000000000000000000000000000000000000000000000000
310
00000000000000000000000000000000000000000000000000000000000000000000000000000000000000000000000000000000000000000000000000000000000000000000000000000000000000000000000000000000000000000000000000000000000000000000000000000000000000000000000000000000000000
310
00000000000000000000000000000000000000000000000000000000000000000000000000000000000000000000000000000000000000000000000000000000000000000000000000000000000000000000000000000000000000000000000000000000000000000000000000000000000000000000000000000000000000
310
00000000000000000000000000000000000000000000000000000000000000000000000000000000000000000000000000000000000000000000000000000000000000000000000000000000000000000000000000000000000000000000000000000000000000000000000000000000000000000000000000000000000000
310
00000000000000000000000000000000000000000000000000000000000000000000000000000000000000000000000000000000000000000000000000000000000000000000000000000000000000000000000000000000000000000000000000000000000000000000000000000000000000000000000000000000000000
310
00000000000000000000000000000000000000000000000000000000000000000000000000000000000000000000000000000000000000000000000000000000000000000000000000000000000000000000000000000000000000000000000000000000000000000000000000000000000000000000000000000000000000
310
000000000000000000000000000000002800000000000000BEBEBEBEBEBEBEBEBEBEBEBEBEBEBEBEBE0000000000000000000000000000000000000000000000000000000000000000000000000000000000000000000000000000000000000000000000000000000000000000000000000000000000000000000000000000
310
00000000000000000000000000000000000000000000000000000000000000000000000000000000000000000000000000000000000000000000000000000000000000000000000000000000000000000000000000000000000000000000000000000000000000000000000000000000000000000000000000000000000000
310
0000000000000000000000000000000028280000000000000000BEBEBEBEBEBEBEBEBEBEBEBEBEBEBEBEBE000000000000000000000000000000000000000000000000000000000000000000000000000000000000000000000000000000000000000000000000000000000000000000000000000000000000000000000000
310
00000000000000000000000000000000000000000000000000000000000000000000000000000000000000000000000000000000000000000000000000000000000000000000000000000000000000000000000000000000000000000000000000000000000000000000000000000000000000000000000000000000000000
310
002800000000000000000000000000002828DCDCDC00000000BEBEBEBEBEBEBEBEBEBEBEBEBEBEBEBEBEBEBEBE00000000000000000000000000000000000000000000000000000000000000000000000000000000000000000000000000000000000000000000000000000000000000000000000000000000000000000000
310
00000000000000000000000000000000000000000000000000000000000000000000000000000000000000000000000000000000000000000000000000000000000000000000000000000000000000000000000000000000000000000000000000000000000000000000000000000000000000000000000000000000000000
310
0000000028DC000000000000000000000028000000DC00000000BE00000000000000000000000000000000000000000000000000000000000000000000000000000000000000000000000000000000000000000000000000000000000000000000000000000000000000000000000000000000000000000000000000000000
310
00000000000000000000000000000000000000000000000000000000000000000000000000000000000000000000000000000000000000000000000000000000000000000000000000000000000000000000000000000000000000000000000000000000000000000000000000000000000000000000000000000000000000
310
0000000000DCDC0028280000000000000028280000000000DCDC0000BE0000000000000000000000000000000000000000000000000000000000000000000000000000000000000000000000000000000000000000000000000000000000000000000000000000000000000000000000000000000000000000000000000000
310
00000000000000000000000000000000000000000000000000000000000000000000000000000000000000000000000000000000000000000000000000000000000000000000000000000000000000000000000000000000000000000000000000000000000000000000000000000000000000000000000000000000000000
310
0000000000DCDC000000000028280000002828000000000000000000DCDC00000000000000000000000000000000000000000000000000000000000000000000000000000000000000000000000000000000000000000000000000000000000000000000000000000000000000000000000000000000000000000000000000
310
00000000000000000000000000000000000000000000000000000000000000000000000000000000000000000000000000000000000000000000000000000000000000000000000000000000000000000000000000000000000000000000000000000000000000000000000000000000000000000000000000000000000000
310
0000000000DCDC00000000000000000028BE280000000000000000000000BE00DCDC000000000000000000000000000000000000000000000000000000000000000000000000000000000000000000000000000000000000000000000000000000000000000000000000000000000000000000000000000000000000000000
310
00000000000000000000000000000000000000000000000000000000000000000000000000000000000000000000000000000000000000000000000000000000000000000000000000000000000000000000000000000000000000000000000000000000000000000000000000000000000000000000000000000000000000
310
000000000000DC00000000000000000000BEBEBEBEBE00000000000000000000BE000000DCDC0000000000000000000000000000000000000000000000000000000000000000000000000000000000000000000000000000000000000000000000000000000000000000000000000000000000000000000000000000000000
310
00000000000000000000000000000000000000000000000000000000000000000000000000000000000000000000000000000000000000000000000000000000000000000000000000000000000000000000000000000000000000000000000000000000000000000000000000000000000000000000000000000000000000
310
000000000000DCDC000000000000000000BEBE0000BEBEBEBEBE00000000000000BE0000000000BEBEBEBEBEBEBEBEBE00000000000000000000000000000000000000000000000000000000000000000000000000000000000000000000000000000000000000000000000000000000000000000000000000000000000000
310
00000000000000000000000000000000000000000000000000000000000000000000000000000000000000000000000000000000000000000000000000000000000000000000000000000000000000000000000000000000000000000000000000000000000000000000000000000000000000000000000000000000000000
310
000000000000DCDC000000000000000000BEBE00000000BE0000BEBEBEBE00000000BE000000000000BEBEBEBEBEBEBEBEBE0000000000000000000000000000000000000000000000000000000000000000000000000000000000000000000000000000000000000000000000000000000000000000000000000000000000
310
00000000000000000000000000000000000000000000000000000000000000000000000000000000000000000000000000000000000000000000000000000000000000000000000000000000000000000000000000000000000000000000000000000000000000000000000000000000000000000000000000000000000000
310
00000000000000DC00000000000000000000BE00000000BEBEBEBEBE0000BEBEBE000000BE000000000000BEBEBEBEBEBEBEBEBE000000000000000000000000000000000000000000000000000000000000000000000000000000000000000000000000000000000000000000000000000000000000000000000000000000
310
00000000000000000000000000000000000000000000000000000000000000000000000000000000000000000000000000000000000000000000000000000000000000000000000000000000000000000000000000000000000000000000000000000000000000000000000000000000000000000000000000000000000000
310
00000000000000DCDC000000000000000000BEBE000000BEBE00BEBEBEBEBEBE0000BEBEBEBE0000000000000000000000000000000000000000000000000000000000000000000000000000000000000000000000000000000000000000000000000000000000000000000000000000000000000000000000000000000000
310
00000000000000000000000000000000000000000000000000000000000000000000000000000000000000000000000000000000000000000000000000000000000000000000000000000000000000000000000000000000000000000000000000000000000000000000000000000000000000000000000000000000000000
310
00000000000000DCDC000000000000000000BEBE000000BEBE00BEBEBE00BEBEBEBEBEBE0000BEBEBE000000000000000000000000000000DC00000000000000000000000000000000000000000000000000000000000000000000000000000000000000000000000000000000000000000000000000000000000000000000
310
00000000000000000000000000000000000000000000000000000000000000000000000000000000000000000000000000000000000000000000000000000000000000000000000000000000000000000000000000000000000000000000000000000000000000000000000000000000000000000000000000000000000000
310
00000000000000DCDC000000000000000000BEBE00000000BE00BEBE000000BEBE00BEBEBEBEBE00BE00BEBEBE0000000000000000000000000000DCDC000000000000000000000000000000000000000000000000000000000000000000000000000000000000000000000000000000000000000000000000000000000000
310
00000000000000000000000000000000000000000000000000000000000000000000000000000000000000000000000000000000000000000000000000000000000000000000000000000000000000000000000000000000000000000000000000000000000000000000000000000000000000000000000000000000000000
310
0000000000000000DC00000000000000000000BE00000000BEBE00BE00000000000000BEBE00BEBEBEBEBE000000BEBE000000000000000000000000000000DCDC0000000000000000000000000000000000000000000000000000000000000000000000000000000000000000000000000000000000000000000000000000
310
00000000000000000000000000000000000000000000000000000000000000000000000000000000000000000000000000000000000000000000000000000000000000000000000000000000000000000000000000000000000000000000000000000000000000000000000000000000000000000000000000000000000000
310
0000000000000000DCDC000000000000000000BEBE000000BEBE00BEBE00000000000000000000BEBE00BEBEBEBEBE0000BEBEBE00000000000000BEBEBE0000000000DCDC00000000000000000000000000000000000000000000000000000000000000000000000000000000000000000000000000000000000000000000
310
00000000000000000000000000000000000000000000000000000000000000000000000000000000000000000000000000000000000000000000000000000000000000000000000000000000000000000000000000000000000000000000000000000000000000000000000000000000000000000000000000000000000000
310
0000000000000000DCDC000000000000000000BEBE000000BEBE00BEBE0000000000000000000000000000BEBE00BEBEBEBEBE0000BEBEBE0000000000BEBEBE00000000000000DCDC000000280000000000000000000000000000000000000000000000000000000000000000000000000000000000000000000000000000
310
000000000000000000000000000000000000000000000000000000000000000000000000000000000000000000000000000000000000000000000000000000000000000000000000000000000000000000000000000000000000000000000000000000000000000000000000000000000000000000000000000000000000BE
310
BEBEBEBEBEBEBEBEBEBEBE0000000000000000BEBE00000000BE00BEBE00000000000000000000BEBEBEBEBE000000BE00BEBEBEBEBE000000BEBEBE000000BEBEBE0000000000000000DCDC282800000000000000000000000000000000000000000000000000000000000000000000000000000000000000000000000000
310
00000000000000000000000000000000000000000000000000000000000000000000000000000000000000000000000000000000000000000000000000000000000000000000000000000000000000000000000000000000000000000000000000000000000000000000000000000000000000000000000000000000000000
310
00BEBEBEBEBEBEBEBEBEBEBEBE00000000000000BE00000000BEBE00BE000000000000000000000000BEBEBEBEBE00000000BEBE00BEBEBEBEBE000000BEBE00EFEFEF000000000000000000282800000000000000000000000000000000000000000000000000000000000000000000000000000000000000000000000000
310
00000000000000000000000000000000000000000000000000000000000000000000000000000000000000000000000000000000000000000000000000000000000000000000000000000000000000000000000000000000000000000000000000000000000000000000000000000000000000000000000000000000000000
310
000000BEBEBEBEBEBEBEBEBEBEBEBE0000000000BEBE000000BEBE00BEBE00000000000000000000000000BEBEBEBEBE000000000000BEBE00BEBEBEBEBE0000EFBEBE00EFEF000000000000002800000000000000000000000000000000000000000000000000000000000000000000000000000000000000000000000000
310
00000000000000000000000000000000000000000000000000000000000000000000000000000000000000000000000000000000000000000000000000000000000000000000000000000000000000000000000000000000000000000000000000000000000000000000000000000000000000000000000000000000000000
310
0000000000BEBEBEBEBEBEBEBEBEBEBEBE000000BEBE000000BEBE00BEBE00000000000000000000000000000000000000000000000000BE0000BEBE00BEBEBEBEBEEF0000BEBE00EFEF0000002828000000000000000000000000000000000000000000000000000000000000000000000000000000000000000000000000
310
00000000000000000000000000000000000000000000000000000000000000000000000000000000000000000000000000000000000000000000000000000000000000000000000000000000000000000000000000000000000000000000000000000000000000000000000000000000000000000000000000000000000000
310
000000000000000000DC00000000000000000000BEBE00000000BE00BEBE000000BEBEBEBEBEBEBEBEBEBEBEBEBEBEBEBEBEBEBE00000000BE0000000000BE00BEBEBEBEBE00000000BEBE00002828000000000000000000000000000000000000000000000000000000000000000000000000000000000000000000000000
310
00000000000000000000000000000000000000000000000000000000000000000000000000000000000000000000000000000000000000000000000000000000000000000000000000000000000000000000000000000000000000000000000000000000000000000000000000000000000000000000000000000000000000
310
000000000000000000DCDC00000000000000000000BE00000000BEBE00BE0000000000BEBEBEBEBEBEBEBEBEBEBEBEBEBEBEBEBEBEBE00BEBEBE00000000000000BEBEEFBEBEBEBEBE00000000BE28000000000000000000000000000000000000000000000000000000000000000000000000000000000000000000000000
310
00000000000000000000000000000000000000000000000000000000000000000000000000000000000000000000000000000000000000000000000000000000000000000000000000000000000000000000000000000000000000000000000000000000000000000000000000000000000000000000000000000000000000
310
000000000000000000DCDC00000000000000000000BEBE000000BEBE00BEBE000000000000BEBEBEBEBEBEBEBEBEBEBEBEBEBEBEBEBEBEBE000000000000BEBE00EFEFEF00BEBE00BEBEBEBEBE0000BE0000000000000000000000000000000000000000000000000000000000000000000000000000000000000000000000
310
00000000000000000000000000000000000000000000000000000000000000000000000000000000000000000000000000000000000000000000000000000000000000000000000000000000000000000000000000000000000000000000000000000000000000000000000000000000000000000000000000000000000000
310
00000000000000000000DC00000000000000000000BEBE000000BEBEBEBEBE000000000000000000000000000000000000000000000000000000000000000000BEBEEFEF0000000000BEBE00BEBEBEBEBEBE000000000000000000000000000000000000000000000000000000000000000000000000000000000000000000
310
00000000000000000000000000000000000000000000000000000000000000000000000000000000000000000000000000000000000000000000000000000000000000000000000000000000000000000000000000000000000000000000000000000000000000000000000000000000000000000000000000000000000000
310
00000000000000000000DCDC000000000000000000BEBE00000000BEBEBEBEBEBEBE0000000000000000000000000000000000000000000000000000000000000000BEBEEFEFEF000000000000BEBEBEBEBEBEBE00000000000000000000000000000000000000000000000000000000000000000000000000000000000000
310
00000000000000000000000000000000000000000000000000000000000000000000000000000000000000000000000000000000000000000000000000000000000000000000000000000000000000000000000000000000000000000000000000000000000000000000000000000000000000000000000000000000000000
310
00000000000000000000DCDC00000000000000000000BE00000000BEBEBEBE00BEBE00BEBEBE00000000000000000000000000000000000000000000000000000000000000000000EFEFEF000000BEBEBEBE00BEBE00000000000000000000000000000000000000ECECECECECECECECECECECECECECECECECECECEC000000
310
00000000000000000000000000000000000000000000000000000000000000000000000000000000000000000000000000000000000000000000000000000000000000000000000000000000000000000000000000000000000000000000000000000000000000000000000000000000000000000000000000000000000000
310
00000000000000000000DCDC00000000000000000000BEBE000000BEBE00BEBEBEBE0000BEBE00BEBE00000000000000000000000000000000000000000000000000000000000000000000000000BEBEBE0000BEBE000000000000000000000000000000000000000000ECECECECECECECECECECECECECECECECECECECEC00
310
00000000000000000000000000000000000000000000000000000000000000000000000000000000000000000000000000000000000000000000000000000000000000000000000000000000000000000000000000000000000000000000000000000000000000000000000000000000000000000000000000000000000000
310
0000000000000000000000DC00000000000000000000BEBE000000BEBE00BEBE00000000BEBE0000BEBE00BEBE000000000000000000000000000000000000000000000000000000000000000000BEBEBE0000BEBE0000000000000000000000000000000000000000000000ECECECECECECECECECECECECECECECECECECEC
310
EC000000000000000000000000000000000000000000000000000000000000000000000000000000000000000000000000000000000000000000000000000000000000000000000000000000000000000000000000000000000000000000000000000000000000000000000000000000000000000000000000000000000000
310
0000000000000000000000DCDC000000000000000000BEBE00000000BE00BEBE0000000000000000BE000000BE0000BEBE000000000000000000000000000000000000000000000000000000000000BEBEBE0000BE000000000000000000000000000000000000000000000000000000000000000000000000000000000000
310
00000000000000000000000000000000000000000000000000000000000000000000000000000000000000000000000000000000000000000000000000000000000000000000000000000000000000000000000000000000000000000000000000000000000000000000000000000000000000000000000000000000000000
310
0000000000000000000000DCDC00000000000000000000BE00000000BEBE00BE0000000000000000000000BEBE0000BEBE00BEBEBE0000000000000000000000000000000000000000000000000000BEBEBE0000BEBE0000000000000000000000000000000000000000000000000000002828282828282828282828282828
310
28282828280000000000000000000000000000000000000000000000000000000000000000000000000000000000000000000000000000000000000000000000000000000000000000000000000000000000000000000000000000000000000000000000000000000000000000000000000000000000000000000000000000
310
000000000000000000000000DC00000000000000000000BEBE000000BEBE00BEBE0000000000000000000000000000BEBE0000BEBE00BEBE0000000000000000000000000000000000000000000000BEBEBE0000BEBE0000000000000000000000000000000000000000000000000000000000282828282828282828282828
310
28282828282800000000000000000000000000000000000000000000000000000000000000000000000000000000000000000000000000000000000000000000000000000000000000000000000000000000000000000000000000000000000000000000000000000000000000000000000000000000000000000000000000
310
000000000000000000000000DCDC000000000000000000BEBE000000BEBE00BEBE000000000000000000000000000000000000BE000000BE0000BEBE00000000000000000000000000000000000000BEBEBEBE00BEBE0000000000000000000000000000000000000000000000000000000000000028282828282828282828
310
28282828282828280000000000000000000000000000000000000000000000000000000000000000000000000000000000000000000000000000000000000000000000000000000000000000000000000000000000000000000000000000000000000000000000000000000000000000000000000000000000000000000000
310
000000000000000000000000DCDC000000000000000000BEBE00000000BE00BEBE000000000000000000000000000000000000000000BEBE0000BEBE0000BEBE000000000000000000000000000000BEBEBEBE0000BE0000000000000000000000000000000000000000000000000000000000000000000000000000000000
310
00000000000000000000000000000000000000000000000000000000000000000000000000000000000000000000000000000000000000000000000000000000000000000000000000000000000000000000000000000000000000000000000000000000000000000000000000000000000000000000000000000000000000
310
00000000000000000028000000DC00000000000000000000BE00000000BEBE00BE00000000000000000000000000000000000000000000000000BEBE0000BEBE00BEBE00000000000000000000000000BEBEBE0000BEBE00000000000000000000000000000000000000000000000000000000000000000000000000000000
310
00000000000000000000000000000000000000000000000000000000000000000000000000000000000000000000000000000000000000000000000000000000000000000000000000000000000000000000000000000000000000000000000000000000000000000000000000000000000000000000000000000000000000
310
00000000000000000000000028DCDC000000000000000000BEBE000000BEBE00BEBE00BEBEBEBEBEBEBEBEBEBEBEBEBEBEBEBEBEBEBEBE00000000000000BEBE0000BEBE00BEBE000000000000000000BEBEBE0000BEBE00000000000000000000000000000000000000000000000000000000000000000000000000000000
310
00000000000000000000000000000000000000000000000000000000000000000000000000000000000000000000000000000000000000000000000000000000000000000000000000000000000000000000000000000000000000000000000000000000000000000000000000000000000000000000000000000000000000
310
000000000000000000000000000000002828000000000000BEBE000000BEBE00BEBE000000BEBEBEBEBEBEBEBEBEBEBEBEBEBEBEBEBEBEBEBE00000000000000BEBEBE000000BE0000BEBE0000000000BEBEBEBE00BEBE0000000000000000000000000000BEBEBEBEBEBEBE00000000000000000000000000000000000000
310
00000000000000000000000000000000000000000000000000000000000000000000000000000000000000000000000000000000000000000000000000000000000000000000000000000000000000000000000000000000000000000000000000000000000000000000000000000000000000000000000000000000000000
310
000000000000000000000000000000000000000028280000BEBE00000000BE00BEBE0000000000BEBEBEBEBEBEBEBEBEBEBEBEBEBEBEBEBEBEBEBE000000000000BEBE0000BEBE0000BEBE0000BEBE00BEBEBEBE0000BE00000000000000000000000000000000BEBEBEBEBEBEBE000000000000000000000000BEBEBEBEBE
310
0000000000000000000000000000000000000000BEBEBEBEBEBEBEBEBEBEBEBEBEBEBEBEBEBEBEBEBEBE00000000000000000000000000000000000000000000000000000000000000000000000000000000000000000000000000000000000000000000000000000000000000000000000000000000000000000000000000
310
00000000000000000000000000000000000000000000000028BE00000000BEBE00BE000000000000000000000000000000000000000000000000000000000000000000BE0000000000BE000000BEBE0000BE00BE0000BEBE0000000000000000000000000000000000BEBEBEBEBEBEBE000000000000000000000000BEBEBE
310
BEBE0000000000000000000000000000000000000000BEBEBEBEBEBEBEBEBEBEBEBEBEBEBEBEBEBEBEBEBEBE0000000000000000000000000000000000000000000000000000000000000000000000000000000000000000000000000000000000000000000000000000000000000000000000000000000000000000000000
310
000000000000000000000000000000000000000000000000000000BE0000BEBEBEBEBE000000000000000000000000BEBEBEBEBEBEBEBEBEBEBEBEBEBEBEBE0000000000BE00000000000000BEBE000000BEBEBEBE00BEBE0000000000000000000000000000000000BEBEBEBEBEBEBEBEBE000000000000000000000000BE
310
BEBEBEBE0000000000000000000000000000000000000000BEBEBEBEBEBEBEBEBEBEBEBEBEBEBEBEBEBEBEBEBEBE000000000000000000000000000000000000000000000000000000000000000000000000000000000000000000000000000000000000000000000000000000000000000000000000000000000000000000
310
0000000000000000000000000000000000000000000000000000000000BEBEBEBEBEBEBEBE000000000000000000000000BEBEBEBEBEBEBEBEBEBEBEBEBEBEBEBE0000BEBEBE00000000000000000000BEBE00BEBEBEBEBE00000000000000000000000000000000000000BEBEBEBEBEBEBEBEBE0000BEBEBE000000000000
310
0000000000000000000000000000000000000000000000000000BEBEBEBEBEBEBEBEBEBEBEBEBEBEBEBEBEBEBEBEBEBEBEBEBEBEBEBEBE000000000000000000000000000000000000000000000000000000000000000000000000000000000000000000000000000000000000000000000000000000000000000000000000
310
00000000000000000000000000000000000000000000000000000000000000BEBEBEBEBEBEBEBEBEBE00000000000000000000BEBEBEBEBEBEBEBEBEBEBEBEBEBEBEBE0000000000000000000000000000BEBEBEBEBEBEBE000000000000000000000000000000000000000000BEBEBEBEBEBEBEBEBE00000000BE00000000
310
BEBEBEBEBEBEBEBE0000000000000000000000000000000000000000BEBEBEBEBEBEBEBEBEBEBEBEBEBEBEBEBEBEBEBEBEBEBEBEBEBEBEBEBE00000000000000000000000000000000000000000000000000000000000000000000000000000000000000000000000000000000000000000000000000000000000000000000
310
00000000000000000000000000000000000000000000000000000000000000000000BEBEBEBEBEBEBEBEBEBEBE000000000000000000000000000000000000000000000000000000000000000000000000BEBE00BE0000BEBE0000000000000000000000000000000000000000000000000000000000000000000000BE0000
310
0000BEBEBEBEBEBEBEBE0000BEBEBE000000000000000000000000000000BEBEBEBEBEBEBEBEBEBEBEBEBEBEBEBEBEBEBEBEBEBEBEBEBEBEBEBEBE0000000000000000000000000000000000000000000000000000000000000000000000000000000000000000000000000000000000000000000000000000000000000000
310
000000000000000000000000000000000000000000000000000000000000000000000000000000BEBEBEBEBEBEBEBEBE000000000000000000000000000000000000000000000000000000000000000000BEBE00BEBE00BEBE0000000000000000000000000000000000000000000000000000000000000000000000000000
310
BE000000BEBEBEBEBEBEBEBE00000000BE0000000000000000000000000000000000000000000000000000000000000000000000000000000000000000000000000000000000000000000000000000000000000000000000000000000000000000000000000000000000000000000000000000000000000000000000000000
310
00000000000000000000000000000000000000000000000000000000000000000000000000000000000000BEBEBEBEBEBEBEBEBE000000000000000000000000000000000000000000000000000000000000BEBEBEBE00BEBE0000000000000000000000000000000000000000000000000000000000000000000000000000
310
0000BE000000000000000000000000000000BE000000000000000000000000000000BEBEBEBEBEBEBEBEBEBEBEBEBEBEBEBEBEBEBEBEBEBEBEBEBEBEBEBE0000000000000000000000000000000000000000000000000000000000000000000000000000000000000000000000000000000000000000000000000000000000
310
0000000000000000000000000000000000000000000000000000000000000000000000000000000000000000000000BE00BEBEBEBEBEBEBE0000000000000000000000000000000000000000000000000000BEBE00BE0000BE0000000000000000000000000000000000000000000000000000000000000000000000000000
310
00000000BE000000000000000000000000000000BEBE0000000000000000000000000000BEBEBEBEBEBEBEBEBEBEBEBEBEBEBEBEBEBEBEBEBEBEBEBEBEBEBEBE000000000000000000000000000000000000000000000000000000000000000000000000000000000000000000000000000000000000000000000000000000
310
0000000000000000000000000000000000000000000000000000000000000000000000000000000000000000000000000000BEBE00BE00BEBEBEBE0000000000000000000000000000000000000000000000BEBE00BEBE00BEBE000000000000000000000000000000000000000000000000000000000000000000EF000000
310
00000000000000BE000000000000000000000000000000BE0000000000000000000000000000BEBEBEBEBEBEBEBEBEBEBEBEBEBEBEBEBEBEBEBEBEBEBEBEBEBEBEBE00000000000000000000000000000000000000000000000000000000000000000000000000000000000000000000000000000000000000000000000000
310
000000000000000000000000000000000000000000000000000000000000000000000000000000000000000000000000000000000000BEBEBEBE00BEBEBEBE00000000000000000000000000000000000000BEBE00BEBE00BEBE0000000000000000000000000000000000000000000000000000000000000000000000B8B8
310
B8B8B8B8B8B8B8B8B8B8B8B8B8B8B8B8B8B8B8B82D2D2D2DBEBEBE2D2D0000000000000000000000BEBEBEBEBEBEBEBEBEBEBEBEBEBEBEBEBEBEBEBEBEBEBEBEBEBEBEBE0000000000000000000000000000000000000000000000000000000000000000000000000000000000000000000000000000000000000000000000
310
00000000000000000000000000000000000000000000000000000000000000000000000000000000000000000000000000000000000000000000BEBEBEBEBEBEBEBEBE000000000000000000000000000000BEBEBEBEBE00BEBE00000000000000000000000000000000000000000000000000000000000000000000000000
310
EF0000000000000000000000000000000000000000002D2D2D2DBEBEBE2D2D0000000000000000000000BEBEBEBEBEBEBEBEBEBEBEBEBEBEBEBEBEBEBEBEBEBEBEBEBEBEBEBE000000000000000000000000000000000000000000000000000000000000000000000000000000000000000000000000000000000000000000
310
00000000000000000000000000000000000000000000000000000000000000000000000000000000000000000000000000000000000000000000000000BEBE00BEBEBEBEBEBEBE000000000000000000000000BEBE00BE0000BEBEBE0000000000000000000000000000000000000000000000000000000000000000000000
310
0000EF00000000000000000000000000000000000000000000000000BEBEBE002D0000000000000000000000BEBEBEBEBEBEBEBEBEBEBEBEBEBEBEBEBEBEBEBEBEBEBEBEBEBEBEBE00000000000000000000000000000000000000000000000000000000000000000000000000000000000000000000000000000000000000
310
0000000000000000000000000000000000000000000000000000000000000000000000000000000000000000000000000000000000000000000000000000000000BEBE00BE00BEBEBEBE000000000000000000BEBE00BEBE00BEBE00BEBE000000000000000000000000000000000000000000000000000000000000000000
310
00000000EF00000000000000000000000000000000000000000000000000000000002D0000000000000000000000BEBEBEBEBEBEBEBEBEBEBEBEBEBEBEBEBEBEBEBEBEBEBEBEBEBE00000000000000000000000000000000000000000000000000000000000000000000000000000000000000000000000000000000000000
310
000000000000000000000000000000000000000000000000000000000000000000000000000000000000000000000000000000000000000000000000000000000000000000BEBEBEBE00BEBEBEBE0000000000BEBEBEBEBE00BEBE000000BE0000000000000000000000000000000000000000000000000000000000000000
310
000000000000EF00000000000000000000000000000000000000000000000000000000002D0000000000000000000000BEBEBEBEBEBEBEBEBEBEBEBEBEBEBEBEBEBEBEBEBEBEBEBEBEBE0000000000000000000000000000000000000000000000000000000000000000000000000000000000000000000000000000000000
310
00000000000000000000000000000000000000000000000000000000000000000000000000000000000000000000000000000000000000000000000000000000000000000000000000BE00BEBE00BEBEBEBE00BEBEBE00BE00BEBE0000000000BE000000000000000000000000000000000000000000000000000000000000
310
0000000000000000EF00000000000000000000000000000000000000000000000000000000002D00000000000000BEBEBE00BEBEBEBEBEBEBEBEBEBEBEBEBEBEBEBEBEBEBEBEBEBEBEBEBEBE000000000000000000000000000000000000000000000000000000000000000000000000000000000000000000000000000000
310
00000000000000000000000000000000000000000000000000000000000000000000000000000000000000000000000000000000000000000000000000000000000000000000000000000000BEBE00BEBE00BEBEBEBE00BEBE00BE0000000000000000BE000000000000000000000000000000000000000000000000000000
310
00000000000000000000EF00000000000000000000000000000000000000000000000000000000002D00000000000000BE000000000000000000000000000000000000000000000000000000000000000000000000000000000000000000000000000000000000000000000000000000000000000000000000000000000000
310
00000000000000000000000000000000000000000000000000000000000000000000000000000000000000000000000000000000000000000000000000000000000000000000000000000000000000BEBEBE00BEBE00BEBEBE00BEBE000000000000000000BE00000000000000000000000000000000000000000000000000
310
000000000000000000000000EF00000000000000000000000000000000000000000000000000000000002D000000000000BEBE00000000000000000000000000000000000000000000000000000000000000000000000000000000000000000000000000000000000000000000000000000000000000000000000000000000
310
0000000000000000000000000000000000000000000000000000000000000000000000000000000000000000000000000000000000000000000000000000000000000000000000000000000000000000BE000000BEBE00BEBEBEBEBE0000000000000000000000BE0000000000000000000000000000000000000000000000
310
00000000000000000000000000EFEFEF000000000000000000000000000000000000000000000000000000002D000000000000BEBE0000000000000000000000000000000000000000000000000000000000000000000000000000000000000000000000000000000000000000000000000000000000000000000000000000
310
00000000000000000000000000000000000000000000000000000000000000000000000000000000000000000000000000000000000000000000000000BEBEBEBEBEBEBEBEBEBEBEBEBEBEBEBE00000000BE000000000000BEBEBEBE00000000000000000000000000BE000000000000000000000000000000000000000000
310
00000000000000000000000000000000EF0000BEBEBEBEBEBEBEBEBEBEBEBEBEBEBEBE00000000000000000000002D000000000028BE00000000000000000000000000000000000000000000000000000000000000000000000000000000000000000000000000000000000000000000000000000000000000000000000000
310
000000000000000000000000000000000000000000000000000000000000000000000000000000000000000000000000000000000000000000000000000000BEBEBEBEBEBEBEBEBEBEBEBEBEBEBEBE00BEBEBE0000000000000000BE00000000000000000000000000000000BE000000000000000000000000000000000000
310
000000000000000000000000000000000000EF0000BEBEBEBEBEBEBEBEBEBEBEBEBEBEBEBE00000000000000000000002D000000000028280000000000000000000000000000000000000000000000000000000000000000000000000000000000000000000000000000000000000000000000000000000000000000000000
310
0000000000000000000000000000000000000000000000000000000000000000000000000000000000000000000000000000000000000000000000000000000000BEBEBEBEBEBEBEBEBEBEBEBEBEBEBEBE0000000000000000000000000000000000000000000000000000000000BE00000000000000000000000000000000
310
0000000000000000000000000000000000000000EF0000BEBEBEBEBEBEBEBEBEBEBEBEBEBEBEBE0000BEBEBE0000000000002D00000000002828000000000000000000000000000000000000000000000000000000000000000000000000000000000000000000000000000000000000000000000000000000000000000000
310
00000000000000000000000000000000000000000000000000000000000000000000000000000000000000000000000000000000000000000000000000000000000000000000000000000000000000000000000000000000000000000000000000000000000000000000000000000000BE0000000000000000000000000000
310
00000000000000000000000000000000000000000000EF00000000000000000000000000000000000000000000BE0000000000002D0000000000282800000000000000000000000000000000000000000000000000000000000000000000000000000000000000000000000000000000000000000000000000000000000000
310
000000000000000000000000000000000000000000000000000000000000000000000000000000000000000000000000000000000000000000000000000000000000000000000000000000000000000000000000000000000000000000000000000000000000000000000000000000000000BE000000000000000000000000
310
000000000000000000000000000000000000000000000000EF0000000000000000000000000000000000000000000000BE00000000002DBEBEBEBEBE28280000BEBE00000000000000000000000000000000000000000000000000000000000000000000000000000000000000000000000000000000000000000000000000
310
0000000000000000000000000000000000000000000000000000000000000000000000000000000000000000000000000000000000000000000000000000000000000000000000000000000000000000000000000000000000000000000000000000000000000000000000000000000000000000BE00000000000000000000
310
0000000000000000000000000000000000000000000000000000EF00000000000000000000000000000000000000000000BEBE00BEBEBE002D000000000028280000BEBE0000000000000000000000000000000000000000000000000000000000000000000000000000000000000000000000000000000000000000000000
310
0000000000000000000000000000000000000000000000000000000000000000000000000000000000000000000000000000000000000000000000000000000000000000000000000000000000000000000000000000000000000000000000000000000000000000000000000000000000000000000000BE00000000000000
310
00000000000000000000000000000000000000000000000000000000EF0000000000000000000000000000000000000000002D2D2D2DBEBEBE2D2D000000000028280000BEBE000000000000000000000000000000000000000000000000000000000000000000000000000000000000000000000000000000000000000000
310
0000000000000000000000000000000000000000000000000000000000000000000000000000000000000000000000000000000000000000000000000000000000000000000000000000000000000000000000BEBEBEBEBEBEBEBEBEBEBEBEBEBEBEBEBEBEBEBEBEBEBEBEBEBEBEBEBEBEBEBEBEBEBEBEBE00BE0000000000
310
000000000000000000000000000000000000000000000000000000000000B8B8B8B8B8B8B8B8B8B8B8B8B8B8B8B8B8B8B8B8B8B82D2D2D2D2D2D2D2D2D000000000028282828BEBE28282800000000000000000000000000000000000000000000000000000000000000000000000000000000000000000000000000000000
310
00000000000000000000000000000000000000000000000000000000000000000000000000000000000000000000000000000000000000000000000000000000000000000000000000000000000000000000000000BEBEBEBEBEBEBEBEBEBEBEBEBEBEBEBEBEBEBEBEBEBEBEBEBEBEBEBEBEBEBEBEBEBEBEBEBE00BE000000
310
0000000000000000000000000000000000000000000000000000000000000000EF000000000000000000BEBEBEBE2D2D2D2DBE2D2D2D2D2D2D2DBEBEBE2D2D000000000028282828BEBE2828280000000000000000000000000000000000000000000000000000000000000000000000000000000000000000000000000000
310
000000000000000000000000000000000000000000000000000000000000000000000000000000000000000000000000000000000000000000000000000000000000000000000000000000000000000000000000000000BEBEBEBEBEBEBEBEBEBEBEBEBEBEBEBEBEBEBEBEBEBEBEBEBEBEBEBEBEBEBEBEBEBEBEBEBE00BE00
310
0000000000000000000000000000000000000000000000000000000000000000000000000000000000000000BE00000000000000BEBE0000000000000000000000000000000000000000BEBE000000000000000000000000000000000000000000000000000000000000000000000000000000000000000000000000000000
310
00000000000000000000000000000000000000000000000000000000000000000000000000000000000000000000000000000000000000000000000000000000000000000000000000000000000000000000000000000000000000000000000000000000000000000000000000000000000000000000000000000000000000
310
00BE0000000000000000BEBEBEBEBEBEBEBEBEBEBEBEBEBEBEBEBEBEBEBEBE000000000000000000000000000000BE00000000000000BEBE0000000000000000000000000000000000000000BEBE00000000000000000000000000000000000000000000000000000000000000000000000000000000000000000000000000
310
000000000000000000000000000000000000000000000000000000000000000000000000000000000000000000000000000000000000000000000000000000000000000000000000000000000000000000000000000000BEBEBEBEBEBEBEBEBEBEBEBEBEBEBEBEBEBEBEBEBEBEBEBEBEBEBEBEBEBEBEBEBEBEBEBEBEBEBEBE
310
BE0000BE0000000000000000BEBEBEBEBEBEBEBEBEBEBEBEBEBEBEBEBEBEBEBEBE0000BEBEBE00000000000000000000BE0000000000000000BE0000000000000000000000000000000000000000BEBE0000000000000000000000000000000000000000000000000000000000000000000000000000000000000000000000
310
0000000000000000000000000000000000000000000000000000000000000000000000000000000000000000000000000000000000000000000000000000000000000000000000000000000000000000000000000000000000BEBEBEBEBEBEBEBEBEBEBEBEBEBEBEBEBEBEBEBEBEBEBEBEBEBEBEBEBEBEBEBEBEBEBEBEBEBE
310
BEBEBE0000BE0000000000000000BEBEBEBEBEBEBEBEBEBEBEBEBEBEBEBEBEBEBEBEBE00000000BE00000000000000000000BE0000000000000000BE0000000000000000000000000000000000000000BE00000000000000000000000000000000000000000000000000000000000000000000000000000000000000000000
310
00000000000000000000000000000000000000000000000000000000000000000000000000000000000000000000000000000000000000000000000000000000000000000000000000000000000000000000000000000000000000BEBEBEBEBEBEBEBEBEBEBEBEBEBEBEBEBEBEBEBEBEBEBEBEBEBEBEBEBEBEBEBEBEBEBEBE
310
BEBEBEBEBE0000BE00000000000000000000000000000000000000000000000000000000000000000000BE000000000000000000BE000000000000000000BE00000000000000000000000000000000000000BE0000000000000000000000000000000000000000000000000000000000000000000000000000000000000000
310
00000000000000000000000000000000000000000000000000000000000000000000000000000000000000000000000000000000000000000000000000000000000000000000000000000000000000000000BEBEBEBEBEBEBEBEBEBEBEBEBEBEBEBEBEBEBEBEBEBEBEBEBEBEBEBEBEBEBEBEBEBEBEBEBEBEBEBEBEBEBEBEBE
310
BEBEBEBEBEBEBE000000BE000000000000000000000000000000000000000000000000000000000000000000BEBE00000000000000BEBE000000000000000000BE00000000000000000000000000000000000000BEBE0000000000000000000000000000000000000000000000000000000000000000000000000000000000
310
000000000000000000000000000000000000000000000000000000000000000000000000000000000000000000000000000000000000000000000000000000000000000000000000000000000000000000000000BEBEBEBEBEBEBEBEBEBEBEBEBEBEBEBEBEBEBEBEBEBEBEBEBEBEBEBEBEBEBEBEBEBEBEBEBEBEBEBEBEBEBE
310
BEBEBEBEBEBEBEBEBE000000BE00000000000000000000000000000000000000000000000000BEBEBEBE002D2D2D2DBE2D2D2D2D00BEBE0000000000000000000000BE00000000000000000000000000000000000000BEBE000000000000000000000000000000000000000000000000000000000000000000000000000000
310
0000000000000000000000000000000000000000000000000000000000000000000000000000000000000000000000000000000000000000000000000000000000000000000000000000000000000000000000000000BEBEBEBEBEBEBEBEBEBEBEBEBEBEBEBEBEBEBEBEBEBEBEBEBEBEBEBEBEBEBEBEBEBEBEBEBEBEBEBEBE
310
BEBEBEBEBEBEBEBEBEBEBE00BEBEBE00000000000000000000000000000000000000000000002D2DBEBEBEBEBE002D2D2D2D2D2D2DBEBE00000000000000000000000000BE00000000000000000000000000000000000000BE0000000000000000000000000000000000000000000000000000000000000000000000000000
310
00000000000000000000000000000000000000000000000000000000000000000000000000000000000000000000000000000000000000000000000000000000000000000000000000000000000000000000000000000000000000000000000000000000000000000000000000000000000000000000000000000000000000
310
00000000000000000000000000000000000000000000000000000000BEBEBEBEBEBEBEBEBEBEBEBEBEBEBEBEBEBEBEBEBEBEBEBEBEBEBEBEBEBEBEBEBEBEBEBEBEBEBEBEBEBEBEBEBEBEBEBEBEBEBEBEBEBEBEBEBEBEBEBEBEBEBEBEBEBEBEBEBEBEBEBEBE0000000000000000000000000000000000000000000000000000
310
00000000000000000000000000000000000000000000000000000000000000000000000000000000000000000000000000000000000000000000000000000000000000000000000000000000000000000000000000000000000000000000000000000000000000000000000000000000000000000000000000000000000000
310
000000000000000000000000000000000000000000000000000000000000BEBEBEBEBEBEBE000000BEBE0000BEBEBEBEBEBE0000BEBE00BEBEBEBEBEBE00BEBE00BEBEBEBEBEBE00BEBE00BEBEBEBE00BEBEBEBEBEBEBEBE0000BEBE00BEBE00BEBE00BEBEBEBE000000000000000000000000000000000000000000000000
310
00000000000000000000000000000000000000000000000000000000000000000000000000000000000000000000000000000000000000000000000000000000000000000000000000000000000000000000000000000000000000000000000000000000000000000000000000000000000000000000000000000000000000
310
0000000000000000000000000000000000000000000000000000000000000000BEBEBEBEBEBEBE00BE00BEBEBEBEBEBEBEBEBEBEBEBE00BEBEBEBE000000BE00BEBEBE00BEBEBE00BE0000BE00BEBE00BE0000BEBEBE00BEBE0000BE00BE0000BEBEBE00BEBEBEBEBE00000000000000000000000000000000000000000000
310
00000000000000000000000000000000000000000000000000000000000000000000000000000000000000000000000000000000000000000000000000000000000000000000000000000000000000000000000000000000000000000000000000000000000000000000000000000000000000000000000000000000000000
310
00000000000000000000000000000000000000000000000000000000000000000000BEBEBEBEBEBE00BEBEBEBEBE0000BEBEBEBEBEBEBEBEBE00BEBEBEBEBE00BEBEBE00BE0000BEBE00BEBE00BEBEBEBE00BEBEBEBEBEBE00BEBE00BEBEBEBEBEBE00BEBE00BEBEBE00BE0000000000000000000000000000000000000000
310
00000000000000000000000000000000000000000000000000000000000000000000000000000000000000000000000000000000000000000000000000000000000000000000000000000000000000000000000000000000000000000000000000000000000000000000000000000000000000000000000000000000000000
310
000000000000000000000000000000000000000000000000000000000000000000000000BEBEBEBEBEBEBEBEBEBEBEBEBEBEBEBEBEBEBEBEBEBEBEBEBEBEBEBEBEBEBEBEBEBEBEBEBEBEBEBEBEBEBEBEBEBEBEBEBEBEBEBEBEBEBEBEBEBEBEBEBEBEBEBEBEBEBEBEBEBEBEBEBE000000000000000000000000000000000000
310
00000000000000000000000000000000000000000000000000000000000000000000000000000000000000000000000000000000000000000000000000000000000000000000000000000000000000000000000000000000000000000000000000000000000000000000000000000000000000000000000000000000000000
310
0000000000000000000000000000000000000000000000000000000000000000000000000000000000BEBEBEBEBEBE000000000000BEBEBE00000000000000000000000000000000000000000000000000BE000000000000000000000000000000000000000000000000000000000000000000000000000000000000000000
310
00000000000000000000000000000000000000000000000000000000000000000000000000000000000000000000000000000000000000000000000000000000000000000000000000000000000000000000000000000000000000000000000000000000000000000000000000000000000000000000000000000000000000
310
00000000000000000000000000000000000000000000000000000000000000000000000000000000000000BEBEBEBEBEBE000000000000BEBE000000000000000000000000000000000000000000000000000000BE000000BEBEBEBEBEBEBEBEBEBEBEBEBEBEBEBEBEBEBE0000000000000000000000000000000000000000
310
00000000000000000000000000000000000000000000000000000000000000000000000000000000000000000000000000000000000000000000000000000000000000000000000000000000000000000000000000000000000000000000000000000000000000000000000000000000000000000000000000000000000000
310
000000000000000000000000000000000000000000000000000000000000000000000000000000000000000000BEBEBEBEBEBE0000000000BEBE00000000000000000000000000000000000000000000000000000000BE000000BEBEBEBEBEBEBEBEBEBEBEBEBEBEBEBEBEBEBE000000000000000000000000000000000000
310
00000000000000000000000000000000000000000000000000000000000000000000000000000000000000000000000000000000000000000000000000000000000000000000000000000000000000000000000000000000000000000000000000000000000000000000000000000000000000000000000000000000000000
310
0000000000000000000000000000000000000000000000000000000000000000000000000000BEBEBEBEBEBEBEBEBEBEBEBEBEBE00000000000000BE00000000000000000000000000000000000000000000000000000000BEBEBE00BEBEBEBEBEBEBEBEBEBEBEBEBEBEBEBEBEBEBE00000000000000000000000000000000
310
00000000000000000000000000000000000000000000000000000000000000000000000000000000000000000000000000000000000000000000000000000000000000000000000000000000000000000000000000000000000000000000000000000000000000000000000000000000000000000000000000000000000000
310
00000000000000000000000000000000000000000000000000000000000000000000000000000000BEBEBEBEBEBEBEBEBEBEBEBEBEBE000000000000BE000000000000000000000000000000000000000000000000000000000000000000000000000000000000000000000000000000000000000000000000000000000000
310
00000000000000000000000000000000000000000000000000000000000000000000000000000000000000000000000000000000000000000000000000000000000000000000000000000000000000000000000000000000000000000000000000000000000000000000000000000000000000000000000000000000000000
310
000000000000000000000000000000000000000000000000000000000000000000000000000000000000BEBEBEBEBEBEBEBEBEBEBEBEBEBE000000000000BE00000000000000000000000000000000000000000000000000000000000000000000000000000000000000000000000000000000000000000000000000000000
310
00000000000000000000000000000000000000000000000000000000000000000000000000000000000000000000000000000000000000000000000000000000000000000000000000000000000000000000000000000000000000000000000000000000000000000000000000000000000000000000000000000000000000
310
000000000000000000000000000000000000000000000000000000000000000000000000000000000000000000000000000000000000000000000000000000BE000000000000000000000000000000000000000000000000000000000000000000000000000000000000000000000000000000000000000000000000000000
310
00000000000000000000000000000000000000000000000000000000000000000000000000000000000000000000000000000000000000000000000000000000000000000000000000000000000000000000000000000000000000000000000000000000000000000000000000000000000000000000000000000000000000
310
0000000000000000000000000000000000000000000000000000000000000000000000000000000000000000000000000000000000BEBEBEBEBEBEBEBE00000000BE00000000000000000000000000000000000000000000000000000000000000000000000000000000000000000000000000000000000000000000000000
310
00000000000000000000000000000000000000000000000000000000000000000000000000000000000000000000000000000000000000000000000000000000000000000000000000000000000000000000000000000000000000000000000000000000000000000000000000000000000000000000000000000000000000
310
00000000000000000000000000000000000000000000000000000000000000000000000000000000000000000000000000000000000000BEBEBEBEBEBEBEBE00BEBEBE000000000000000000000000000000000000000000000000000000000000000000000000000000000000000000000000000000000000000000000000
310
00000000000000000000000000000000000000000000000000000000000000000000000000000000000000000000000000000000000000000000000000000000000000000000000000000000000000000000000000000000000000000000000000000000000000000000000000000000000000000000000000000000000000
310
000000000000000000000000000000000000000000000000000000000000000000000000000000000000000000000000000000000000000000BEBEBEBEBEBEBEBE0000000000000000000000000000000000000000000000000000000000000000000000000000000000000000000000000000000000000000000000000000
310
00000000000000000000000000000000000000000000000000000000000000000000000000000000000000000000000000000000000000000000000000000000000000000000000000000000000000000000000000000000000000000000000000000000000000000000000000000000000000000000000000000000000000
310
00000000000000000000000000000000000000000000000000000000000000000000000000000000000000000000000000000000000000000000000000000000000000000000000000000000000000000000000000000000000000000000000000000000000000000000000000000000000000000000000000000000000000
310
00000000000000000000000000000000000000000000000000000000000000000000000000000000000000000000000000000000000000000000000000000000000000000000000000000000000000000000000000000000000000000000000000000000000000000000000000000000000000000000000000000000000000
310
00000000000000000000000000000000000000000000000000000000000000000000000000000000000000000000000000000000000000000000000000000000000000000000000000000000000000000000000000000000000000000000000000000000000000000000000000000000000000000000000000000000000000
310
00000000000000000000000000000000000000000000000000000000000000000000000000000000000000000000000000000000000000000000000000000000000000000000000000000000000000000000000000000000000000000000000000000000000000000000000000000000000000000000000000000000000000
310
00000000000000000000000000000000000000000000000000000000000000000000000000000000000000000000000000000000000000000000000000000000000000000000000000000000000000000000000000000000000000000000000000000000000000000000000000000000000000000000000000000000000000
310
00000000000000000000000000000000000000000000000000000000000000000000000000000000000000000000000000000000000000000000000000000000000000000000000000000000000000000000000000000000000000000000000000000000000000000000000000000000000000000000000000000000000000
310
00000000000000000000000000000000000000000000000000000000000000000000000000000000000000000000000000000000000000000000000000000000000000000000000000000000000000000000000000000000000000000000000000000000000000000000000000000000000000000000000000000000000000
310
00000000000000000000000000000000000000000000000000000000000000000000000000000000000000000000000000000000000000000000000000000000000000000000000000000000000000000000000000000000000000000000000000000000000000000000000000000000000000000000000000000000000000
310
00000000000000000000000000000000000000000000000000000000000000000000000000000000000000000000000000000000000000000000000000000000000000000000000000000000000000000000000000000000000000000000000000000000000000000000000000000000000000000000000000000000000000
310
00000000000000000000000000000000000000000000000000000000000000000000000000000000000000000000000000000000000000000000000000000000000000000000000000000000000000000000000000000000000000000000000000000000000000000000000000000000000000000000000000000000000000
310
00000000000000000000000000000000000000000000000000000000000000000000000000000000000000000000000000000000000000000000000000000000000000000000000000000000000000000000000000000000000000000000000000000000000000000000000000000000000000000000000000000000000000
310
0000000000000000000000000000000000000000000000000000000000000000000000000000000000000000000000000000000000000000000000000000000000000000000000000000000000000000000000000000000000000000000000000000000000000000000000000000000000000000000000
  0
XRECORD
  5
36969
102
{ACAD_REACTORS
330
36968
102
}
330
36968
100
AcDbXrecord
280
     1
102
MATERIAL
148
0.0
149
0.0
149
0.0
 93
        0
 94
      127
282
     0
 72
     1
 77
     1
171
     1
175
     1
179
     1
273
     0
  0
XRECORD
  5
36967
102
{ACAD_REACTORS
330
36966
102
}
330
36966
100
AcDbXrecord
280
     1
102
MATERIAL
148
0.0
149
0.0
149
0.0
 93
        0
 94
      127
282
     0
 72
     1
 77
     1
171
     1
175
     1
179
     1
273
     0
  0
XRECORD
  5
3696B
102
{ACAD_REACTORS
330
3696A
102
}
330
3696A
100
AcDbXrecord
280
     1
102
MATERIAL
148
0.0
149
0.0
149
0.0
 93
        0
 94
      127
282
     0
 72
     1
 77
     1
171
     1
175
     1
179
     1
273
     0
  0
XRECORD
  5
369D9
102
{ACAD_REACTORS
330
369D8
102
}
330
369D8
100
AcDbXrecord
280
     1
102
SHADEPLOT
 70
     0
102
SHADEPLOTRESLEVEL
 70
     2
102
SHADEPLOTCUSTOMDPI
 70
   300
  0
XRECORD
  5
369D5
102
{ACAD_REACTORS
330
369D4
102
}
330
369D4
100
AcDbXrecord
280
     1
102
SHADEPLOT
 70
     0
102
SHADEPLOTRESLEVEL
 70
     2
102
SHADEPLOTCUSTOMDPI
 70
   300
  0
XRECORD
  5
369DB
102
{ACAD_REACTORS
330
369DA
102
}
330
369DA
100
AcDbXrecord
280
     1
102
SHADEPLOT
 70
     0
102
SHADEPLOTRESLEVEL
 70
     2
102
SHADEPLOTCUSTOMDPI
 70
   300
  0
XRECORD
  5
369D7
102
{ACAD_REACTORS
330
369D6
102
}
330
369D6
100
AcDbXrecord
280
     1
102
SHADEPLOT
 70
     0
102
SHADEPLOTRESLEVEL
 70
     2
102
SHADEPLOTCUSTOMDPI
 70
   300
  0
CELLSTYLEMAP
  5
369B2
102
{ACAD_REACTORS
330
3695B
102
}
330
3695B
100
AcDbCellStyleMap
 90
        3
300
CELLSTYLE
  1
TABLEFORMAT_BEGIN
 90
        5
170
     1
 91
        0
 92
    32768
 62
   257
 93
        1
300
CONTENTFORMAT
  1
CONTENTFORMAT_BEGIN
 90
        0
 91
        0
 92
        4
 93
        0
300

 40
0.0
140
1.0
 94
        5
 62
     0
340
13
144
0.25
309
CONTENTFORMAT_END
171
     1
301
MARGIN
  1
CELLMARGIN_BEGIN
 40
0.06
 40
0.06
 40
0.06
 40
0.06
 40
0.18
 40
0.18
309
CELLMARGIN_END
 94
        6
 95
        1
302
GRIDFORMAT
  1
GRIDFORMAT_BEGIN
 90
        0
 91
        1
 62
     0
 92
       -2
340
0
 93
        0
 40
0.045
309
GRIDFORMAT_END
 95
        2
302
GRIDFORMAT
  1
GRIDFORMAT_BEGIN
 90
        0
 91
        1
 62
     0
 92
       -2
340
0
 93
        0
 40
0.045
309
GRIDFORMAT_END
 95
        4
302
GRIDFORMAT
  1
GRIDFORMAT_BEGIN
 90
        0
 91
        1
 62
     0
 92
       -2
340
0
 93
        0
 40
0.045
309
GRIDFORMAT_END
 95
        8
302
GRIDFORMAT
  1
GRIDFORMAT_BEGIN
 90
        0
 91
        1
 62
     0
 92
       -2
340
0
 93
        0
 40
0.045
309
GRIDFORMAT_END
 95
       16
302
GRIDFORMAT
  1
GRIDFORMAT_BEGIN
 90
        0
 91
        1
 62
     0
 92
       -2
340
0
 93
        0
 40
0.045
309
GRIDFORMAT_END
 95
       32
302
GRIDFORMAT
  1
GRIDFORMAT_BEGIN
 90
        0
 91
        1
 62
     0
 92
       -2
340
0
 93
        0
 40
0.045
309
GRIDFORMAT_END
309
TABLEFORMAT_END
  1
CELLSTYLE_BEGIN
 90
        1
 91
        1
300
_TITLE
309
CELLSTYLE_END
300
CELLSTYLE
  1
TABLEFORMAT_BEGIN
 90
        5
170
     1
 91
        0
 92
        0
 62
   257
 93
        1
300
CONTENTFORMAT
  1
CONTENTFORMAT_BEGIN
 90
        0
 91
        0
 92
        4
 93
        0
300

 40
0.0
140
1.0
 94
        5
 62
     0
340
13
144
0.18
309
CONTENTFORMAT_END
171
     1
301
MARGIN
  1
CELLMARGIN_BEGIN
 40
0.06
 40
0.06
 40
0.06
 40
0.06
 40
0.18
 40
0.18
309
CELLMARGIN_END
 94
        6
 95
        1
302
GRIDFORMAT
  1
GRIDFORMAT_BEGIN
 90
        0
 91
        1
 62
     0
 92
       -2
340
0
 93
        0
 40
0.045
309
GRIDFORMAT_END
 95
        2
302
GRIDFORMAT
  1
GRIDFORMAT_BEGIN
 90
        0
 91
        1
 62
     0
 92
       -2
340
0
 93
        0
 40
0.045
309
GRIDFORMAT_END
 95
        4
302
GRIDFORMAT
  1
GRIDFORMAT_BEGIN
 90
        0
 91
        1
 62
     0
 92
       -2
340
0
 93
        0
 40
0.045
309
GRIDFORMAT_END
 95
        8
302
GRIDFORMAT
  1
GRIDFORMAT_BEGIN
 90
        0
 91
        1
 62
     0
 92
       -2
340
0
 93
        0
 40
0.045
309
GRIDFORMAT_END
 95
       16
302
GRIDFORMAT
  1
GRIDFORMAT_BEGIN
 90
        0
 91
        1
 62
     0
 92
       -2
340
0
 93
        0
 40
0.045
309
GRIDFORMAT_END
 95
       32
302
GRIDFORMAT
  1
GRIDFORMAT_BEGIN
 90
        0
 91
        1
 62
     0
 92
       -2
340
0
 93
        0
 40
0.045
309
GRIDFORMAT_END
309
TABLEFORMAT_END
  1
CELLSTYLE_BEGIN
 90
        2
 91
        1
300
_HEADER
309
CELLSTYLE_END
300
CELLSTYLE
  1
TABLEFORMAT_BEGIN
 90
        5
170
     1
 91
        0
 92
        0
 62
   257
 93
        1
300
CONTENTFORMAT
  1
CONTENTFORMAT_BEGIN
 90
        0
 91
        0
 92
        4
 93
        0
300

 40
0.0
140
1.0
 94
        2
 62
     0
340
13
144
0.18
309
CONTENTFORMAT_END
171
     1
301
MARGIN
  1
CELLMARGIN_BEGIN
 40
0.06
 40
0.06
 40
0.06
 40
0.06
 40
0.18
 40
0.18
309
CELLMARGIN_END
 94
        6
 95
        1
302
GRIDFORMAT
  1
GRIDFORMAT_BEGIN
 90
        0
 91
        1
 62
     0
 92
       -2
340
0
 93
        0
 40
0.045
309
GRIDFORMAT_END
 95
        2
302
GRIDFORMAT
  1
GRIDFORMAT_BEGIN
 90
        0
 91
        1
 62
     0
 92
       -2
340
0
 93
        0
 40
0.045
309
GRIDFORMAT_END
 95
        4
302
GRIDFORMAT
  1
GRIDFORMAT_BEGIN
 90
        0
 91
        1
 62
     0
 92
       -2
340
0
 93
        0
 40
0.045
309
GRIDFORMAT_END
 95
        8
302
GRIDFORMAT
  1
GRIDFORMAT_BEGIN
 90
        0
 91
        1
 62
     0
 92
       -2
340
0
 93
        0
 40
0.045
309
GRIDFORMAT_END
 95
       16
302
GRIDFORMAT
  1
GRIDFORMAT_BEGIN
 90
        0
 91
        1
 62
     0
 92
       -2
340
0
 93
        0
 40
0.045
309
GRIDFORMAT_END
 95
       32
302
GRIDFORMAT
  1
GRIDFORMAT_BEGIN
 90
        0
 91
        1
 62
     0
 92
       -2
340
0
 93
        0
 40
0.045
309
GRIDFORMAT_END
309
TABLEFORMAT_END
  1
CELLSTYLE_BEGIN
 90
        3
 91
        2
300
_DATA
309
CELLSTYLE_END
  0
XRECORD
  5
369BB
102
{ACAD_REACTORS
330
3695B
102
}
330
3695B
100
AcDbXrecord
280
     1
102
ACAD_ROUNDTRIP_PRE2007_TABLESTYLE
 90
        4
 91
        0
  1

 92
        4
 93
        0
  2

 94
        4
 95
        0
  3

  0
XRECORD
  5
369C7
102
{ACAD_REACTORS
330
369C6
102
}
330
369C6
100
AcDbXrecord
280
     1
102
RTVSPropertyOp0
 70
     1
102
RTVSPropertyOp1
 70
     1
102
RTVSPropertyOp2
 70
     1
102
RTVSPropertyOp3
 70
     1
102
RTVSPropertyOp4
 70
     1
102
RTVSPropertyOp5
 70
     1
102
RTVSPropertyOp6
 70
     1
102
RTVSPropertyOp7
 70
     1
102
RTVSPropertyOp8
 70
     1
102
RTVSPropertyOp9
 70
     1
102
RTVSPropertyOp10
 70
     1
102
RTVSPropertyOp11
 70
     1
102
RTVSPropertyOp12
 70
     1
102
RTVSPropertyOp13
 70
     1
102
RTVSPropertyOp14
 70
     1
102
RTVSPropertyOp15
 70
     1
102
RTVSPropertyOp16
 70
     1
102
RTVSPropertyOp17
 70
     1
102
RTVSPropertyOp18
 70
     1
102
RTVSPropertyOp19
 70
     1
102
RTVSPropertyOp20
 70
     1
102
RTVSPropertyOp21
 70
     1
102
RTVSPropertyOp22
 70
     1
102
RTVSPropertyOp23
 70
     1
102
RTVSPropertyOp24
 70
     1
102
RTVSPropertyOp25
 70
     1
102
RTVSPropertyOp26
 70
     1
102
RTVSPropertyOp27
 70
     1
102
RTVSPropertyOp28
 70
     1
102
RTVSPropertyOp29
 70
     1
102
RTVSPropertyOp30
 70
     1
102
RTVSPropertyOp31
 70
     1
102
RTVSPropertyOp32
 70
     1
  0
XRECORD
  5
369DD
102
{ACAD_REACTORS
330
369DC
102
}
330
369DC
100
AcDbXrecord
280
     1
102
RTVSPropertyOp0
 70
     1
102
RTVSPropertyOp1
 70
     1
102
RTVSPropertyOp2
 70
     1
102
RTVSPropertyOp3
 70
     1
102
RTVSPropertyOp4
 70
     1
102
RTVSPropertyOp5
 70
     1
102
RTVSPropertyOp6
 70
     1
102
RTVSPropertyOp7
 70
     1
102
RTVSPropertyOp8
 70
     1
102
RTVSPropertyOp9
 70
     1
102
RTVSPropertyOp10
 70
     1
102
RTVSPropertyOp11
 70
     1
102
RTVSPropertyOp12
 70
     1
102
RTVSPropertyOp13
 70
     1
102
RTVSPropertyOp14
 70
     1
102
RTVSPropertyOp15
 70
     1
102
RTVSPropertyOp16
 70
     1
102
RTVSPropertyOp17
 70
     1
102
RTVSPropertyOp18
 70
     1
102
RTVSPropertyOp19
 70
     1
102
RTVSPropertyOp20
 70
     1
102
RTVSPropertyOp21
 70
     1
102
RTVSPropertyOp22
 70
     1
102
RTVSPropertyOp23
 70
     1
102
RTVSPropertyOp24
 70
     1
102
RTVSPropertyOp25
 70
     1
102
RTVSPropertyOp26
 70
     1
102
RTVSPropertyOp27
 70
     1
102
RTVSPropertyOp28
 70
     1
102
RTVSPropertyOp29
 70
     1
102
RTVSPropertyOp30
 70
     1
102
RTVSPropertyOp31
 70
     1
102
RTVSPropertyOp32
 70
     1
  0
XRECORD
  5
369DF
102
{ACAD_REACTORS
330
369DE
102
}
330
369DE
100
AcDbXrecord
280
     1
102
RTVSPropertyOp0
 70
     1
102
RTVSPropertyOp1
 70
     1
102
RTVSPropertyOp2
 70
     1
102
RTVSPropertyOp3
 70
     1
102
RTVSPropertyOp4
 70
     1
102
RTVSPropertyOp5
 70
     1
102
RTVSPropertyOp6
 70
     1
102
RTVSPropertyOp7
 70
     1
102
RTVSPropertyOp8
 70
     1
102
RTVSPropertyOp9
 70
     1
102
RTVSPropertyOp10
 70
     1
102
RTVSPropertyOp11
 70
     1
102
RTVSPropertyOp12
 70
     1
102
RTVSPropertyOp13
 70
     1
102
RTVSPropertyOp14
 70
     1
102
RTVSPropertyOp15
 70
     1
102
RTVSPropertyOp16
 70
     1
102
RTVSPropertyOp17
 70
     1
102
RTVSPropertyOp18
 70
     1
102
RTVSPropertyOp19
 70
     1
102
RTVSPropertyOp20
 70
     1
102
RTVSPropertyOp21
 70
     1
102
RTVSPropertyOp22
 70
     1
102
RTVSPropertyOp23
 70
     1
102
RTVSPropertyOp24
 70
     1
102
RTVSPropertyOp25
 70
     1
102
RTVSPropertyOp26
 70
     1
102
RTVSPropertyOp27
 70
     1
102
RTVSPropertyOp28
 70
     1
102
RTVSPropertyOp29
 70
     1
102
RTVSPropertyOp30
 70
     1
102
RTVSPropertyOp31
 70
     1
102
RTVSPropertyOp32
 70
     1
  0
XRECORD
  5
369C5
102
{ACAD_REACTORS
330
369C4
102
}
330
369C4
100
AcDbXrecord
280
     1
102
RTVSPropertyOp0
 70
     1
102
RTVSPropertyOp1
 70
     1
102
RTVSPropertyOp2
 70
     1
102
RTVSPropertyOp3
 70
     1
102
RTVSPropertyOp4
 70
     1
102
RTVSPropertyOp5
 70
     1
102
RTVSPropertyOp6
 70
     1
102
RTVSPropertyOp7
 70
     1
102
RTVSPropertyOp8
 70
     1
102
RTVSPropertyOp9
 70
     1
102
RTVSPropertyOp10
 70
     1
102
RTVSPropertyOp11
 70
     1
102
RTVSPropertyOp12
 70
     1
102
RTVSPropertyOp13
 70
     1
102
RTVSPropertyOp14
 70
     1
102
RTVSPropertyOp15
 70
     1
102
RTVSPropertyOp16
 70
     1
102
RTVSPropertyOp17
 70
     1
102
RTVSPropertyOp18
 70
     1
102
RTVSPropertyOp19
 70
     1
102
RTVSPropertyOp20
 70
     1
102
RTVSPropertyOp21
 70
     1
102
RTVSPropertyOp22
 70
     1
102
RTVSPropertyOp23
 70
     1
102
RTVSPropertyOp24
 70
     1
102
RTVSPropertyOp25
 70
     1
102
RTVSPropertyOp26
 70
     1
102
RTVSPropertyOp27
 70
     1
102
RTVSPropertyOp28
 70
     1
102
RTVSPropertyOp29
 70
     1
102
RTVSPropertyOp30
 70
     1
102
RTVSPropertyOp31
 70
     1
102
RTVSPropertyOp32
 70
     1
  0
XRECORD
  5
369CB
102
{ACAD_REACTORS
330
369CA
102
}
330
369CA
100
AcDbXrecord
280
     1
102
RTVSPropertyOp0
 70
     1
102
RTVSPropertyOp1
 70
     1
102
RTVSPropertyOp2
 70
     1
102
RTVSPropertyOp3
 70
     1
102
RTVSPropertyOp4
 70
     1
102
RTVSPropertyOp5
 70
     1
102
RTVSPropertyOp6
 70
     1
102
RTVSPropertyOp7
 70
     1
102
RTVSPropertyOp8
 70
     1
102
RTVSPropertyOp9
 70
     1
102
RTVSPropertyOp10
 70
     1
102
RTVSPropertyOp11
 70
     1
102
RTVSPropertyOp12
 70
     1
102
RTVSPropertyOp13
 70
     1
102
RTVSPropertyOp14
 70
     1
102
RTVSPropertyOp15
 70
     1
102
RTVSPropertyOp16
 70
     1
102
RTVSPropertyOp17
 70
     1
102
RTVSPropertyOp18
 70
     1
102
RTVSPropertyOp19
 70
     1
102
RTVSPropertyOp20
 70
     1
102
RTVSPropertyOp21
 70
     1
102
RTVSPropertyOp22
 70
     1
102
RTVSPropertyOp23
 70
     1
102
RTVSPropertyOp24
 70
     1
102
RTVSPropertyOp25
 70
     1
102
RTVSPropertyOp26
 70
     1
102
RTVSPropertyOp27
 70
     1
102
RTVSPropertyOp28
 70
     1
102
RTVSPropertyOp29
 70
     1
102
RTVSPropertyOp30
 70
     1
102
RTVSPropertyOp31
 70
     1
102
RTVSPropertyOp32
 70
     1
  0
XRECORD
  5
369D3
102
{ACAD_REACTORS
330
369D2
102
}
330
369D2
100
AcDbXrecord
280
     1
102
RTVSPropertyOp0
 70
     1
102
RTVSPropertyOp1
 70
     1
102
RTVSPropertyOp2
 70
     1
102
RTVSPropertyOp3
 70
     1
102
RTVSPropertyOp4
 70
     1
102
RTVSPropertyOp5
 70
     1
102
RTVSPropertyOp6
 70
     1
102
RTVSPropertyOp7
 70
     1
102
RTVSPropertyOp8
 70
     1
102
RTVSPropertyOp9
 70
     1
102
RTVSPropertyOp10
 70
     1
102
RTVSPropertyOp11
 70
     1
102
RTVSPropertyOp12
 70
     1
102
RTVSPropertyOp13
 70
     1
102
RTVSPropertyOp14
 70
     1
102
RTVSPropertyOp15
 70
     1
102
RTVSPropertyOp16
 70
     1
102
RTVSPropertyOp17
 70
     1
102
RTVSPropertyOp18
 70
     1
102
RTVSPropertyOp19
 70
     1
102
RTVSPropertyOp20
 70
     1
102
RTVSPropertyOp21
 70
     1
102
RTVSPropertyOp22
 70
     1
102
RTVSPropertyOp23
 70
     1
102
RTVSPropertyOp24
 70
     1
102
RTVSPropertyOp25
 70
     1
102
RTVSPropertyOp26
 70
     1
102
RTVSPropertyOp27
 70
     1
102
RTVSPropertyOp28
 70
     1
102
RTVSPropertyOp29
 70
     1
102
RTVSPropertyOp30
 70
     1
102
RTVSPropertyOp31
 70
     1
102
RTVSPropertyOp32
 70
     1
  0
XRECORD
  5
369E1
102
{ACAD_REACTORS
330
369E0
102
}
330
369E0
100
AcDbXrecord
280
     1
102
RTVSPropertyOp0
 70
     1
102
RTVSPropertyOp1
 70
     1
102
RTVSPropertyOp2
 70
     1
102
RTVSPropertyOp3
 70
     1
102
RTVSPropertyOp4
 70
     1
102
RTVSPropertyOp5
 70
     1
102
RTVSPropertyOp6
 70
     1
102
RTVSPropertyOp7
 70
     1
102
RTVSPropertyOp8
 70
     1
102
RTVSPropertyOp9
 70
     1
102
RTVSPropertyOp10
 70
     1
102
RTVSPropertyOp11
 70
     1
102
RTVSPropertyOp12
 70
     1
102
RTVSPropertyOp13
 70
     1
102
RTVSPropertyOp14
 70
     1
102
RTVSPropertyOp15
 70
     1
102
RTVSPropertyOp16
 70
     1
102
RTVSPropertyOp17
 70
     1
102
RTVSPropertyOp18
 70
     1
102
RTVSPropertyOp19
 70
     1
102
RTVSPropertyOp20
 70
     1
102
RTVSPropertyOp21
 70
     1
102
RTVSPropertyOp22
 70
     1
102
RTVSPropertyOp23
 70
     1
102
RTVSPropertyOp24
 70
     1
102
RTVSPropertyOp25
 70
     1
102
RTVSPropertyOp26
 70
     1
102
RTVSPropertyOp27
 70
     1
102
RTVSPropertyOp28
 70
     1
102
RTVSPropertyOp29
 70
     1
102
RTVSPropertyOp30
 70
     1
102
RTVSPropertyOp31
 70
     1
102
RTVSPropertyOp32
 70
     1
  0
XRECORD
  5
369C9
102
{ACAD_REACTORS
330
369C8
102
}
330
369C8
100
AcDbXrecord
280
     1
102
RTVSPropertyOp0
 70
     1
102
RTVSPropertyOp1
 70
     1
102
RTVSPropertyOp2
 70
     1
102
RTVSPropertyOp3
 70
     1
102
RTVSPropertyOp4
 70
     1
102
RTVSPropertyOp5
 70
     1
102
RTVSPropertyOp6
 70
     1
102
RTVSPropertyOp7
 70
     1
102
RTVSPropertyOp8
 70
     1
102
RTVSPropertyOp9
 70
     1
102
RTVSPropertyOp10
 70
     1
102
RTVSPropertyOp11
 70
     1
102
RTVSPropertyOp12
 70
     1
102
RTVSPropertyOp13
 70
     1
102
RTVSPropertyOp14
 70
     1
102
RTVSPropertyOp15
 70
     1
102
RTVSPropertyOp16
 70
     1
102
RTVSPropertyOp17
 70
     1
102
RTVSPropertyOp18
 70
     1
102
RTVSPropertyOp19
 70
     1
102
RTVSPropertyOp20
 70
     1
102
RTVSPropertyOp21
 70
     1
102
RTVSPropertyOp22
 70
     1
102
RTVSPropertyOp23
 70
     1
102
RTVSPropertyOp24
 70
     1
102
RTVSPropertyOp25
 70
     1
102
RTVSPropertyOp26
 70
     1
102
RTVSPropertyOp27
 70
     1
102
RTVSPropertyOp28
 70
     1
102
RTVSPropertyOp29
 70
     1
102
RTVSPropertyOp30
 70
     1
102
RTVSPropertyOp31
 70
     1
102
RTVSPropertyOp32
 70
     1
  0
XRECORD
  5
369F7
102
{ACAD_REACTORS
330
369F6
102
}
330
369F6
100
AcDbXrecord
280
     1
102
RTVSPropertyOp0
 70
     0
102
RTVSPropertyOp1
 70
     0
102
RTVSPropertyOp2
 70
     0
102
RTVSPropertyOp3
 70
     0
102
RTVSPropertyOp4
 70
     0
102
RTVSPropertyOp5
 70
     0
102
RTVSPropertyOp6
 70
     0
102
RTVSPropertyOp7
 70
     0
102
RTVSPropertyOp8
 70
     0
102
RTVSPropertyOp9
 70
     0
102
RTVSPropertyOp10
 70
     0
102
RTVSPropertyOp11
 70
     0
102
RTVSPropertyOp12
 70
     0
102
RTVSPropertyOp13
 70
     0
102
RTVSPropertyOp14
 70
     2
102
RTVSPropertyOp15
 70
     0
102
RTVSPropertyOp16
 70
     0
102
RTVSPropertyOp17
 70
     0
102
RTVSPropertyOp18
 70
     0
102
RTVSPropertyOp19
 70
     0
102
RTVSPropertyOp20
 70
     0
102
RTVSPropertyOp21
 70
     0
102
RTVSPropertyOp22
 70
     0
102
RTVSPropertyOp23
 70
     0
102
RTVSPropertyOp24
 70
     0
102
RTVSPropertyOp25
 70
     0
102
RTVSPropertyOp26
 70
     0
102
RTVSPropertyOp27
 70
     0
102
RTVSPropertyOp28
 70
     1
102
RTVSPropertyOp29
 70
     1
102
RTVSPropertyOp30
 70
     1
102
RTVSPropertyOp31
 70
     1
102
RTVSPropertyOp32
 70
     1
  0
XRECORD
  5
369D1
102
{ACAD_REACTORS
330
369D0
102
}
330
369D0
100
AcDbXrecord
280
     1
102
RTVSPropertyOp0
 70
     1
102
RTVSPropertyOp1
 70
     1
102
RTVSPropertyOp2
 70
     1
102
RTVSPropertyOp3
 70
     1
102
RTVSPropertyOp4
 70
     1
102
RTVSPropertyOp5
 70
     1
102
RTVSPropertyOp6
 70
     1
102
RTVSPropertyOp7
 70
     1
102
RTVSPropertyOp8
 70
     1
102
RTVSPropertyOp9
 70
     1
102
RTVSPropertyOp10
 70
     1
102
RTVSPropertyOp11
 70
     1
102
RTVSPropertyOp12
 70
     1
102
RTVSPropertyOp13
 70
     1
102
RTVSPropertyOp14
 70
     1
102
RTVSPropertyOp15
 70
     1
102
RTVSPropertyOp16
 70
     1
102
RTVSPropertyOp17
 70
     1
102
RTVSPropertyOp18
 70
     1
102
RTVSPropertyOp19
 70
     1
102
RTVSPropertyOp20
 70
     1
102
RTVSPropertyOp21
 70
     1
102
RTVSPropertyOp22
 70
     1
102
RTVSPropertyOp23
 70
     1
102
RTVSPropertyOp24
 70
     1
102
RTVSPropertyOp25
 70
     1
102
RTVSPropertyOp26
 70
     1
102
RTVSPropertyOp27
 70
     1
102
RTVSPropertyOp28
 70
     1
102
RTVSPropertyOp29
 70
     1
102
RTVSPropertyOp30
 70
     1
102
RTVSPropertyOp31
 70
     1
102
RTVSPropertyOp32
 70
     1
  0
XRECORD
  5
369BD
102
{ACAD_REACTORS
330
369BC
102
}
330
369BC
100
AcDbXrecord
280
     1
102
RTVSPropertyOp0
 70
     1
102
RTVSPropertyOp1
 70
     1
102
RTVSPropertyOp2
 70
     1
102
RTVSPropertyOp3
 70
     1
102
RTVSPropertyOp4
 70
     1
102
RTVSPropertyOp5
 70
     1
102
RTVSPropertyOp6
 70
     1
102
RTVSPropertyOp7
 70
     1
102
RTVSPropertyOp8
 70
     1
102
RTVSPropertyOp9
 70
     1
102
RTVSPropertyOp10
 70
     1
102
RTVSPropertyOp11
 70
     1
102
RTVSPropertyOp12
 70
     1
102
RTVSPropertyOp13
 70
     1
102
RTVSPropertyOp14
 70
     1
102
RTVSPropertyOp15
 70
     1
102
RTVSPropertyOp16
 70
     1
102
RTVSPropertyOp17
 70
     1
102
RTVSPropertyOp18
 70
     1
102
RTVSPropertyOp19
 70
     1
102
RTVSPropertyOp20
 70
     1
102
RTVSPropertyOp21
 70
     1
102
RTVSPropertyOp22
 70
     1
102
RTVSPropertyOp23
 70
     1
102
RTVSPropertyOp24
 70
     1
102
RTVSPropertyOp25
 70
     1
102
RTVSPropertyOp26
 70
     1
102
RTVSPropertyOp27
 70
     1
102
RTVSPropertyOp28
 70
     1
102
RTVSPropertyOp29
 70
     1
102
RTVSPropertyOp30
 70
     1
102
RTVSPropertyOp31
 70
     1
102
RTVSPropertyOp32
 70
     1
  0
XRECORD
  5
369BF
102
{ACAD_REACTORS
330
369BE
102
}
330
369BE
100
AcDbXrecord
280
     1
102
RTVSPropertyOp0
 70
     1
102
RTVSPropertyOp1
 70
     1
102
RTVSPropertyOp2
 70
     1
102
RTVSPropertyOp3
 70
     1
102
RTVSPropertyOp4
 70
     1
102
RTVSPropertyOp5
 70
     1
102
RTVSPropertyOp6
 70
     1
102
RTVSPropertyOp7
 70
     1
102
RTVSPropertyOp8
 70
     1
102
RTVSPropertyOp9
 70
     1
102
RTVSPropertyOp10
 70
     1
102
RTVSPropertyOp11
 70
     1
102
RTVSPropertyOp12
 70
     1
102
RTVSPropertyOp13
 70
     1
102
RTVSPropertyOp14
 70
     1
102
RTVSPropertyOp15
 70
     1
102
RTVSPropertyOp16
 70
     1
102
RTVSPropertyOp17
 70
     1
102
RTVSPropertyOp18
 70
     1
102
RTVSPropertyOp19
 70
     1
102
RTVSPropertyOp20
 70
     1
102
RTVSPropertyOp21
 70
     1
102
RTVSPropertyOp22
 70
     1
102
RTVSPropertyOp23
 70
     1
102
RTVSPropertyOp24
 70
     1
102
RTVSPropertyOp25
 70
     1
102
RTVSPropertyOp26
 70
     1
102
RTVSPropertyOp27
 70
     1
102
RTVSPropertyOp28
 70
     1
102
RTVSPropertyOp29
 70
     1
102
RTVSPropertyOp30
 70
     1
102
RTVSPropertyOp31
 70
     1
102
RTVSPropertyOp32
 70
     1
  0
XRECORD
  5
369C1
102
{ACAD_REACTORS
330
369C0
102
}
330
369C0
100
AcDbXrecord
280
     1
102
RTVSPropertyOp0
 70
     1
102
RTVSPropertyOp1
 70
     1
102
RTVSPropertyOp2
 70
     1
102
RTVSPropertyOp3
 70
     1
102
RTVSPropertyOp4
 70
     1
102
RTVSPropertyOp5
 70
     1
102
RTVSPropertyOp6
 70
     1
102
RTVSPropertyOp7
 70
     1
102
RTVSPropertyOp8
 70
     1
102
RTVSPropertyOp9
 70
     1
102
RTVSPropertyOp10
 70
     1
102
RTVSPropertyOp11
 70
     1
102
RTVSPropertyOp12
 70
     1
102
RTVSPropertyOp13
 70
     1
102
RTVSPropertyOp14
 70
     1
102
RTVSPropertyOp15
 70
     1
102
RTVSPropertyOp16
 70
     1
102
RTVSPropertyOp17
 70
     1
102
RTVSPropertyOp18
 70
     1
102
RTVSPropertyOp19
 70
     1
102
RTVSPropertyOp20
 70
     1
102
RTVSPropertyOp21
 70
     1
102
RTVSPropertyOp22
 70
     1
102
RTVSPropertyOp23
 70
     1
102
RTVSPropertyOp24
 70
     1
102
RTVSPropertyOp25
 70
     1
102
RTVSPropertyOp26
 70
     1
102
RTVSPropertyOp27
 70
     1
102
RTVSPropertyOp28
 70
     1
102
RTVSPropertyOp29
 70
     1
102
RTVSPropertyOp30
 70
     1
102
RTVSPropertyOp31
 70
     1
102
RTVSPropertyOp32
 70
     1
  0
XRECORD
  5
369C3
102
{ACAD_REACTORS
330
369C2
102
}
330
369C2
100
AcDbXrecord
280
     1
102
RTVSPropertyOp0
 70
     1
102
RTVSPropertyOp1
 70
     1
102
RTVSPropertyOp2
 70
     1
102
RTVSPropertyOp3
 70
     1
102
RTVSPropertyOp4
 70
     1
102
RTVSPropertyOp5
 70
     1
102
RTVSPropertyOp6
 70
     1
102
RTVSPropertyOp7
 70
     1
102
RTVSPropertyOp8
 70
     1
102
RTVSPropertyOp9
 70
     1
102
RTVSPropertyOp10
 70
     1
102
RTVSPropertyOp11
 70
     1
102
RTVSPropertyOp12
 70
     1
102
RTVSPropertyOp13
 70
     1
102
RTVSPropertyOp14
 70
     1
102
RTVSPropertyOp15
 70
     1
102
RTVSPropertyOp16
 70
     1
102
RTVSPropertyOp17
 70
     1
102
RTVSPropertyOp18
 70
     1
102
RTVSPropertyOp19
 70
     1
102
RTVSPropertyOp20
 70
     1
102
RTVSPropertyOp21
 70
     1
102
RTVSPropertyOp22
 70
     1
102
RTVSPropertyOp23
 70
     1
102
RTVSPropertyOp24
 70
     1
102
RTVSPropertyOp25
 70
     1
102
RTVSPropertyOp26
 70
     1
102
RTVSPropertyOp27
 70
     1
102
RTVSPropertyOp28
 70
     1
102
RTVSPropertyOp29
 70
     1
102
RTVSPropertyOp30
 70
     1
102
RTVSPropertyOp31
 70
     1
102
RTVSPropertyOp32
 70
     1
  0
XRECORD
  5
369E7
102
{ACAD_REACTORS
330
369E6
102
}
330
369E6
100
AcDbXrecord
280
     1
102
RTVSPropertyOp0
 70
     1
102
RTVSPropertyOp1
 70
     1
102
RTVSPropertyOp2
 70
     1
102
RTVSPropertyOp3
 70
     1
102
RTVSPropertyOp4
 70
     1
102
RTVSPropertyOp5
 70
     1
102
RTVSPropertyOp6
 70
     1
102
RTVSPropertyOp7
 70
     1
102
RTVSPropertyOp8
 70
     1
102
RTVSPropertyOp9
 70
     1
102
RTVSPropertyOp10
 70
     1
102
RTVSPropertyOp11
 70
     1
102
RTVSPropertyOp12
 70
     1
102
RTVSPropertyOp13
 70
     1
102
RTVSPropertyOp14
 70
     1
102
RTVSPropertyOp15
 70
     1
102
RTVSPropertyOp16
 70
     1
102
RTVSPropertyOp17
 70
     1
102
RTVSPropertyOp18
 70
     1
102
RTVSPropertyOp19
 70
     1
102
RTVSPropertyOp20
 70
     1
102
RTVSPropertyOp21
 70
     1
102
RTVSPropertyOp22
 70
     1
102
RTVSPropertyOp23
 70
     1
102
RTVSPropertyOp24
 70
     1
102
RTVSPropertyOp25
 70
     1
102
RTVSPropertyOp26
 70
     1
102
RTVSPropertyOp27
 70
     1
102
RTVSPropertyOp28
 70
     1
102
RTVSPropertyOp29
 70
     1
102
RTVSPropertyOp30
 70
     1
102
RTVSPropertyOp31
 70
     1
102
RTVSPropertyOp32
 70
     1
  0
XRECORD
  5
369F3
102
{ACAD_REACTORS
330
369F2
102
}
330
369F2
100
AcDbXrecord
280
     1
102
RTVSPropertyOp0
 70
     0
102
RTVSPropertyOp1
 70
     0
102
RTVSPropertyOp2
 70
     0
102
RTVSPropertyOp3
 70
     0
102
RTVSPropertyOp4
 70
     0
102
RTVSPropertyOp5
 70
     0
102
RTVSPropertyOp6
 70
     0
102
RTVSPropertyOp7
 70
     0
102
RTVSPropertyOp8
 70
     0
102
RTVSPropertyOp9
 70
     0
102
RTVSPropertyOp10
 70
     0
102
RTVSPropertyOp11
 70
     0
102
RTVSPropertyOp12
 70
     0
102
RTVSPropertyOp13
 70
     0
102
RTVSPropertyOp14
 70
     2
102
RTVSPropertyOp15
 70
     0
102
RTVSPropertyOp16
 70
     0
102
RTVSPropertyOp17
 70
     0
102
RTVSPropertyOp18
 70
     0
102
RTVSPropertyOp19
 70
     0
102
RTVSPropertyOp20
 70
     0
102
RTVSPropertyOp21
 70
     0
102
RTVSPropertyOp22
 70
     0
102
RTVSPropertyOp23
 70
     0
102
RTVSPropertyOp24
 70
     0
102
RTVSPropertyOp25
 70
     0
102
RTVSPropertyOp26
 70
     0
102
RTVSPropertyOp27
 70
     0
102
RTVSPropertyOp28
 70
     1
102
RTVSPropertyOp29
 70
     1
102
RTVSPropertyOp30
 70
     1
102
RTVSPropertyOp31
 70
     1
102
RTVSPropertyOp32
 70
     1
  0
XRECORD
  5
369CF
102
{ACAD_REACTORS
330
369CE
102
}
330
369CE
100
AcDbXrecord
280
     1
102
RTVSPropertyOp0
 70
     1
102
RTVSPropertyOp1
 70
     1
102
RTVSPropertyOp2
 70
     1
102
RTVSPropertyOp3
 70
     1
102
RTVSPropertyOp4
 70
     1
102
RTVSPropertyOp5
 70
     1
102
RTVSPropertyOp6
 70
     1
102
RTVSPropertyOp7
 70
     1
102
RTVSPropertyOp8
 70
     1
102
RTVSPropertyOp9
 70
     1
102
RTVSPropertyOp10
 70
     1
102
RTVSPropertyOp11
 70
     1
102
RTVSPropertyOp12
 70
     1
102
RTVSPropertyOp13
 70
     1
102
RTVSPropertyOp14
 70
     1
102
RTVSPropertyOp15
 70
     1
102
RTVSPropertyOp16
 70
     1
102
RTVSPropertyOp17
 70
     1
102
RTVSPropertyOp18
 70
     1
102
RTVSPropertyOp19
 70
     1
102
RTVSPropertyOp20
 70
     1
102
RTVSPropertyOp21
 70
     1
102
RTVSPropertyOp22
 70
     1
102
RTVSPropertyOp23
 70
     1
102
RTVSPropertyOp24
 70
     1
102
RTVSPropertyOp25
 70
     1
102
RTVSPropertyOp26
 70
     1
102
RTVSPropertyOp27
 70
     1
102
RTVSPropertyOp28
 70
     1
102
RTVSPropertyOp29
 70
     1
102
RTVSPropertyOp30
 70
     1
102
RTVSPropertyOp31
 70
     1
102
RTVSPropertyOp32
 70
     1
  0
XRECORD
  5
369F5
102
{ACAD_REACTORS
330
369F4
102
}
330
369F4
100
AcDbXrecord
280
     1
102
RTVSPropertyOp0
 70
     0
102
RTVSPropertyOp1
 70
     0
102
RTVSPropertyOp2
 70
     0
102
RTVSPropertyOp3
 70
     0
102
RTVSPropertyOp4
 70
     0
102
RTVSPropertyOp5
 70
     0
102
RTVSPropertyOp6
 70
     0
102
RTVSPropertyOp7
 70
     0
102
RTVSPropertyOp8
 70
     0
102
RTVSPropertyOp9
 70
     0
102
RTVSPropertyOp10
 70
     0
102
RTVSPropertyOp11
 70
     0
102
RTVSPropertyOp12
 70
     0
102
RTVSPropertyOp13
 70
     0
102
RTVSPropertyOp14
 70
     2
102
RTVSPropertyOp15
 70
     0
102
RTVSPropertyOp16
 70
     0
102
RTVSPropertyOp17
 70
     0
102
RTVSPropertyOp18
 70
     0
102
RTVSPropertyOp19
 70
     0
102
RTVSPropertyOp20
 70
     0
102
RTVSPropertyOp21
 70
     0
102
RTVSPropertyOp22
 70
     0
102
RTVSPropertyOp23
 70
     0
102
RTVSPropertyOp24
 70
     0
102
RTVSPropertyOp25
 70
     0
102
RTVSPropertyOp26
 70
     0
102
RTVSPropertyOp27
 70
     0
102
RTVSPropertyOp28
 70
     1
102
RTVSPropertyOp29
 70
     1
102
RTVSPropertyOp30
 70
     1
102
RTVSPropertyOp31
 70
     1
102
RTVSPropertyOp32
 70
     1
  0
XRECORD
  5
369E3
102
{ACAD_REACTORS
330
369E2
102
}
330
369E2
100
AcDbXrecord
280
     1
102
RTVSPropertyOp0
 70
     1
102
RTVSPropertyOp1
 70
     1
102
RTVSPropertyOp2
 70
     1
102
RTVSPropertyOp3
 70
     1
102
RTVSPropertyOp4
 70
     1
102
RTVSPropertyOp5
 70
     1
102
RTVSPropertyOp6
 70
     1
102
RTVSPropertyOp7
 70
     1
102
RTVSPropertyOp8
 70
     1
102
RTVSPropertyOp9
 70
     1
102
RTVSPropertyOp10
 70
     1
102
RTVSPropertyOp11
 70
     1
102
RTVSPropertyOp12
 70
     1
102
RTVSPropertyOp13
 70
     1
102
RTVSPropertyOp14
 70
     1
102
RTVSPropertyOp15
 70
     1
102
RTVSPropertyOp16
 70
     1
102
RTVSPropertyOp17
 70
     1
102
RTVSPropertyOp18
 70
     1
102
RTVSPropertyOp19
 70
     1
102
RTVSPropertyOp20
 70
     1
102
RTVSPropertyOp21
 70
     1
102
RTVSPropertyOp22
 70
     1
102
RTVSPropertyOp23
 70
     1
102
RTVSPropertyOp24
 70
     1
102
RTVSPropertyOp25
 70
     1
102
RTVSPropertyOp26
 70
     1
102
RTVSPropertyOp27
 70
     1
102
RTVSPropertyOp28
 70
     1
102
RTVSPropertyOp29
 70
     1
102
RTVSPropertyOp30
 70
     1
102
RTVSPropertyOp31
 70
     1
102
RTVSPropertyOp32
 70
     1
  0
XRECORD
  5
369F1
102
{ACAD_REACTORS
330
369F0
102
}
330
369F0
100
AcDbXrecord
280
     1
102
RTVSPropertyOp0
 70
     1
102
RTVSPropertyOp1
 70
     1
102
RTVSPropertyOp2
 70
     1
102
RTVSPropertyOp3
 70
     1
102
RTVSPropertyOp4
 70
     1
102
RTVSPropertyOp5
 70
     1
102
RTVSPropertyOp6
 70
     1
102
RTVSPropertyOp7
 70
     1
102
RTVSPropertyOp8
 70
     1
102
RTVSPropertyOp9
 70
     1
102
RTVSPropertyOp10
 70
     1
102
RTVSPropertyOp11
 70
     1
102
RTVSPropertyOp12
 70
     1
102
RTVSPropertyOp13
 70
     1
102
RTVSPropertyOp14
 70
     1
102
RTVSPropertyOp15
 70
     1
102
RTVSPropertyOp16
 70
     1
102
RTVSPropertyOp17
 70
     1
102
RTVSPropertyOp18
 70
     1
102
RTVSPropertyOp19
 70
     1
102
RTVSPropertyOp20
 70
     1
102
RTVSPropertyOp21
 70
     1
102
RTVSPropertyOp22
 70
     1
102
RTVSPropertyOp23
 70
     1
102
RTVSPropertyOp24
 70
     1
102
RTVSPropertyOp25
 70
     1
102
RTVSPropertyOp26
 70
     1
102
RTVSPropertyOp27
 70
     1
102
RTVSPropertyOp28
 70
     1
102
RTVSPropertyOp29
 70
     1
102
RTVSPropertyOp30
 70
     1
102
RTVSPropertyOp31
 70
     1
102
RTVSPropertyOp32
 70
     1
  0
XRECORD
  5
369EF
102
{ACAD_REACTORS
330
369EE
102
}
330
369EE
100
AcDbXrecord
280
     1
102
RTVSPropertyOp0
 70
     1
102
RTVSPropertyOp1
 70
     1
102
RTVSPropertyOp2
 70
     1
102
RTVSPropertyOp3
 70
     1
102
RTVSPropertyOp4
 70
     1
102
RTVSPropertyOp5
 70
     1
102
RTVSPropertyOp6
 70
     1
102
RTVSPropertyOp7
 70
     1
102
RTVSPropertyOp8
 70
     1
102
RTVSPropertyOp9
 70
     1
102
RTVSPropertyOp10
 70
     1
102
RTVSPropertyOp11
 70
     1
102
RTVSPropertyOp12
 70
     1
102
RTVSPropertyOp13
 70
     1
102
RTVSPropertyOp14
 70
     1
102
RTVSPropertyOp15
 70
     1
102
RTVSPropertyOp16
 70
     1
102
RTVSPropertyOp17
 70
     1
102
RTVSPropertyOp18
 70
     1
102
RTVSPropertyOp19
 70
     1
102
RTVSPropertyOp20
 70
     1
102
RTVSPropertyOp21
 70
     1
102
RTVSPropertyOp22
 70
     1
102
RTVSPropertyOp23
 70
     1
102
RTVSPropertyOp24
 70
     1
102
RTVSPropertyOp25
 70
     1
102
RTVSPropertyOp26
 70
     1
102
RTVSPropertyOp27
 70
     1
102
RTVSPropertyOp28
 70
     1
102
RTVSPropertyOp29
 70
     1
102
RTVSPropertyOp30
 70
     1
102
RTVSPropertyOp31
 70
     1
102
RTVSPropertyOp32
 70
     1
  0
XRECORD
  5
369E9
102
{ACAD_REACTORS
330
369E8
102
}
330
369E8
100
AcDbXrecord
280
     1
102
RTVSPropertyOp0
 70
     1
102
RTVSPropertyOp1
 70
     1
102
RTVSPropertyOp2
 70
     1
102
RTVSPropertyOp3
 70
     1
102
RTVSPropertyOp4
 70
     1
102
RTVSPropertyOp5
 70
     1
102
RTVSPropertyOp6
 70
     1
102
RTVSPropertyOp7
 70
     1
102
RTVSPropertyOp8
 70
     1
102
RTVSPropertyOp9
 70
     1
102
RTVSPropertyOp10
 70
     1
102
RTVSPropertyOp11
 70
     1
102
RTVSPropertyOp12
 70
     1
102
RTVSPropertyOp13
 70
     1
102
RTVSPropertyOp14
 70
     1
102
RTVSPropertyOp15
 70
     1
102
RTVSPropertyOp16
 70
     1
102
RTVSPropertyOp17
 70
     1
102
RTVSPropertyOp18
 70
     1
102
RTVSPropertyOp19
 70
     1
102
RTVSPropertyOp20
 70
     1
102
RTVSPropertyOp21
 70
     1
102
RTVSPropertyOp22
 70
     1
102
RTVSPropertyOp23
 70
     1
102
RTVSPropertyOp24
 70
     1
102
RTVSPropertyOp25
 70
     1
102
RTVSPropertyOp26
 70
     1
102
RTVSPropertyOp27
 70
     1
102
RTVSPropertyOp28
 70
     1
102
RTVSPropertyOp29
 70
     1
102
RTVSPropertyOp30
 70
     1
102
RTVSPropertyOp31
 70
     1
102
RTVSPropertyOp32
 70
     1
  0
XRECORD
  5
369EB
102
{ACAD_REACTORS
330
369EA
102
}
330
369EA
100
AcDbXrecord
280
     1
102
RTVSPropertyOp0
 70
     1
102
RTVSPropertyOp1
 70
     1
102
RTVSPropertyOp2
 70
     1
102
RTVSPropertyOp3
 70
     1
102
RTVSPropertyOp4
 70
     1
102
RTVSPropertyOp5
 70
     1
102
RTVSPropertyOp6
 70
     1
102
RTVSPropertyOp7
 70
     1
102
RTVSPropertyOp8
 70
     1
102
RTVSPropertyOp9
 70
     1
102
RTVSPropertyOp10
 70
     1
102
RTVSPropertyOp11
 70
     1
102
RTVSPropertyOp12
 70
     1
102
RTVSPropertyOp13
 70
     1
102
RTVSPropertyOp14
 70
     1
102
RTVSPropertyOp15
 70
     1
102
RTVSPropertyOp16
 70
     1
102
RTVSPropertyOp17
 70
     1
102
RTVSPropertyOp18
 70
     1
102
RTVSPropertyOp19
 70
     1
102
RTVSPropertyOp20
 70
     1
102
RTVSPropertyOp21
 70
     1
102
RTVSPropertyOp22
 70
     1
102
RTVSPropertyOp23
 70
     1
102
RTVSPropertyOp24
 70
     1
102
RTVSPropertyOp25
 70
     1
102
RTVSPropertyOp26
 70
     1
102
RTVSPropertyOp27
 70
     1
102
RTVSPropertyOp28
 70
     1
102
RTVSPropertyOp29
 70
     1
102
RTVSPropertyOp30
 70
     1
102
RTVSPropertyOp31
 70
     1
102
RTVSPropertyOp32
 70
     1
  0
XRECORD
  5
369CD
102
{ACAD_REACTORS
330
369CC
102
}
330
369CC
100
AcDbXrecord
280
     1
102
RTVSPropertyOp0
 70
     1
102
RTVSPropertyOp1
 70
     1
102
RTVSPropertyOp2
 70
     1
102
RTVSPropertyOp3
 70
     1
102
RTVSPropertyOp4
 70
     1
102
RTVSPropertyOp5
 70
     1
102
RTVSPropertyOp6
 70
     1
102
RTVSPropertyOp7
 70
     1
102
RTVSPropertyOp8
 70
     1
102
RTVSPropertyOp9
 70
     1
102
RTVSPropertyOp10
 70
     1
102
RTVSPropertyOp11
 70
     1
102
RTVSPropertyOp12
 70
     1
102
RTVSPropertyOp13
 70
     1
102
RTVSPropertyOp14
 70
     1
102
RTVSPropertyOp15
 70
     1
102
RTVSPropertyOp16
 70
     1
102
RTVSPropertyOp17
 70
     1
102
RTVSPropertyOp18
 70
     1
102
RTVSPropertyOp19
 70
     1
102
RTVSPropertyOp20
 70
     1
102
RTVSPropertyOp21
 70
     1
102
RTVSPropertyOp22
 70
     1
102
RTVSPropertyOp23
 70
     1
102
RTVSPropertyOp24
 70
     1
102
RTVSPropertyOp25
 70
     1
102
RTVSPropertyOp26
 70
     1
102
RTVSPropertyOp27
 70
     1
102
RTVSPropertyOp28
 70
     1
102
RTVSPropertyOp29
 70
     1
102
RTVSPropertyOp30
 70
     1
102
RTVSPropertyOp31
 70
     1
102
RTVSPropertyOp32
 70
     1
  0
XRECORD
  5
369E5
102
{ACAD_REACTORS
330
369E4
102
}
330
369E4
100
AcDbXrecord
280
     1
102
RTVSPropertyOp0
 70
     1
102
RTVSPropertyOp1
 70
     1
102
RTVSPropertyOp2
 70
     1
102
RTVSPropertyOp3
 70
     1
102
RTVSPropertyOp4
 70
     1
102
RTVSPropertyOp5
 70
     1
102
RTVSPropertyOp6
 70
     1
102
RTVSPropertyOp7
 70
     1
102
RTVSPropertyOp8
 70
     1
102
RTVSPropertyOp9
 70
     1
102
RTVSPropertyOp10
 70
     1
102
RTVSPropertyOp11
 70
     1
102
RTVSPropertyOp12
 70
     1
102
RTVSPropertyOp13
 70
     1
102
RTVSPropertyOp14
 70
     1
102
RTVSPropertyOp15
 70
     1
102
RTVSPropertyOp16
 70
     1
102
RTVSPropertyOp17
 70
     1
102
RTVSPropertyOp18
 70
     1
102
RTVSPropertyOp19
 70
     1
102
RTVSPropertyOp20
 70
     1
102
RTVSPropertyOp21
 70
     1
102
RTVSPropertyOp22
 70
     1
102
RTVSPropertyOp23
 70
     1
102
RTVSPropertyOp24
 70
     1
102
RTVSPropertyOp25
 70
     1
102
RTVSPropertyOp26
 70
     1
102
RTVSPropertyOp27
 70
     1
102
RTVSPropertyOp28
 70
     1
102
RTVSPropertyOp29
 70
     1
102
RTVSPropertyOp30
 70
     1
102
RTVSPropertyOp31
 70
     1
102
RTVSPropertyOp32
 70
     1
  0
XRECORD
  5
369ED
102
{ACAD_REACTORS
330
369EC
102
}
330
369EC
100
AcDbXrecord
280
     1
102
RTVSPropertyOp0
 70
     1
102
RTVSPropertyOp1
 70
     1
102
RTVSPropertyOp2
 70
     1
102
RTVSPropertyOp3
 70
     1
102
RTVSPropertyOp4
 70
     1
102
RTVSPropertyOp5
 70
     1
102
RTVSPropertyOp6
 70
     1
102
RTVSPropertyOp7
 70
     1
102
RTVSPropertyOp8
 70
     1
102
RTVSPropertyOp9
 70
     1
102
RTVSPropertyOp10
 70
     1
102
RTVSPropertyOp11
 70
     1
102
RTVSPropertyOp12
 70
     1
102
RTVSPropertyOp13
 70
     1
102
RTVSPropertyOp14
 70
     1
102
RTVSPropertyOp15
 70
     1
102
RTVSPropertyOp16
 70
     1
102
RTVSPropertyOp17
 70
     1
102
RTVSPropertyOp18
 70
     1
102
RTVSPropertyOp19
 70
     1
102
RTVSPropertyOp20
 70
     1
102
RTVSPropertyOp21
 70
     1
102
RTVSPropertyOp22
 70
     1
102
RTVSPropertyOp23
 70
     1
102
RTVSPropertyOp24
 70
     1
102
RTVSPropertyOp25
 70
     1
102
RTVSPropertyOp26
 70
     1
102
RTVSPropertyOp27
 70
     1
102
RTVSPropertyOp28
 70
     1
102
RTVSPropertyOp29
 70
     1
102
RTVSPropertyOp30
 70
     1
102
RTVSPropertyOp31
 70
     1
102
RTVSPropertyOp32
 70
     1
  0
ENDSEC
  0
EOF
